  0
SECTION
  2
HEADER
  9
$ACADVER
  1
AC1018
  9
$ACADMAINTVER
 70
   104
  9
$DWGCODEPAGE
  3
ANSI_1250
  9
$LASTSAVEDBY
  1
hm1535
  9
$INSBASE
 10
0.0
 20
0.0
 30
0.0
  9
$EXTMIN
 10
236.4050863333333
 20
21.404126
 30
0.0
  9
$EXTMAX
 10
587.478648
 20
414.9841726666666
 30
0.0
  9
$LIMMIN
 10
-0.5
 20
-0.5
  9
$LIMMAX
 10
5.0
 20
5.0
  9
$ORTHOMODE
 70
     0
  9
$REGENMODE
 70
     1
  9
$FILLMODE
 70
     1
  9
$QTEXTMODE
 70
     0
  9
$MIRRTEXT
 70
     1
  9
$LTSCALE
 40
1.0
  9
$ATTMODE
 70
     1
  9
$TEXTSIZE
 40
0.2
  9
$TRACEWID
 40
0.05
  9
$TEXTSTYLE
  7
Standard
  9
$CLAYER
  8
0
  9
$CELTYPE
  6
ByLayer
  9
$CECOLOR
 62
   256
  9
$CELTSCALE
 40
1.0
  9
$DISPSILH
 70
     0
  9
$DIMSCALE
 40
1.0
  9
$DIMASZ
 40
0.18
  9
$DIMEXO
 40
0.0625
  9
$DIMDLI
 40
0.38
  9
$DIMRND
 40
0.0
  9
$DIMDLE
 40
0.0
  9
$DIMEXE
 40
0.18
  9
$DIMTP
 40
0.0
  9
$DIMTM
 40
0.0
  9
$DIMTXT
 40
0.18
  9
$DIMCEN
 40
0.09
  9
$DIMTSZ
 40
0.0
  9
$DIMTOL
 70
     0
  9
$DIMLIM
 70
     0
  9
$DIMTIH
 70
     1
  9
$DIMTOH
 70
     1
  9
$DIMSE1
 70
     0
  9
$DIMSE2
 70
     0
  9
$DIMTAD
 70
     0
  9
$DIMZIN
 70
     0
  9
$DIMBLK
  1

  9
$DIMASO
 70
     1
  9
$DIMSHO
 70
     1
  9
$DIMPOST
  1

  9
$DIMAPOST
  1

  9
$DIMALT
 70
     0
  9
$DIMALTD
 70
     2
  9
$DIMALTF
 40
25.4
  9
$DIMLFAC
 40
1.0
  9
$DIMTOFL
 70
     0
  9
$DIMTVP
 40
0.0
  9
$DIMTIX
 70
     0
  9
$DIMSOXD
 70
     0
  9
$DIMSAH
 70
     0
  9
$DIMBLK1
  1

  9
$DIMBLK2
  1

  9
$DIMSTYLE
  2
Standard
  9
$DIMCLRD
 70
     0
  9
$DIMCLRE
 70
     0
  9
$DIMCLRT
 70
     0
  9
$DIMTFAC
 40
1.0
  9
$DIMGAP
 40
0.09
  9
$DIMJUST
 70
     0
  9
$DIMSD1
 70
     0
  9
$DIMSD2
 70
     0
  9
$DIMTOLJ
 70
     1
  9
$DIMTZIN
 70
     0
  9
$DIMALTZ
 70
     0
  9
$DIMALTTZ
 70
     0
  9
$DIMUPT
 70
     0
  9
$DIMDEC
 70
     4
  9
$DIMTDEC
 70
     4
  9
$DIMALTU
 70
     2
  9
$DIMALTTD
 70
     2
  9
$DIMTXSTY
  7
Standard
  9
$DIMAUNIT
 70
     0
  9
$DIMADEC
 70
     0
  9
$DIMALTRND
 40
0.0
  9
$DIMAZIN
 70
     0
  9
$DIMDSEP
 70
    46
  9
$DIMATFIT
 70
     3
  9
$DIMFRAC
 70
     0
  9
$DIMLDRBLK
  1

  9
$DIMLUNIT
 70
     2
  9
$DIMLWD
 70
    -2
  9
$DIMLWE
 70
    -2
  9
$DIMTMOVE
 70
     0
  9
$LUNITS
 70
     2
  9
$LUPREC
 70
     2
  9
$SKETCHINC
 40
0.1
  9
$FILLETRAD
 40
0.5
  9
$AUNITS
 70
     0
  9
$AUPREC
 70
     0
  9
$MENU
  1
.
  9
$ELEVATION
 40
0.0
  9
$PELEVATION
 40
0.0
  9
$THICKNESS
 40
0.0
  9
$LIMCHECK
 70
     0
  9
$CHAMFERA
 40
0.0
  9
$CHAMFERB
 40
0.0
  9
$CHAMFERC
 40
0.0
  9
$CHAMFERD
 40
0.0
  9
$SKPOLY
 70
     0
  9
$TDCREATE
 40
2458871.397870370
  9
$TDUCREATE
 40
2458871.356211273
  9
$TDUPDATE
 40
2458871.398506945
  9
$TDUUPDATE
 40
2458871.356840278
  9
$TDINDWG
 40
0.0004166782
  9
$TDUSRTIMER
 40
0.0004166782
  9
$USRTIMER
 70
     1
  9
$ANGBASE
 50
0.0
  9
$ANGDIR
 70
     0
  9
$PDMODE
 70
     0
  9
$PDSIZE
 40
0.0
  9
$PLINEWID
 40
0.0
  9
$SPLFRAME
 70
     0
  9
$SPLINETYPE
 70
     6
  9
$SPLINESEGS
 70
     8
  9
$HANDSEED
  5
3DF
  9
$SURFTAB1
 70
     6
  9
$SURFTAB2
 70
     6
  9
$SURFTYPE
 70
     6
  9
$SURFU
 70
     6
  9
$SURFV
 70
     6
  9
$UCSBASE
  2

  9
$UCSNAME
  2

  9
$UCSORG
 10
322.174849
 20
366.008075
 30
0.0
  9
$UCSXDIR
 10
1.0
 20
0.0
 30
0.0
  9
$UCSYDIR
 10
0.0
 20
1.0
 30
0.0
  9
$UCSORTHOREF
  2

  9
$UCSORTHOVIEW
 70
     0
  9
$UCSORGTOP
 10
0.0
 20
0.0
 30
0.0
  9
$UCSORGBOTTOM
 10
0.0
 20
0.0
 30
0.0
  9
$UCSORGLEFT
 10
0.0
 20
0.0
 30
0.0
  9
$UCSORGRIGHT
 10
0.0
 20
0.0
 30
0.0
  9
$UCSORGFRONT
 10
0.0
 20
0.0
 30
0.0
  9
$UCSORGBACK
 10
0.0
 20
0.0
 30
0.0
  9
$PUCSBASE
  2

  9
$PUCSNAME
  2

  9
$PUCSORG
 10
0.0
 20
0.0
 30
0.0
  9
$PUCSXDIR
 10
1.0
 20
0.0
 30
0.0
  9
$PUCSYDIR
 10
0.0
 20
1.0
 30
0.0
  9
$PUCSORTHOREF
  2

  9
$PUCSORTHOVIEW
 70
     0
  9
$PUCSORGTOP
 10
0.0
 20
0.0
 30
0.0
  9
$PUCSORGBOTTOM
 10
0.0
 20
0.0
 30
0.0
  9
$PUCSORGLEFT
 10
0.0
 20
0.0
 30
0.0
  9
$PUCSORGRIGHT
 10
0.0
 20
0.0
 30
0.0
  9
$PUCSORGFRONT
 10
0.0
 20
0.0
 30
0.0
  9
$PUCSORGBACK
 10
0.0
 20
0.0
 30
0.0
  9
$USERI1
 70
     0
  9
$USERI2
 70
     0
  9
$USERI3
 70
     0
  9
$USERI4
 70
     0
  9
$USERI5
 70
     0
  9
$USERR1
 40
0.0
  9
$USERR2
 40
0.0
  9
$USERR3
 40
0.0
  9
$USERR4
 40
0.0
  9
$USERR5
 40
0.0
  9
$WORLDVIEW
 70
     1
  9
$SHADEDGE
 70
     3
  9
$SHADEDIF
 70
    70
  9
$TILEMODE
 70
     1
  9
$MAXACTVP
 70
    64
  9
$PINSBASE
 10
0.0
 20
0.0
 30
0.0
  9
$PLIMCHECK
 70
     0
  9
$PEXTMIN
 10
-0.5
 20
-0.5
 30
-0.5
  9
$PEXTMAX
 10
5.0
 20
5.0
 30
5.0
  9
$PLIMMIN
 10
-0.5
 20
-0.5
  9
$PLIMMAX
 10
5.0
 20
5.0
  9
$UNITMODE
 70
     0
  9
$VISRETAIN
 70
     1
  9
$PLINEGEN
 70
     0
  9
$PSLTSCALE
 70
     1
  9
$TREEDEPTH
 70
  3020
  9
$CMLSTYLE
  2
Standard
  9
$CMLJUST
 70
     0
  9
$CMLSCALE
 40
1.0
  9
$PROXYGRAPHICS
 70
     1
  9
$MEASUREMENT
 70
     1
  9
$CELWEIGHT
370
    13
  9
$ENDCAPS
280
     0
  9
$JOINSTYLE
280
     0
  9
$LWDISPLAY
290
     0
  9
$INSUNITS
 70
     4
  9
$HYPERLINKBASE
  1

  9
$STYLESHEET
  1

  9
$XEDIT
290
     1
  9
$CEPSNTYPE
380
     0
  9
$PSTYLEMODE
290
     1
  9
$FINGERPRINTGUID
  2
{387C8933-8B5A-4C3F-AA4C-F852D65B2BF0}
  9
$VERSIONGUID
  2
{7BDC5486-2D4E-454A-A281-9838259A42A1}
  9
$EXTNAMES
290
     1
  9
$PSVPSCALE
 40
0.0
  9
$OLESTARTUP
290
     0
  9
$SORTENTS
280
   127
  9
$INDEXCTL
280
     0
  9
$HIDETEXT
280
     1
  9
$XCLIPFRAME
290
     0
  9
$HALOGAP
280
     0
  9
$OBSCOLOR
 70
   257
  9
$OBSLTYPE
280
     0
  9
$INTERSECTIONDISPLAY
280
     0
  9
$INTERSECTIONCOLOR
 70
   257
  9
$DIMASSOC
280
     2
  9
$PROJECTNAME
  1

  0
ENDSEC
  0
SECTION
  2
CLASSES
  0
CLASS
  1
ACDBDICTIONARYWDFLT
  2
AcDbDictionaryWithDefault
  3
ObjectDBX Classes
 90
        0
 91
        1
280
     0
281
     0
  0
CLASS
  1
VISUALSTYLE
  2
AcDbVisualStyle
  3
ObjectDBX Classes
 90
     4095
 91
       24
280
     0
281
     0
  0
CLASS
  1
MATERIAL
  2
AcDbMaterial
  3
ObjectDBX Classes
 90
     1153
 91
        3
280
     0
281
     0
  0
CLASS
  1
SCALE
  2
AcDbScale
  3
ObjectDBX Classes
 90
     1153
 91
       33
280
     0
281
     0
  0
CLASS
  1
TABLESTYLE
  2
AcDbTableStyle
  3
ObjectDBX Classes
 90
     4095
 91
        1
280
     0
281
     0
  0
CLASS
  1
MLEADERSTYLE
  2
AcDbMLeaderStyle
  3
ACDB_MLEADERSTYLE_CLASS
 90
     4095
 91
        1
280
     0
281
     0
  0
CLASS
  1
SUN
  2
AcDbSun
  3
SCENEOE
 90
     1153
 91
        0
280
     0
281
     0
  0
CLASS
  1
IMAGEDEF
  2
AcDbRasterImageDef
  3
ISM
 90
        0
 91
        1
280
     0
281
     0
  0
CLASS
  1
IMAGE
  2
AcDbRasterImage
  3
ISM
 90
     2175
 91
        1
280
     0
281
     1
  0
CLASS
  1
IMAGEDEF_REACTOR
  2
AcDbRasterImageDefReactor
  3
ISM
 90
        1
 91
        1
280
     0
281
     0
  0
CLASS
  1
DIMASSOC
  2
AcDbDimAssoc
  3
"AcDbDimAssoc|Product Desc:     AcDim ARX App For Dimension|Company:          Autodesk, Inc.|WEB Address:      www.autodesk.com"
 90
        0
 91
        5
280
     0
281
     0
  0
CLASS
  1
DICTIONARYVAR
  2
AcDbDictionaryVar
  3
ObjectDBX Classes
 90
        0
 91
        8
280
     0
281
     0
  0
CLASS
  1
CELLSTYLEMAP
  2
AcDbCellStyleMap
  3
ObjectDBX Classes
 90
     1152
 91
        2
280
     0
281
     0
  0
CLASS
  1
ACDBSECTIONVIEWSTYLE
  2
AcDbSectionViewStyle
  3
ObjectDBX Classes
 90
     1025
 91
        2
280
     0
281
     0
  0
CLASS
  1
ACDBDETAILVIEWSTYLE
  2
AcDbDetailViewStyle
  3
ObjectDBX Classes
 90
     1025
 91
        2
280
     0
281
     0
  0
CLASS
  1
RASTERVARIABLES
  2
AcDbRasterVariables
  3
ISM
 90
        0
 91
        1
280
     0
281
     0
  0
CLASS
  1
AMGSETTINGSOBJ
  2
AmgSettingsObj
  3
"AcadM|Product Description: AutoCAD Mechanical|Company: Autodesk, Inc."
 90
     1024
 91
        2
280
     0
281
     0
  0
CLASS
  1
ACME_DOCUMENT
  2
AcMeDbDoc
  3
AcMeServices
 90
     1024
 91
        1
280
     0
281
     0
  0
CLASS
  1
ACMESCOPE
  2
AcMeScope
  3
AcMeServices
 90
     1024
 91
        1
280
     0
281
     0
  0
CLASS
  1
ACMECOMMANDHISTORY
  2
AcMeCommandHistory
  3
AcMeServices
 90
     1024
 91
        1
280
     0
281
     0
  0
CLASS
  1
ACIMSYSVARMAN
  2
AcImSysVarManager
  3
AcMeServices
 90
     1024
 91
        3
280
     0
281
     0
  0
CLASS
  1
ACIMINTSYSVAR
  2
AcImIntSysVar
  3
AcMeServices
 90
     1024
 91
        2
280
     0
281
     0
  0
CLASS
  1
ACMESTATEMGR
  2
AcMeStateMgr
  3
AcMeServices
 90
     1024
 91
        1
280
     0
281
     0
  0
CLASS
  1
ACDBENTITYCACHE
  2
AcMeEntityCache
  3
AcMeServices
 90
     1024
 91
        1
280
     0
281
     0
  0
CLASS
  1
ACGREFMASTER
  2
AcGrefMaster
  3
AcAttribServices
 90
     1024
 91
        1
280
     0
281
     0
  0
CLASS
  1
ACME_DATABASE
  2
AcMeDbDatabase
  3
AcMeServices
 90
     1024
 91
        1
280
     0
281
     0
  0
CLASS
  1
ACRFINSADJUSTERMGR
  2
AcRfInsAdjusterMgr
  3
AcMeServices
 90
     1024
 91
        1
280
     0
281
     0
  0
CLASS
  1
ACGREFACADMASTER
  2
AcGrefacadMaster
  3
AcGrefServices
 90
     1024
 91
        1
280
     0
281
     0
  0
CLASS
  1
AMIMASTER
  2
AmiMaster
  3
AmiServices
 90
     1024
 91
        1
280
     0
281
     0
  0
CLASS
  1
AMDTMENUSTATEMGR
  2
AmdtMenuStateMgr
  3
McadcomServices
 90
     1024
 91
        1
280
     0
281
     0
  0
CLASS
  1
AMDTMCOMMENUSTATE
  2
AmdtMcomMenuState
  3
McadcomServices
 90
     1024
 91
        1
280
     0
281
     0
  0
CLASS
  1
MAPIAMMOUDLE
  2
MApiAmModule
  3
MApiAmServices
 90
     1024
 91
        1
280
     0
281
     0
  0
CLASS
  1
ACIMSTRSYSVAR
  2
AcImStrSysVar
  3
AcMeServices
 90
     1024
 91
        5
280
     0
281
     0
  0
CLASS
  1
AMDTAMMENUSTATE
  2
AmdtAmMenuState
  3
DesignerAssemblies_arx
 90
     1024
 91
        1
280
     0
281
     0
  0
CLASS
  1
ACAMPROJECT
  2
AcAmProject
  3
DesignerAssemblies
 90
     1024
 91
        1
280
     0
281
     0
  0
CLASS
  1
ACAMGRCOMPDEF
  2
AcAmGrCompDef
  3
DesignerAssemblies
 90
     1024
 91
        1
280
     0
281
     0
  0
CLASS
  1
ACAMCOMPDEF
  2
AcAmCompDef
  3
DesignerAssemblies
 90
     1024
 91
        1
280
     0
281
     0
  0
CLASS
  1
ACAMCOMPDEFMGR
  2
AcAmCompDefMgr
  3
DesignerAssemblies
 90
     1024
 91
        1
280
     0
281
     0
  0
CLASS
  1
AMCONTEXTMGR
  2
AcAmContextMgr
  3
DesignerAssemblies
 90
     1024
 91
        1
280
     0
281
     0
  0
CLASS
  1
ACAMCONTEXTMODELER
  2
AcAmContextModeler
  3
DesignerAssemblies
 90
     1024
 91
        1
280
     0
281
     0
  0
CLASS
  1
ACMDATADICTIONARY
  2
AcmDataDictionary
  3
"AcmSymBB|Product Description: AutoCAD Mechanical|Company: Autodesk, Inc."
 90
     1024
 91
        1
280
     0
281
     0
  0
CLASS
  1
ACAMGRCOMPDEFSET
  2
AcAmGrCompDefSet
  3
DesignerAssemblies
 90
     1024
 91
        1
280
     0
281
     0
  0
CLASS
  1
AMDTBROWSERDBTAB
  2
AmdtBrowserDbTab
  3
McadcomServices
 90
     1024
 91
        1
280
     0
281
     0
  0
CLASS
  1
CBROWSERAPPOBJECT
  2
CBrowserAppObject
  3
McadcomServices
 90
     1024
 91
        2
280
     0
281
     0
  0
CLASS
  1
DM_PLACEHOLDER
  2
AcDmSelsetPlaceholder
  3
McadcomServices
 90
     1024
 91
        1
280
     0
281
     0
  0
CLASS
  1
ACMSTANDARDISO
  2
AcmStandardISO
  3
"Amdt_StdImp|Product Description: AutoCAD Mechanical|Company: Autodesk, Inc."
 90
     1024
 91
        1
280
     0
281
     0
  0
CLASS
  1
AMDTEDGESTANDARDISO13715
  2
AmdtEdgeStdISO13715
  3
"Amdt_StdImp|Product Description: AutoCAD Mechanical|Company: Autodesk, Inc."
 90
     1024
 91
        1
280
     0
281
     0
  0
CLASS
  1
ACMSURFSTANDARDISO2002
  2
AcmSurfTextStdISO2002
  3
"Amdt_StdImp|Product Description: AutoCAD Mechanical|Company: Autodesk, Inc."
 90
     1024
 91
        1
280
     0
281
     0
  0
CLASS
  1
ACMFCFSTANDARDISO2012
  2
AcmFCFStdISO2012
  3
"Amdt_StdImp|Product Description: AutoCAD Mechanical|Company: Autodesk, Inc."
 90
     1024
 91
        1
280
     0
281
     0
  0
CLASS
  1
ACMWELDSTANDARDISO
  2
AcmWeldingStdISO
  3
"Amdt_StdImp|Product Description: AutoCAD Mechanical|Company: Autodesk, Inc."
 90
     1024
 91
        1
280
     0
281
     0
  0
CLASS
  1
ACMIDSTANDARDISO2012
  2
AcmIdStdISO2012
  3
"Amdt_StdImp|Product Description: AutoCAD Mechanical|Company: Autodesk, Inc."
 90
     1024
 91
        1
280
     0
281
     0
  0
CLASS
  1
ACMDATUMSTANDARDISO2012
  2
AcmDatumStdISO2012
  3
"Amdt_StdImp|Product Description: AutoCAD Mechanical|Company: Autodesk, Inc."
 90
     1024
 91
        1
280
     0
281
     0
  0
CLASS
  1
ACMBOMSTANDARDISO
  2
AcmBOMStdISO
  3
"Amdt_StdImp|Product Description: AutoCAD Mechanical|Company: Autodesk, Inc."
 90
     1024
 91
        1
280
     0
281
     0
  0
CLASS
  1
ACMDETAILSTANDARDISO
  2
AmdtDetailSymStdISO
  3
"Amdt_StdImp|Product Description: AutoCAD Mechanical|Company: Autodesk, Inc."
 90
     1024
 91
        1
280
     0
281
     0
  0
CLASS
  1
ACMSECTIONSTANDARDISO2001
  2
AmdtSectionSymStdISO2001
  3
"Amdt_StdImp|Product Description: AutoCAD Mechanical|Company: Autodesk, Inc."
 90
     1024
 91
        1
280
     0
281
     0
  0
CLASS
  1
ACMCENTERLINESTANDARDISO
  2
AmdtCenterLineStdISO
  3
"Amdt_StdImp|Product Description: AutoCAD Mechanical|Company: Autodesk, Inc."
 90
     1024
 91
        1
280
     0
281
     0
  0
CLASS
  1
ACMTHREADLINESTANDARDISO
  2
AmdtThreadLineStdISO
  3
"Amdt_StdImp|Product Description: AutoCAD Mechanical|Company: Autodesk, Inc."
 90
     1024
 91
        1
280
     0
281
     0
  0
CLASS
  1
ACMNOTESTANDARDISO
  2
AmdtNoteStdISO
  3
"Amdt_StdImp|Product Description: AutoCAD Mechanical|Company: Autodesk, Inc."
 90
     1024
 91
        1
280
     0
281
     0
  0
CLASS
  1
ACMTAPERSTANDARDISO
  2
AcmTaperStdISO
  3
"Amdt_StdImp|Product Description: AutoCAD Mechanical|Company: Autodesk, Inc."
 90
     1024
 91
        1
280
     0
281
     0
  0
CLASS
  1
ACMANOOTATIONVIEWSTANDARDISO
  2
AmdtAnViewStdISO
  3
"Amdt_StdImp|Product Description: AutoCAD Mechanical|Company: Autodesk, Inc."
 90
     1024
 91
        1
280
     0
281
     0
  0
CLASS
  1
ACAMGLAYSTD
  2
AcAmgLayStd
  3
"AmgLay|Product Description: AutoCAD Mechanical|Company: Autodesk, Inc."
 90
     1024
 91
        1
280
     0
281
     0
  0
CLASS
  1
ACAMGTITLESTD
  2
AcAmgTitleStd
  3
"AmgTitle|Product Description: AutoCAD Mechanical|Company: Autodesk, Inc."
 90
     1024
 91
        1
280
     0
281
     0
  0
CLASS
  1
ACAMGDIMSTD
  2
AcAmgDimStd
  3
"AmgDim|Product Description: AutoCAD Mechanical|Company: Autodesk, Inc."
 90
     1024
 91
        1
280
     0
281
     0
  0
CLASS
  1
AMGOBJPROPCFG
  2
AmgObjPropCfg
  3
"AmgLay|Product Description: AutoCAD Mechanical|Company: Autodesk, Inc."
 90
     1024
 91
        1
280
     0
281
     0
  0
CLASS
  1
ACAMGHOLECHARTSTDISO
  2
AcAmgHoleChartStdISO
  3
"AmgDim" "Product Description: AutoCAD Mechanical|Company: Autodesk, Inc."
 90
     1024
 91
        1
280
     0
281
     0
  0
CLASS
  1
ACMSECTIONSTANDARDCUSTOM
  2
AmdtSectionSymStdCustom
  3
"Amdt_StdImp|Product Description: AutoCAD Mechanical|Company: Autodesk, Inc."
 90
     1024
 91
        1
280
     0
281
     0
  0
CLASS
  1
ACMDETAILTANDARDCUSTOM
  2
AmdtDetailSymStdCustom
  3
"Amdt_StdImp|Product Description: AutoCAD Mechanical|Company: Autodesk, Inc."
 90
     1024
 91
        1
280
     0
281
     0
  0
CLASS
  1
FIELD
  2
AcDbField
  3
ObjectDBX Classes
 90
     1152
 91
        3
280
     0
281
     0
  0
CLASS
  1
FIELDLIST
  2
AcDbFieldList
  3
ObjectDBX Classes
 90
     1152
 91
        1
280
     0
281
     0
  0
CLASS
  1
AMDTNOTETEMPLATEDB
  2
AmdtNoteTemplateDB
  3
"AcmSymBB" "Product Description: AutoCAD Mechanical|Company: Autodesk, Inc."
 90
     1024
 91
        7
280
     0
281
     0
  0
CLASS
  1
ACAMGFILTERDAT
  2
AcAmgFilterDat
  3
"AcadM|Product Description: AutoCAD Mechanical|Company: Autodesk, Inc."
 90
     1024
 91
        6
280
     0
281
     0
  0
CLASS
  1
SORTENTSTABLE
  2
AcDbSortentsTable
  3
ObjectDBX Classes
 90
        0
 91
        1
280
     0
281
     0
  0
ENDSEC
  0
SECTION
  2
TABLES
  0
TABLE
  2
VPORT
  5
8
330
0
100
AcDbSymbolTable
 70
    16
  0
VPORT
  5
29
330
8
100
AcDbSymbolTableRecord
100
AcDbViewportTableRecord
  2
*Active
 70
     0
 10
0.0
 20
0.0
 11
1.0
 21
1.0
 12
355.8692223046344
 22
377.2593967527734
 13
0.0
 23
0.0
 14
0.5
 24
0.5
 15
0.5
 25
0.5
 16
0.0
 26
0.0
 36
1.0
 17
0.0
 27
0.0
 37
0.0
 40
127.495005082812
 41
2.292712066905615
 42
50.0
 43
785.57214
 44
-785.57214
 50
0.0
 51
0.0
 71
     0
 72
   100
 73
     1
 74
     3
 75
     0
 76
     0
 77
     0
 78
     0
281
     0
 65
     0
110
0.0
120
0.0
130
0.0
111
1.0
121
0.0
131
0.0
112
0.0
122
1.0
132
0.0
 79
     0
146
0.0
1001
ACAD_NAV_VCDISPLAY
1070
     3
  0
VPORT
  5
24E
330
8
100
AcDbSymbolTableRecord
100
AcDbViewportTableRecord
  2
L1
 70
     0
 10
0.0
 20
0.0
 11
1.0
 21
1.0
 12
411.437658
 22
218.198736
 13
0.0
 23
0.0
 14
0.5
 24
0.5
 15
0.5
 25
0.5
 16
0.0
 26
0.0
 36
1.0
 17
0.0
 27
0.0
 37
0.0
 40
207.433333
 41
0.085602
 42
50.0
 43
785.57214
 44
-785.57214
 50
0.0
 51
0.0
 71
     0
 72
   100
 73
     1
 74
     3
 75
     0
 76
     0
 77
     0
 78
     0
281
     0
 65
     1
110
0.0
120
0.0
130
0.0
111
1.0
121
0.0
131
0.0
112
0.0
122
1.0
132
0.0
 79
     0
146
0.0
  0
VPORT
  5
24F
330
8
100
AcDbSymbolTableRecord
100
AcDbViewportTableRecord
  2
L2
 70
     0
 10
0.0
 20
0.0
 11
0.5
 21
1.0
 12
0.0
 22
0.0
 13
0.0
 23
0.0
 14
0.5
 24
0.5
 15
0.5
 25
0.5
 16
0.0
 26
-1.0
 36
0.0
 17
0.0
 27
0.0
 37
0.0
 40
1478.660809
 41
0.012009
 42
50.0
 43
765.39502
 44
-765.39502
 50
0.0
 51
0.0
 71
     0
 72
   100
 73
     1
 74
     3
 75
     0
 76
     0
 77
     0
 78
     0
281
     0
 65
     1
110
0.0
120
0.0
130
0.0
111
1.0
121
0.0
131
0.0
112
0.0
122
1.0
132
0.0
 79
     0
146
0.0
  0
VPORT
  5
250
330
8
100
AcDbSymbolTableRecord
100
AcDbViewportTableRecord
  2
L2
 70
     0
 10
0.5
 20
0.0
 11
1.0
 21
1.0
 12
0.0
 22
0.0
 13
0.0
 23
0.0
 14
0.5
 24
0.5
 15
0.5
 25
0.5
 16
1.0
 26
0.0
 36
0.0
 17
0.0
 27
0.0
 37
0.0
 40
1478.660809
 41
0.012009
 42
50.0
 43
746.5698859999999
 44
-746.5698859999999
 50
0.0
 51
0.0
 71
     0
 72
   100
 73
     1
 74
     3
 75
     0
 76
     0
 77
     0
 78
     0
281
     0
 65
     1
110
0.0
120
0.0
130
0.0
111
1.0
121
0.0
131
0.0
112
0.0
122
1.0
132
0.0
 79
     0
146
0.0
  0
VPORT
  5
251
330
8
100
AcDbSymbolTableRecord
100
AcDbViewportTableRecord
  2
L3
 70
     0
 10
0.0
 20
0.5
 11
1.0
 21
1.0
 12
411.437658
 22
218.198736
 13
0.0
 23
0.0
 14
0.5
 24
0.5
 15
0.5
 25
0.5
 16
0.0
 26
0.0
 36
1.0
 17
0.0
 27
0.0
 37
0.0
 40
207.433333
 41
0.085602
 42
50.0
 43
785.57214
 44
-785.57214
 50
0.0
 51
0.0
 71
     0
 72
   100
 73
     1
 74
     3
 75
     0
 76
     0
 77
     0
 78
     0
281
     0
 65
     1
110
0.0
120
0.0
130
0.0
111
1.0
121
0.0
131
0.0
112
0.0
122
1.0
132
0.0
 79
     0
146
0.0
  0
VPORT
  5
252
330
8
100
AcDbSymbolTableRecord
100
AcDbViewportTableRecord
  2
L3
 70
     0
 10
0.0
 20
0.0
 11
1.0
 21
0.5
 12
0.0
 22
0.0
 13
0.0
 23
0.0
 14
0.5
 24
0.5
 15
0.5
 25
0.5
 16
0.0
 26
-1.0
 36
0.0
 17
0.0
 27
0.0
 37
0.0
 40
1478.660809
 41
0.012009
 42
50.0
 43
765.39502
 44
-765.39502
 50
0.0
 51
0.0
 71
     0
 72
   100
 73
     1
 74
     3
 75
     0
 76
     0
 77
     0
 78
     0
281
     0
 65
     1
110
0.0
120
0.0
130
0.0
111
1.0
121
0.0
131
0.0
112
0.0
122
1.0
132
0.0
 79
     0
146
0.0
  0
VPORT
  5
253
330
8
100
AcDbSymbolTableRecord
100
AcDbViewportTableRecord
  2
L4
 70
     0
 10
0.0
 20
0.5
 11
0.5
 21
1.0
 12
411.437658
 22
218.198736
 13
0.0
 23
0.0
 14
0.5
 24
0.5
 15
0.5
 25
0.5
 16
0.0
 26
0.0
 36
1.0
 17
0.0
 27
0.0
 37
0.0
 40
207.433333
 41
0.085602
 42
50.0
 43
785.57214
 44
-785.57214
 50
0.0
 51
0.0
 71
     0
 72
   100
 73
     1
 74
     3
 75
     0
 76
     0
 77
     0
 78
     0
281
     0
 65
     1
110
0.0
120
0.0
130
0.0
111
1.0
121
0.0
131
0.0
112
0.0
122
1.0
132
0.0
 79
     0
146
0.0
  0
VPORT
  5
254
330
8
100
AcDbSymbolTableRecord
100
AcDbViewportTableRecord
  2
L4
 70
     0
 10
0.0
 20
0.0
 11
0.5
 21
0.5
 12
0.0
 22
0.0
 13
0.0
 23
0.0
 14
0.5
 24
0.5
 15
0.5
 25
0.5
 16
0.0
 26
-1.0
 36
0.0
 17
0.0
 27
0.0
 37
0.0
 40
1478.660809
 41
0.012009
 42
50.0
 43
765.39502
 44
-765.39502
 50
0.0
 51
0.0
 71
     0
 72
   100
 73
     1
 74
     3
 75
     0
 76
     0
 77
     0
 78
     0
281
     0
 65
     1
110
0.0
120
0.0
130
0.0
111
1.0
121
0.0
131
0.0
112
0.0
122
1.0
132
0.0
 79
     0
146
0.0
  0
VPORT
  5
255
330
8
100
AcDbSymbolTableRecord
100
AcDbViewportTableRecord
  2
L4
 70
     0
 10
0.5
 20
0.0
 11
1.0
 21
0.5
 12
0.0
 22
0.0
 13
0.0
 23
0.0
 14
0.5
 24
0.5
 15
0.5
 25
0.5
 16
1.0
 26
0.0
 36
0.0
 17
0.0
 27
0.0
 37
0.0
 40
1478.660809
 41
0.012009
 42
50.0
 43
746.5698859999999
 44
-746.5698859999999
 50
0.0
 51
0.0
 71
     0
 72
   100
 73
     1
 74
     3
 75
     0
 76
     0
 77
     0
 78
     0
281
     0
 65
     1
110
0.0
120
0.0
130
0.0
111
1.0
121
0.0
131
0.0
112
0.0
122
1.0
132
0.0
 79
     0
146
0.0
  0
VPORT
  5
256
330
8
100
AcDbSymbolTableRecord
100
AcDbViewportTableRecord
  2
L4
 70
     0
 10
0.5
 20
0.5
 11
1.0
 21
1.0
 12
0.0
 22
0.0
 13
0.0
 23
0.0
 14
0.5
 24
0.5
 15
0.5
 25
0.5
 16
0.5773502691896259
 26
-0.5773502691896259
 36
0.5773502691896259
 17
0.0
 27
0.0
 37
0.0
 40
1453.705292
 41
0.012215
 42
50.0
 43
757.5245879999999
 44
-757.5245879999999
 50
0.0
 51
0.0
 71
     0
 72
   100
 73
     1
 74
     3
 75
     0
 76
     0
 77
     0
 78
     0
281
     0
 65
     1
110
0.0
120
0.0
130
0.0
111
1.0
121
0.0
131
0.0
112
0.0
122
1.0
132
0.0
 79
     0
146
0.0
  0
VPORT
  5
257
330
8
100
AcDbSymbolTableRecord
100
AcDbViewportTableRecord
  2
L6
 70
     0
 10
0.0
 20
0.5
 11
0.333333
 21
1.0
 12
0.0
 22
0.0
 13
0.0
 23
0.0
 14
0.5
 24
0.5
 15
0.5
 25
0.5
 16
0.7188730927569434
 26
-0.5850486126764433
 36
0.3754192287502549
 17
0.0
 27
0.0
 37
0.0
 40
1534.989881
 41
0.011568
 42
50.0
 43
794.5176169999999
 44
-794.5176169999999
 50
0.0
 51
0.0
 71
     0
 72
   100
 73
     1
 74
     3
 75
     0
 76
     0
 77
     0
 78
     0
281
     0
 65
     1
110
0.0
120
0.0
130
0.0
111
1.0
121
0.0
131
0.0
112
0.0
122
1.0
132
0.0
 79
     0
146
0.0
  0
VPORT
  5
258
330
8
100
AcDbSymbolTableRecord
100
AcDbViewportTableRecord
  2
L6
 70
     0
 10
0.0
 20
0.0
 11
0.333333
 21
0.5
 12
0.0
 22
0.0
 13
0.0
 23
0.0
 14
0.5
 24
0.5
 15
0.5
 25
0.5
 16
-1.0
 26
0.0
 36
0.0
 17
0.0
 27
0.0
 37
0.0
 40
1478.660809
 41
0.012009
 42
50.0
 43
746.5698859999999
 44
-746.5698859999999
 50
0.0
 51
0.0
 71
     0
 72
   100
 73
     1
 74
     3
 75
     0
 76
     0
 77
     0
 78
     0
281
     0
 65
     1
110
0.0
120
0.0
130
0.0
111
1.0
121
0.0
131
0.0
112
0.0
122
1.0
132
0.0
 79
     0
146
0.0
  0
VPORT
  5
259
330
8
100
AcDbSymbolTableRecord
100
AcDbViewportTableRecord
  2
L6
 70
     0
 10
0.333333
 20
0.5
 11
0.666667
 21
1.0
 12
411.437658
 22
218.198736
 13
0.0
 23
0.0
 14
0.5
 24
0.5
 15
0.5
 25
0.5
 16
0.0
 26
0.0
 36
1.0
 17
0.0
 27
0.0
 37
0.0
 40
207.433333
 41
0.085602
 42
50.0
 43
785.57214
 44
-785.57214
 50
0.0
 51
0.0
 71
     0
 72
   100
 73
     1
 74
     3
 75
     0
 76
     0
 77
     0
 78
     0
281
     0
 65
     1
110
0.0
120
0.0
130
0.0
111
1.0
121
0.0
131
0.0
112
0.0
122
1.0
132
0.0
 79
     0
146
0.0
  0
VPORT
  5
25A
330
8
100
AcDbSymbolTableRecord
100
AcDbViewportTableRecord
  2
L6
 70
     0
 10
0.333333
 20
0.0
 11
0.666667
 21
0.5
 12
0.0
 22
0.0
 13
0.0
 23
0.0
 14
0.5
 24
0.5
 15
0.5
 25
0.5
 16
0.0
 26
-1.0
 36
0.0
 17
0.0
 27
0.0
 37
0.0
 40
1478.660809
 41
0.012009
 42
50.0
 43
765.39502
 44
-765.39502
 50
0.0
 51
0.0
 71
     0
 72
   100
 73
     1
 74
     3
 75
     0
 76
     0
 77
     0
 78
     0
281
     0
 65
     1
110
0.0
120
0.0
130
0.0
111
1.0
121
0.0
131
0.0
112
0.0
122
1.0
132
0.0
 79
     0
146
0.0
  0
VPORT
  5
25B
330
8
100
AcDbSymbolTableRecord
100
AcDbViewportTableRecord
  2
L6
 70
     0
 10
0.666667
 20
0.5
 11
1.0
 21
1.0
 12
0.0
 22
0.0
 13
0.0
 23
0.0
 14
0.5
 24
0.5
 15
0.5
 25
0.5
 16
0.5773502691896259
 26
-0.5773502691896259
 36
0.5773502691896259
 17
0.0
 27
0.0
 37
0.0
 40
1453.705292
 41
0.012215
 42
50.0
 43
757.5245879999999
 44
-757.5245879999999
 50
0.0
 51
0.0
 71
     0
 72
   100
 73
     1
 74
     3
 75
     0
 76
     0
 77
     0
 78
     0
281
     0
 65
     1
110
0.0
120
0.0
130
0.0
111
1.0
121
0.0
131
0.0
112
0.0
122
1.0
132
0.0
 79
     0
146
0.0
  0
VPORT
  5
25C
330
8
100
AcDbSymbolTableRecord
100
AcDbViewportTableRecord
  2
L6
 70
     0
 10
0.666667
 20
0.0
 11
1.0
 21
0.5
 12
0.0
 22
0.0
 13
0.0
 23
0.0
 14
0.5
 24
0.5
 15
0.5
 25
0.5
 16
1.0
 26
0.0
 36
0.0
 17
0.0
 27
0.0
 37
0.0
 40
1478.660809
 41
0.012009
 42
50.0
 43
746.5698859999999
 44
-746.5698859999999
 50
0.0
 51
0.0
 71
     0
 72
   100
 73
     1
 74
     3
 75
     0
 76
     0
 77
     0
 78
     0
281
     0
 65
     1
110
0.0
120
0.0
130
0.0
111
1.0
121
0.0
131
0.0
112
0.0
122
1.0
132
0.0
 79
     0
146
0.0
  0
ENDTAB
  0
TABLE
  2
LTYPE
  5
5
330
0
100
AcDbSymbolTable
 70
    19
  0
LTYPE
  5
14
330
5
100
AcDbSymbolTableRecord
100
AcDbLinetypeTableRecord
  2
ByBlock
 70
     0
  3

 72
    65
 73
     0
 40
0.0
  0
LTYPE
  5
15
330
5
100
AcDbSymbolTableRecord
100
AcDbLinetypeTableRecord
  2
ByLayer
 70
     0
  3

 72
    65
 73
     0
 40
0.0
  0
LTYPE
  5
16
330
5
100
AcDbSymbolTableRecord
100
AcDbLinetypeTableRecord
  2
Continuous
 70
     0
  3
Solid line
 72
    65
 73
     0
 40
0.0
  0
LTYPE
  5
6E
330
5
100
AcDbSymbolTableRecord
100
AcDbLinetypeTableRecord
  2
CENTER
 70
     0
  3
____ _ ____ _ ____ _ ____
 72
    65
 73
     4
 40
47.4
 49
22.0
 74
     4
 75
     0
340
0
 46
0.0
 50
0.0
 44
0.0
 45
0.0
 49
-8.5
 74
     4
 75
     0
340
0
 46
0.0
 50
0.0
 44
0.0
 45
0.0
 49
8.5
 74
     4
 75
     0
340
0
 46
0.0
 50
0.0
 44
0.0
 45
0.0
 49
-8.5
 74
     4
 75
     0
340
0
 46
0.0
 50
0.0
 44
0.0
 45
0.0
  0
LTYPE
  5
6F
330
5
100
AcDbSymbolTableRecord
100
AcDbLinetypeTableRecord
  2
DASHDOT
 70
     0
  3
_._._._._._._._._._._._._._._._.
 72
    65
 73
     4
 40
70.0
 49
31.0
 74
     4
 75
     0
340
0
 46
0.0
 50
0.0
 44
0.0
 45
0.0
 49
-13.0
 74
     4
 75
     0
340
0
 46
0.0
 50
0.0
 44
0.0
 45
0.0
 49
13.0
 74
     4
 75
     0
340
0
 46
0.0
 50
0.0
 44
0.0
 45
0.0
 49
-13.0
 74
     4
 75
     0
340
0
 46
0.0
 50
0.0
 44
0.0
 45
0.0
  0
LTYPE
  5
70
330
5
100
AcDbSymbolTableRecord
100
AcDbLinetypeTableRecord
  2
DASHED
 70
     0
  3
__ __ __ __ __ __ __ __ __
 72
    65
 73
     2
 40
25.72
 49
12.86
 74
     4
 75
     0
340
0
 46
0.0
 50
0.0
 44
0.0
 45
0.0
 49
-12.86
 74
     4
 75
     0
340
0
 46
0.0
 50
0.0
 44
0.0
 45
0.0
  0
LTYPE
  5
71
330
5
100
AcDbSymbolTableRecord
100
AcDbLinetypeTableRecord
  2
DOT
 70
     0
  3
.........................
 72
    65
 73
     2
 40
10.0
 49
0.0
 74
     4
 75
     0
340
0
 46
0.0
 50
0.0
 44
0.0
 45
0.0
 49
-10.0
 74
     4
 75
     0
340
0
 46
0.0
 50
0.0
 44
0.0
 45
0.0
  0
LTYPE
  5
72
330
5
100
AcDbSymbolTableRecord
100
AcDbLinetypeTableRecord
  2
PHANTOM
 70
     0
  3
____ _ _ ____ _ _ _____ _ _ ____
 72
    65
 73
     6
 40
50.5
 49
18.0
 74
     4
 75
     0
340
0
 46
0.0
 50
0.0
 44
0.0
 45
0.0
 49
-6.5
 74
     4
 75
     0
340
0
 46
0.0
 50
0.0
 44
0.0
 45
0.0
 49
6.5
 74
     4
 75
     0
340
0
 46
0.0
 50
0.0
 44
0.0
 45
0.0
 49
-6.5
 74
     4
 75
     0
340
0
 46
0.0
 50
0.0
 44
0.0
 45
0.0
 49
6.5
 74
     4
 75
     0
340
0
 46
0.0
 50
0.0
 44
0.0
 45
0.0
 49
-6.5
 74
     4
 75
     0
340
0
 46
0.0
 50
0.0
 44
0.0
 45
0.0
  0
LTYPE
  5
2BC
330
5
100
AcDbSymbolTableRecord
100
AcDbLinetypeTableRecord
  2
HIDDEN
 70
     0
  3
Hidden __ __ __ __ __ __ __ __ __ __ __ __ __ _
 72
    65
 73
     2
 40
9.524999999999998
 49
6.349999999999999
 74
     0
 49
-3.174999999999999
 74
     0
  0
LTYPE
  5
2BD
330
5
100
AcDbSymbolTableRecord
100
AcDbLinetypeTableRecord
  2
PHANTOM2
 70
     0
  3
Phantom (.5x) ___ _ _ ___ _ _ ___ _ _ ___ _ _
 72
    65
 73
     6
 40
31.75
 49
15.875
 74
     0
 49
-3.174999999999999
 74
     0
 49
3.174999999999999
 74
     0
 49
-3.174999999999999
 74
     0
 49
3.174999999999999
 74
     0
 49
-3.174999999999999
 74
     0
  0
LTYPE
  5
2F8
330
5
100
AcDbSymbolTableRecord
100
AcDbLinetypeTableRecord
  2
AM_ISO02W050
 70
     0
  3
__ __ __ __ __ __ __ __ __ __ __ __ __ __ __
 72
    65
 73
     2
 40
7.5
 49
6.0
 74
     0
 49
-1.5
 74
     0
  0
LTYPE
  5
2F9
330
5
100
AcDbSymbolTableRecord
100
AcDbLinetypeTableRecord
  2
AM_ISO08W050
 70
     0
  3
____ . ____ . ____ . ____ . ____ . ____ . ____
 72
    65
 73
     4
 40
18.0
 49
12.0
 74
     0
 49
-1.5
 74
     0
 49
3.0
 74
     0
 49
-1.5
 74
     0
  0
LTYPE
  5
2FA
330
5
100
AcDbSymbolTableRecord
100
AcDbLinetypeTableRecord
  2
AM_ISO09W050
 70
     0
  3
_____ . . _____ . . _____ . . ____ .. ____
 72
    65
 73
     6
 40
22.5
 49
12.0
 74
     0
 49
-1.5
 74
     0
 49
3.0
 74
     0
 49
-1.5
 74
     0
 49
3.0
 74
     0
 49
-1.5
 74
     0
  0
LTYPE
  5
2FB
330
5
100
AcDbSymbolTableRecord
100
AcDbLinetypeTableRecord
  2
Amconstr
 70
     0
  3
_______________________
 72
    65
 73
     2
 40
9999.0
 49
9999.0
 74
     0
 49
0.0
 74
     0
  0
LTYPE
  5
2FC
330
5
100
AcDbSymbolTableRecord
100
AcDbLinetypeTableRecord
  2
AM_ISO08W050x2
 70
     0
  3
__ . __ . __ . __ . __ . __
 72
    65
 73
     4
 40
9.0
 49
6.0
 74
     0
 49
-0.75
 74
     0
 49
1.5
 74
     0
 49
-0.75
 74
     0
  0
LTYPE
  5
2FD
330
5
100
AcDbSymbolTableRecord
100
AcDbLinetypeTableRecord
  2
AM_ISO02W050x2
 70
     0
  3
 _ _ _ _ _ _ _ _ _ _ _ _
 72
    65
 73
     2
 40
3.75
 49
3.0
 74
     0
 49
-0.75
 74
     0
  0
LTYPE
  5
300
330
5
100
AcDbSymbolTableRecord
100
AcDbLinetypeTableRecord
  2
Amzigzag
 70
     0
  3
/\/-/\/-/\/-/\/-/\/-/\/
 72
    65
 73
     2
 40
11.0001
 49
0.0001
 74
     4
 75
   136
340
2FF
 46
0.04
 50
0.0
 44
0.0
 45
0.0
 49
-11.0
 74
     0
  0
LTYPE
  5
310
330
5
100
AcDbSymbolTableRecord
100
AcDbLinetypeTableRecord
  2
ACISOWELD
 70
     0
  3
_ _ _ _ _
 72
    65
 73
     2
 40
2.0
 49
2.0
 74
     0
 49
-1.0
 74
     0
  0
LTYPE
  5
311
330
5
100
AcDbSymbolTableRecord
100
AcDbLinetypeTableRecord
  2
ACISOTGL
 70
     0
  3
_ _ _ _ _
 72
    65
 73
     2
 40
3.0
 49
2.0
 74
     0
 49
-1.0
 74
     0
  0
LTYPE
  5
312
330
5
100
AcDbSymbolTableRecord
100
AcDbLinetypeTableRecord
  2
ACISOTGB
 70
     0
  3
__ . . __ . .
 72
    65
 73
     6
 40
9.0
 49
4.0
 74
     0
 49
-1.0
 74
     0
 49
1.0
 74
     0
 49
-1.0
 74
     0
 49
1.0
 74
     0
 49
-1.0
 74
     0
  0
LTYPE
  5
37F
330
5
100
AcDbSymbolTableRecord
100
AcDbLinetypeTableRecord
  2
CENTER2
 70
     0
  3
Center (.5x) ___ _ ___ _ ___ _ ___ _ ___ _ ___
 72
    65
 73
     4
 40
1.125
 49
0.75
 74
     0
 49
-0.125
 74
     0
 49
0.125
 74
     0
 49
-0.125
 74
     0
  0
ENDTAB
  0
TABLE
  2
LAYER
  5
2
330
0
100
AcDbSymbolTable
 70
    23
  0
LAYER
  5
10
102
{ACAD_XDICTIONARY
360
38A
102
}
330
2
100
AcDbSymbolTableRecord
100
AcDbLayerTableRecord
  2
0
 70
     0
 62
     7
  6
Continuous
370
    -3
390
F
  0
LAYER
  5
76
102
{ACAD_XDICTIONARY
360
38C
102
}
330
2
100
AcDbSymbolTableRecord
100
AcDbLayerTableRecord
  2
96
 70
     0
 62
     7
420
 16777215
  6
Continuous
370
    -3
390
F
  0
LAYER
  5
1D9
330
2
100
AcDbSymbolTableRecord
100
AcDbLayerTableRecord
  2
Defpoints
 70
     0
 62
     7
  6
Continuous
290
     0
370
    -3
390
F
  0
LAYER
  5
37C
102
{ACAD_XDICTIONARY
360
38E
102
}
330
2
100
AcDbSymbolTableRecord
100
AcDbLayerTableRecord
  2
1
 70
     0
 62
     4
  6
Continuous
370
    -3
390
F
  0
LAYER
  5
37D
102
{ACAD_XDICTIONARY
360
390
102
}
330
2
100
AcDbSymbolTableRecord
100
AcDbLayerTableRecord
  2
2
 70
     0
 62
     7
  6
Continuous
370
    -3
390
F
  0
LAYER
  5
37E
102
{ACAD_XDICTIONARY
360
392
102
}
330
2
100
AcDbSymbolTableRecord
100
AcDbLayerTableRecord
  2
4
 70
     0
 62
     2
  6
CENTER2
370
    -3
390
F
  0
LAYER
  5
380
102
{ACAD_XDICTIONARY
360
394
102
}
330
2
100
AcDbSymbolTableRecord
100
AcDbLayerTableRecord
  2
SK1
 70
     0
 62
     4
  6
Continuous
370
    -3
390
F
  0
LAYER
  5
381
102
{ACAD_XDICTIONARY
360
396
102
}
330
2
100
AcDbSymbolTableRecord
100
AcDbLayerTableRecord
  2
SK2
 70
     0
 62
     7
  6
Continuous
370
    -3
390
F
  0
LAYER
  5
383
102
{ACAD_XDICTIONARY
360
398
102
}
330
2
100
AcDbSymbolTableRecord
100
AcDbLayerTableRecord
  2
SK4
 70
     0
 62
     2
  6
CENTER2
370
    -3
390
F
  0
LAYER
  5
384
102
{ACAD_XDICTIONARY
360
39A
102
}
330
2
100
AcDbSymbolTableRecord
100
AcDbLayerTableRecord
  2
SK6
 70
     0
 62
     5
  6
Continuous
370
    -3
390
F
  0
LAYER
  5
385
102
{ACAD_XDICTIONARY
360
39C
102
}
330
2
100
AcDbSymbolTableRecord
100
AcDbLayerTableRecord
  2
CUT
 70
     0
 62
     1
  6
Continuous
370
    -3
390
F
  0
LAYER
  5
386
102
{ACAD_XDICTIONARY
360
39E
102
}
330
2
100
AcDbSymbolTableRecord
100
AcDbLayerTableRecord
  2
NOCUT
 70
     0
 62
     7
  6
Continuous
370
    -3
390
F
  0
LAYER
  5
387
102
{ACAD_XDICTIONARY
360
3A0
102
}
330
2
100
AcDbSymbolTableRecord
100
AcDbLayerTableRecord
  2
80
 70
     0
 62
     6
  6
Continuous
370
    -3
390
F
  0
LAYER
  5
388
102
{ACAD_XDICTIONARY
360
3A2
102
}
330
2
100
AcDbSymbolTableRecord
100
AcDbLayerTableRecord
  2
81
 70
     0
 62
     3
  6
Continuous
370
    -3
390
F
  0
ENDTAB
  0
TABLE
  2
STYLE
  5
3
330
0
100
AcDbSymbolTable
 70
     6
  0
STYLE
  5
11
330
3
100
AcDbSymbolTableRecord
100
AcDbTextStyleTableRecord
  2
Standard
 70
     0
 40
0.0
 41
1.0
 50
0.0
 71
     0
 42
0.2
  3
txt
  4

  0
STYLE
  5
1D2
330
3
100
AcDbSymbolTableRecord
100
AcDbTextStyleTableRecord
  2
cesky
 70
     0
 40
0.0
 41
1.0
 50
0.0
 71
     0
 42
0.2
  3
simplex.shx
  4

  0
STYLE
  5
1D3
330
3
100
AcDbSymbolTableRecord
100
AcDbTextStyleTableRecord
  2
DWGDirectTextStyle
 70
     0
 40
0.0
 41
1.0
 50
0.0
 71
     0
 42
0.2
  3
simplex
  4

  0
STYLE
  5
2FF
330
3
100
AcDbSymbolTableRecord
100
AcDbTextStyleTableRecord
  2

 70
     1
 40
0.0
 41
1.0
 50
0.0
 71
     0
 42
0.2
  3
genltshp.shx
  4

  0
STYLE
  5
30E
330
3
100
AcDbSymbolTableRecord
100
AcDbTextStyleTableRecord
  2
ACISOTS
 70
     0
 40
0.0
 41
1.0
 50
0.0
 71
     0
 42
0.2
  3
isocp.shx
  4

  0
STYLE
  5
30F
330
3
100
AcDbSymbolTableRecord
100
AcDbTextStyleTableRecord
  2
ACISOGDT
 70
     0
 40
0.0
 41
1.0
 50
0.0
 71
     0
 42
0.2
  3
amgdt.shx
  4

  0
ENDTAB
  0
TABLE
  2
VIEW
  5
6
330
0
100
AcDbSymbolTable
 70
     0
  0
ENDTAB
  0
TABLE
  2
UCS
  5
7
330
0
100
AcDbSymbolTable
 70
     0
  0
ENDTAB
  0
TABLE
  2
APPID
  5
9
330
0
100
AcDbSymbolTable
 70
    13
  0
APPID
  5
12
330
9
100
AcDbSymbolTableRecord
100
AcDbRegAppTableRecord
  2
ACAD
 70
     0
  0
APPID
  5
1D5
330
9
100
AcDbSymbolTableRecord
100
AcDbRegAppTableRecord
  2
ACAD_DSTYLE_DIMBREAK
 70
     0
  0
APPID
  5
25D
330
9
100
AcDbSymbolTableRecord
100
AcDbRegAppTableRecord
  2
ACAD_DSTYLE_DIM_LINETYPE
 70
     0
  0
APPID
  5
25E
330
9
100
AcDbSymbolTableRecord
100
AcDbRegAppTableRecord
  2
ACAD_DSTYLE_DIM_EXT1_LINETYPE
 70
     0
  0
APPID
  5
25F
330
9
100
AcDbSymbolTableRecord
100
AcDbRegAppTableRecord
  2
ACAD_DSTYLE_DIM_EXT2_LINETYPE
 70
     0
  0
APPID
  5
29F
330
9
100
AcDbSymbolTableRecord
100
AcDbRegAppTableRecord
  2
ACAD_MLEADERVER
 70
     0
  0
APPID
  5
2B5
330
9
100
AcDbSymbolTableRecord
100
AcDbRegAppTableRecord
  2
MCAD_NO_VIS
 70
     0
  0
APPID
  5
2B6
330
9
100
AcDbSymbolTableRecord
100
AcDbRegAppTableRecord
  2
ACAD_TEMP_GRAPHIC
 70
     0
  0
APPID
  5
2C2
330
9
100
AcDbSymbolTableRecord
100
AcDbRegAppTableRecord
  2
ACATTRIBSERVICES
 70
     0
  0
APPID
  5
2DA
330
9
100
AcDbSymbolTableRecord
100
AcDbRegAppTableRecord
  2
DESIGNERASSEMBLIES
 70
     0
  0
APPID
  5
2F6
330
9
100
AcDbSymbolTableRecord
100
AcDbRegAppTableRecord
  2
ACAD_DSTYLE_DIMJAG
 70
     0
  0
APPID
  5
322
330
9
100
AcDbSymbolTableRecord
100
AcDbRegAppTableRecord
  2
ACAD_NAV_VCDISPLAY
 70
     0
  0
APPID
  5
3DE
330
9
100
AcDbSymbolTableRecord
100
AcDbRegAppTableRecord
  2
ACAD_DSTYLE_DIMARC_LENGTH_SYMBOL
 70
     0
  0
ENDTAB
  0
TABLE
  2
DIMSTYLE
  5
A
330
0
100
AcDbSymbolTable
 70
     8
100
AcDbDimStyleTable
 71
     0
  0
DIMSTYLE
105
27
330
A
100
AcDbSymbolTableRecord
100
AcDbDimStyleTableRecord
  2
Standard
 70
     0
340
11
1001
ACAD_DSTYLE_DIMBREAK
1070
   391
1040
6.349999999999999
  0
DIMSTYLE
105
2F5
102
{ACAD_REACTORS
330
2E3
102
}
330
A
100
AcDbSymbolTableRecord
100
AcDbDimStyleTableRecord
  2
AM_ISO
 70
     0
  4
"
 41
3.5
 42
1.0
 43
10.0
 44
1.0
 47
0.1
 48
0.1
 73
     0
 74
     0
 77
     1
 78
     8
 79
     2
140
3.5
141
0.0
143
0.0393701
146
0.71
147
1.5
172
     1
176
   256
177
   256
178
     2
271
     2
272
     3
274
     4
283
     0
284
     8
340
11
371
    -1
372
    -1
1001
ACAD_DSTYLE_DIMJAG
1070
   388
1040
1.5
1001
ACAD_DSTYLE_DIMBREAK
1070
   391
1040
3.75
1001
ACAD_DSTYLE_DIMARC_LENGTH_SYMBOL
1070
   379
1070
     1
1001
ACAD_DSTYLE_DIM_LINETYPE
1070
   380
1005
14
1001
ACAD_DSTYLE_DIM_EXT1_LINETYPE
1070
   381
1005
14
1001
ACAD_DSTYLE_DIM_EXT2_LINETYPE
1070
   382
1005
14
  0
DIMSTYLE
105
301
330
A
100
AcDbSymbolTableRecord
100
AcDbDimStyleTableRecord
  2
AM_ISO$3
 70
     0
  4
"
 41
3.5
 42
1.0
 43
10.0
 44
1.0
 47
0.1
 48
0.1
 73
     0
 77
     1
 78
     8
 79
     2
140
3.5
141
0.0
143
0.0393701
146
0.71
147
1.5
176
   256
177
   256
178
     2
271
     2
272
     3
274
     4
283
     0
284
     8
288
     1
289
     0
340
11
371
    -1
372
    -1
1001
ACAD_DSTYLE_DIMBREAK
1070
   391
1040
3.75
1001
ACAD_DSTYLE_DIMJAG
1070
   388
1040
1.5
1001
ACAD_DSTYLE_DIMARC_LENGTH_SYMBOL
1070
   379
1070
     1
1001
ACAD_DSTYLE_DIM_LINETYPE
1070
   380
1005
14
1001
ACAD_DSTYLE_DIM_EXT1_LINETYPE
1070
   381
1005
14
1001
ACAD_DSTYLE_DIM_EXT2_LINETYPE
1070
   382
1005
14
  0
DIMSTYLE
105
302
330
A
100
AcDbSymbolTableRecord
100
AcDbDimStyleTableRecord
  2
AM_ISO$4
 70
     0
  4
"
 41
3.5
 42
1.0
 43
10.0
 44
1.0
 47
0.1
 48
0.1
 73
     0
 77
     1
 78
     8
 79
     2
140
3.5
141
0.0
143
0.0393701
146
0.71
147
1.5
176
   256
177
   256
178
     2
271
     2
272
     3
274
     4
283
     0
284
     8
288
     1
289
     0
340
11
371
    -1
372
    -1
1001
ACAD_DSTYLE_DIMBREAK
1070
   391
1040
3.75
1001
ACAD_DSTYLE_DIMJAG
1070
   388
1040
1.5
1001
ACAD_DSTYLE_DIMARC_LENGTH_SYMBOL
1070
   379
1070
     1
1001
ACAD_DSTYLE_DIM_LINETYPE
1070
   380
1005
14
1001
ACAD_DSTYLE_DIM_EXT1_LINETYPE
1070
   381
1005
14
1001
ACAD_DSTYLE_DIM_EXT2_LINETYPE
1070
   382
1005
14
  0
DIMSTYLE
105
303
330
A
100
AcDbSymbolTableRecord
100
AcDbDimStyleTableRecord
  2
AM_ISO$6
 70
     0
  4
"
 41
3.5
 42
1.0
 43
10.0
 44
1.0
 47
0.1
 48
0.1
 73
     0
 74
     0
 78
     8
 79
     2
140
3.5
141
0.0
143
0.0393701
146
0.71
147
1.5
172
     1
176
   256
177
   256
178
     2
271
     2
272
     3
274
     4
283
     0
284
     8
340
11
371
    -1
372
    -1
1001
ACAD_DSTYLE_DIMBREAK
1070
   391
1040
3.75
1001
ACAD_DSTYLE_DIMJAG
1070
   388
1040
1.5
1001
ACAD_DSTYLE_DIMARC_LENGTH_SYMBOL
1070
   379
1070
     1
1001
ACAD_DSTYLE_DIM_LINETYPE
1070
   380
1005
14
1001
ACAD_DSTYLE_DIM_EXT1_LINETYPE
1070
   381
1005
14
1001
ACAD_DSTYLE_DIM_EXT2_LINETYPE
1070
   382
1005
14
  0
DIMSTYLE
105
304
330
A
100
AcDbSymbolTableRecord
100
AcDbDimStyleTableRecord
  2
AM_ISO$7
 70
     0
  4
"
 41
3.5
 42
1.0
 43
10.0
 44
1.0
 47
0.1
 48
0.1
 73
     0
 74
     0
 77
     1
 78
     8
 79
     2
140
3.5
141
0.0
143
0.0393701
146
0.71
147
1.5
172
     1
176
   256
177
   256
178
     2
271
     2
272
     3
274
     4
283
     0
284
     8
340
11
371
    -1
372
    -1
1001
ACAD_DSTYLE_DIMBREAK
1070
   391
1040
3.75
1001
ACAD_DSTYLE_DIMJAG
1070
   388
1040
1.5
1001
ACAD_DSTYLE_DIMARC_LENGTH_SYMBOL
1070
   379
1070
     1
1001
ACAD_DSTYLE_DIM_LINETYPE
1070
   380
1005
14
1001
ACAD_DSTYLE_DIM_EXT1_LINETYPE
1070
   381
1005
14
1001
ACAD_DSTYLE_DIM_EXT2_LINETYPE
1070
   382
1005
14
  0
DIMSTYLE
105
305
330
A
100
AcDbSymbolTableRecord
100
AcDbDimStyleTableRecord
  2
AM_ISO$SF
 70
     0
  4
"
 41
3.5
 42
1.0
 43
10.0
 44
1.0
 47
0.1
 48
0.1
 73
     0
 74
     0
 75
     1
 76
     1
 77
     1
 78
     8
 79
     2
140
3.5
141
0.0
143
0.0393701
146
0.71
147
1.5
172
     1
176
   256
177
   256
178
     2
271
     2
272
     3
274
     4
283
     0
284
     8
340
11
371
    -1
372
    -1
1001
ACAD_DSTYLE_DIMBREAK
1070
   391
1040
3.75
1001
ACAD_DSTYLE_DIMJAG
1070
   388
1040
1.5
1001
ACAD_DSTYLE_DIMARC_LENGTH_SYMBOL
1070
   379
1070
     1
1001
ACAD_DSTYLE_DIM_LINETYPE
1070
   380
1005
14
1001
ACAD_DSTYLE_DIM_EXT1_LINETYPE
1070
   381
1005
14
1001
ACAD_DSTYLE_DIM_EXT2_LINETYPE
1070
   382
1005
14
  0
DIMSTYLE
105
30A
330
A
100
AcDbSymbolTableRecord
100
AcDbDimStyleTableRecord
  2
AM_ISO$SH
 70
     0
  4
"
 41
3.5
 42
1.0
 43
10.0
 44
1.0
 47
0.1
 48
0.1
 73
     0
 74
     0
 75
     1
 76
     1
 77
     1
 78
     8
 79
     2
140
3.5
141
0.0
143
0.0393701
144
2.0
146
0.71
147
1.5
172
     1
173
     1
176
   256
177
   256
178
     2
271
     2
272
     3
274
     4
283
     0
284
     8
340
11
343
306
371
    -1
372
    -1
1001
ACAD_DSTYLE_DIMBREAK
1070
   391
1040
3.75
1001
ACAD_DSTYLE_DIMJAG
1070
   388
1040
1.5
1001
ACAD_DSTYLE_DIMARC_LENGTH_SYMBOL
1070
   379
1070
     1
1001
ACAD_DSTYLE_DIM_LINETYPE
1070
   380
1005
14
1001
ACAD_DSTYLE_DIM_EXT1_LINETYPE
1070
   381
1005
14
1001
ACAD_DSTYLE_DIM_EXT2_LINETYPE
1070
   382
1005
14
  0
ENDTAB
  0
TABLE
  2
BLOCK_RECORD
  5
1
330
0
100
AcDbSymbolTable
 70
    14
  0
BLOCK_RECORD
  5
1F
102
{ACAD_XDICTIONARY
360
32A
102
}
330
1
100
AcDbSymbolTableRecord
100
AcDbBlockTableRecord
  2
*Model_Space
340
22
  0
BLOCK_RECORD
  5
1B
330
1
100
AcDbSymbolTableRecord
100
AcDbBlockTableRecord
  2
*Paper_Space
340
1E
  0
BLOCK_RECORD
  5
23
330
1
100
AcDbSymbolTableRecord
100
AcDbBlockTableRecord
  2
*Paper_Space0
340
26
  0
BLOCK_RECORD
  5
1CC
330
1
100
AcDbSymbolTableRecord
100
AcDbBlockTableRecord
  2
ASSORTED_DRAFT1
340
0
  0
BLOCK_RECORD
  5
1DA
330
1
100
AcDbSymbolTableRecord
100
AcDbBlockTableRecord
  2
*D2
340
0
  0
BLOCK_RECORD
  5
1E6
330
1
100
AcDbSymbolTableRecord
100
AcDbBlockTableRecord
  2
_U0
340
0
  0
BLOCK_RECORD
  5
1F2
330
1
100
AcDbSymbolTableRecord
100
AcDbBlockTableRecord
  2
*D4
340
0
  0
BLOCK_RECORD
  5
1FE
330
1
100
AcDbSymbolTableRecord
100
AcDbBlockTableRecord
  2
_U1
340
0
  0
BLOCK_RECORD
  5
20A
330
1
100
AcDbSymbolTableRecord
100
AcDbBlockTableRecord
  2
*D6
340
0
  0
BLOCK_RECORD
  5
216
330
1
100
AcDbSymbolTableRecord
100
AcDbBlockTableRecord
  2
_U2
340
0
  0
BLOCK_RECORD
  5
222
330
1
100
AcDbSymbolTableRecord
100
AcDbBlockTableRecord
  2
*D8
340
0
  0
BLOCK_RECORD
  5
22D
330
1
100
AcDbSymbolTableRecord
100
AcDbBlockTableRecord
  2
_U3
340
0
  0
BLOCK_RECORD
  5
238
330
1
100
AcDbSymbolTableRecord
100
AcDbBlockTableRecord
  2
*D10
340
0
  0
BLOCK_RECORD
  5
244
330
1
100
AcDbSymbolTableRecord
100
AcDbBlockTableRecord
  2
_U4
340
0
  0
BLOCK_RECORD
  5
306
330
1
100
AcDbSymbolTableRecord
100
AcDbBlockTableRecord
  2
GENAXEH
340
0
  0
ENDTAB
  0
ENDSEC
  0
SECTION
  2
BLOCKS
  0
BLOCK
  5
20
330
1F
100
AcDbEntity
  8
0
100
AcDbBlockBegin
  2
*Model_Space
 70
     0
 10
0.0
 20
0.0
 30
0.0
  3
*Model_Space
  1

  0
ENDBLK
  5
21
330
1F
100
AcDbEntity
  8
0
100
AcDbBlockEnd
  0
BLOCK
  5
1C
330
1B
100
AcDbEntity
 67
     1
  8
0
100
AcDbBlockBegin
  2
*Paper_Space
 70
     0
 10
0.0
 20
0.0
 30
0.0
  3
*Paper_Space
  1

  0
ENDBLK
  5
1D
330
1B
100
AcDbEntity
 67
     1
  8
0
100
AcDbBlockEnd
  0
BLOCK
  5
24
330
23
100
AcDbEntity
 67
     1
  8
0
100
AcDbBlockBegin
  2
*Paper_Space0
 70
     0
 10
0.0
 20
0.0
 30
0.0
  3
*Paper_Space0
  1

  0
ENDBLK
  5
25
330
23
100
AcDbEntity
 67
     1
  8
0
100
AcDbBlockEnd
  0
BLOCK
  5
1CF
330
1CC
100
AcDbEntity
  8
0
100
AcDbBlockBegin
  2
ASSORTED_DRAFT1
 70
     0
 10
0.0
 20
0.0
 30
0.0
  3
ASSORTED_DRAFT1
  1

  0
SOLID
  5
1CD
330
1CC
100
AcDbEntity
  8
0
 62
   254
370
    13
100
AcDbTrace
 10
476.517572
 20
269.186216
 30
0.0
 11
481.517568
 21
270.29469
 31
0.0
 12
481.5175759999999
 22
268.077743
 32
0.0
 13
476.517572
 23
269.186216
 33
0.0
  0
ENDBLK
  5
1D0
330
1CC
100
AcDbEntity
  8
0
100
AcDbBlockEnd
  0
BLOCK
  5
1DB
330
1DA
100
AcDbEntity
  8
0
100
AcDbBlockBegin
  2
*D2
 70
     1
 10
0.0
 20
0.0
 30
0.0
  3
*D2
  1

  0
LINE
  5
1DD
330
1DA
100
AcDbEntity
  8
0
 62
   254
370
    -2
100
AcDbLine
 10
422.174849
 20
387.508075
 30
0.0
 11
422.174849
 21
392.70564
 31
0.0
  0
LINE
  5
1DE
330
1DA
100
AcDbEntity
  8
0
 62
   254
370
    -2
100
AcDbLine
 10
385.654273
 20
384.906399
 30
0.0
 11
385.654273
 21
392.70564
 31
0.0
  0
LINE
  5
1DF
330
1DA
100
AcDbEntity
  8
0
 62
   254
370
    -2
100
AcDbLine
 10
418.674849
 20
391.70564
 30
0.0
 11
389.154273
 21
391.70564
 31
0.0
  0
SOLID
  5
1E0
330
1DA
100
AcDbEntity
  8
0
 62
   254
100
AcDbTrace
 10
418.674849
 20
391.122306
 30
0.0
 11
418.674849
 21
392.288973
 31
0.0
 12
422.174849
 22
391.70564
 32
0.0
 13
422.174849
 23
391.70564
 33
0.0
  0
SOLID
  5
1E1
330
1DA
100
AcDbEntity
  8
0
 62
   254
100
AcDbTrace
 10
389.154273
 20
392.288973
 30
0.0
 11
389.154273
 21
391.122306
 31
0.0
 12
385.654273
 22
391.70564
 32
0.0
 13
385.654273
 23
391.70564
 33
0.0
  0
MTEXT
  5
1E2
330
1DA
100
AcDbEntity
  8
0
 62
   254
370
    13
100
AcDbMText
 10
403.914561
 20
396.95564
 30
0.0
 40
3.5
 41
0.0
 71
     5
 72
     1
  1
\A1;36.52
  7
cesky
 73
     1
 44
1.0
  0
POINT
  5
1E3
330
1DA
100
AcDbEntity
  8
Defpoints
 62
     0
100
AcDbPoint
 10
422.174849
 20
387.508075
 30
0.0
  0
POINT
  5
1E4
330
1DA
100
AcDbEntity
  8
Defpoints
 62
     0
100
AcDbPoint
 10
385.654273
 20
384.906399
 30
0.0
  0
POINT
  5
1E5
330
1DA
100
AcDbEntity
  8
Defpoints
 62
     0
100
AcDbPoint
 10
385.654273
 20
391.70564
 30
0.0
  0
ENDBLK
  5
1DC
330
1DA
100
AcDbEntity
  8
0
100
AcDbBlockEnd
  0
BLOCK
  5
1ED
330
1E6
100
AcDbEntity
  8
0
100
AcDbBlockBegin
  2
_U0
 70
     0
 10
0.0
 20
0.0
 30
0.0
  3
_U0
  1

  0
ENDBLK
  5
1EE
330
1E6
100
AcDbEntity
  8
0
100
AcDbBlockEnd
  0
BLOCK
  5
1F3
330
1F2
100
AcDbEntity
  8
0
100
AcDbBlockBegin
  2
*D4
 70
     1
 10
0.0
 20
0.0
 30
0.0
  3
*D4
  1

  0
LINE
  5
1F5
330
1F2
100
AcDbEntity
  8
0
 62
    95
370
    -2
100
AcDbLine
 10
422.174849
 20
387.508075
 30
0.0
 11
422.174849
 21
411.443339
 31
0.0
  0
LINE
  5
1F6
330
1F2
100
AcDbEntity
  8
0
 62
    95
370
    -2
100
AcDbLine
 10
251.174849
 20
384.508075
 30
0.0
 11
251.174849
 21
411.443339
 31
0.0
  0
LINE
  5
1F7
330
1F2
100
AcDbEntity
  8
0
 62
    95
370
    -2
100
AcDbLine
 10
418.674849
 20
410.443339
 30
0.0
 11
254.674849
 21
410.443339
 31
0.0
  0
SOLID
  5
1F8
330
1F2
100
AcDbEntity
  8
0
 62
    95
100
AcDbTrace
 10
418.674849
 20
409.8600049999999
 30
0.0
 11
418.674849
 21
411.026672
 31
0.0
 12
422.174849
 22
410.443339
 32
0.0
 13
422.174849
 23
410.443339
 33
0.0
  0
SOLID
  5
1F9
330
1F2
100
AcDbEntity
  8
0
 62
    95
100
AcDbTrace
 10
254.674849
 20
411.026672
 30
0.0
 11
254.674849
 21
409.8600049999999
 31
0.0
 12
251.174849
 22
410.443339
 32
0.0
 13
251.174849
 23
410.443339
 33
0.0
  0
MTEXT
  5
1FA
330
1F2
100
AcDbEntity
  8
0
 62
    95
370
    13
100
AcDbMText
 10
336.674849
 20
415.693339
 30
0.0
 40
3.5
 41
0.0
 71
     5
 72
     1
  1
\A1;171
  7
cesky
 73
     1
 44
1.0
  0
POINT
  5
1FB
330
1F2
100
AcDbEntity
  8
Defpoints
 62
     0
100
AcDbPoint
 10
422.174849
 20
387.508075
 30
0.0
  0
POINT
  5
1FC
330
1F2
100
AcDbEntity
  8
Defpoints
 62
     0
100
AcDbPoint
 10
251.174849
 20
384.508075
 30
0.0
  0
POINT
  5
1FD
330
1F2
100
AcDbEntity
  8
Defpoints
 62
     0
100
AcDbPoint
 10
251.174849
 20
410.443339
 30
0.0
  0
ENDBLK
  5
1F4
330
1F2
100
AcDbEntity
  8
0
100
AcDbBlockEnd
  0
BLOCK
  5
205
330
1FE
100
AcDbEntity
  8
0
100
AcDbBlockBegin
  2
_U1
 70
     0
 10
0.0
 20
0.0
 30
0.0
  3
_U1
  1

  0
MTEXT
  5
1FF
330
1FE
100
AcDbEntity
  8
96
  6
Continuous
 62
    95
440
 16777216
370
    13
100
AcDbMText
 10
333.597849
 20
410.3175059999999
 30
0.0
 40
3.5
 41
0.0
 71
     7
 72
     5
  1
\W0.9524;171
  7
cesky
 73
     2
 44
0.8433729999999998
  0
LINE
  5
200
330
1FE
100
AcDbEntity
  8
96
 62
    95
440
 16777216
370
    13
100
AcDbLine
 10
422.174849
 20
387.508075
 30
0.0
 11
422.174849
 21
411.443339
 31
0.0
  0
LINE
  5
201
330
1FE
100
AcDbEntity
  8
96
 62
    95
440
 16777216
370
    13
100
AcDbLine
 10
251.174849
 20
384.508075
 30
0.0
 11
251.174849
 21
411.443339
 31
0.0
  0
LINE
  5
202
330
1FE
100
AcDbEntity
  8
96
 62
    95
440
 16777216
370
    13
100
AcDbLine
 10
422.174849
 20
410.443339
 30
0.0
 11
251.174849
 21
410.443339
 31
0.0
  0
SOLID
  5
203
330
1FE
100
AcDbEntity
  8
96
 62
    95
440
 16777216
370
    13
100
AcDbTrace
 10
422.174849
 20
410.443339
 30
0.0
 11
418.674851
 21
409.8261939999999
 31
0.0
 12
418.674846
 22
411.060483
 32
0.0
 13
418.674846
 23
411.060483
 33
0.0
  0
SOLID
  5
204
330
1FE
100
AcDbEntity
  8
96
 62
    95
440
 16777216
370
    13
100
AcDbTrace
 10
251.174849
 20
410.443339
 30
0.0
 11
254.674846
 21
411.060483
 31
0.0
 12
254.674851
 22
409.8261939999999
 32
0.0
 13
254.674851
 23
409.8261939999999
 33
0.0
  0
ENDBLK
  5
206
330
1FE
100
AcDbEntity
  8
0
100
AcDbBlockEnd
  0
BLOCK
  5
20B
330
20A
100
AcDbEntity
  8
0
100
AcDbBlockBegin
  2
*D6
 70
     1
 10
0.0
 20
0.0
 30
0.0
  3
*D6
  1

  0
LINE
  5
20D
330
20A
100
AcDbEntity
  8
0
 62
   254
370
    -2
100
AcDbLine
 10
422.174849
 20
387.508075
 30
0.0
 11
422.174849
 21
402.626699
 31
0.0
  0
LINE
  5
20E
330
20A
100
AcDbEntity
  8
0
 62
   254
370
    -2
100
AcDbLine
 10
322.174849
 20
366.008075
 30
0.0
 11
322.174849
 21
402.626699
 31
0.0
  0
LINE
  5
20F
330
20A
100
AcDbEntity
  8
0
 62
   254
370
    -2
100
AcDbLine
 10
418.674849
 20
401.626699
 30
0.0
 11
325.674849
 21
401.626699
 31
0.0
  0
SOLID
  5
210
330
20A
100
AcDbEntity
  8
0
 62
   254
100
AcDbTrace
 10
418.674849
 20
401.043365
 30
0.0
 11
418.674849
 21
402.2100319999999
 31
0.0
 12
422.174849
 22
401.626699
 32
0.0
 13
422.174849
 23
401.626699
 33
0.0
  0
SOLID
  5
211
330
20A
100
AcDbEntity
  8
0
 62
   254
100
AcDbTrace
 10
325.674849
 20
402.2100319999999
 30
0.0
 11
325.674849
 21
401.043365
 31
0.0
 12
322.174849
 22
401.626699
 32
0.0
 13
322.174849
 23
401.626699
 33
0.0
  0
MTEXT
  5
212
330
20A
100
AcDbEntity
  8
0
 62
   254
370
    13
100
AcDbMText
 10
372.174849
 20
406.876699
 30
0.0
 40
3.5
 41
0.0
 71
     5
 72
     1
  1
\A1;100
  7
cesky
 73
     1
 44
1.0
  0
POINT
  5
213
330
20A
100
AcDbEntity
  8
Defpoints
 62
     0
100
AcDbPoint
 10
422.174849
 20
387.508075
 30
0.0
  0
POINT
  5
214
330
20A
100
AcDbEntity
  8
Defpoints
 62
     0
100
AcDbPoint
 10
322.174849
 20
366.008075
 30
0.0
  0
POINT
  5
215
330
20A
100
AcDbEntity
  8
Defpoints
 62
     0
100
AcDbPoint
 10
322.174849
 20
401.626699
 30
0.0
  0
ENDBLK
  5
20C
330
20A
100
AcDbEntity
  8
0
100
AcDbBlockEnd
  0
BLOCK
  5
21D
330
216
100
AcDbEntity
  8
0
100
AcDbBlockBegin
  2
_U2
 70
     0
 10
0.0
 20
0.0
 30
0.0
  3
_U2
  1

  0
MTEXT
  5
217
330
216
100
AcDbEntity
  8
96
  6
Continuous
 62
   254
440
 16777216
370
    13
100
AcDbMText
 10
369.097849
 20
401.500866
 30
0.0
 40
3.5
 41
0.0
 71
     7
 72
     5
  1
\W0.7809;100
  7
cesky
 73
     2
 44
0.8433729999999998
  0
LINE
  5
218
330
216
100
AcDbEntity
  8
96
 62
   254
440
 16777216
370
    13
100
AcDbLine
 10
422.174849
 20
387.508075
 30
0.0
 11
422.174849
 21
402.626699
 31
0.0
  0
LINE
  5
219
330
216
100
AcDbEntity
  8
96
 62
   254
440
 16777216
370
    13
100
AcDbLine
 10
322.174849
 20
366.008075
 30
0.0
 11
322.174849
 21
402.626699
 31
0.0
  0
LINE
  5
21A
330
216
100
AcDbEntity
  8
96
 62
   254
440
 16777216
370
    13
100
AcDbLine
 10
422.174849
 20
401.626699
 30
0.0
 11
322.174849
 21
401.626699
 31
0.0
  0
SOLID
  5
21B
330
216
100
AcDbEntity
  8
96
 62
   254
440
 16777216
370
    13
100
AcDbTrace
 10
422.174849
 20
401.626699
 30
0.0
 11
418.674851
 21
401.009554
 31
0.0
 12
418.674846
 22
402.243843
 32
0.0
 13
418.674846
 23
402.243843
 33
0.0
  0
SOLID
  5
21C
330
216
100
AcDbEntity
  8
96
 62
   254
440
 16777216
370
    13
100
AcDbTrace
 10
322.174849
 20
401.626699
 30
0.0
 11
325.674846
 21
402.243843
 31
0.0
 12
325.674851
 22
401.009554
 32
0.0
 13
325.674851
 23
401.009554
 33
0.0
  0
ENDBLK
  5
21E
330
216
100
AcDbEntity
  8
0
100
AcDbBlockEnd
  0
BLOCK
  5
223
330
222
100
AcDbEntity
  8
0
100
AcDbBlockBegin
  2
*D8
 70
     1
 10
0.0
 20
0.0
 30
0.0
  3
*D8
  1

  0
LINE
  5
225
330
222
100
AcDbEntity
  8
0
 62
   254
370
    -2
100
AcDbLine
 10
410.2710629999999
 20
366.008075
 30
0.0
 11
440.887938
 21
366.008075
 31
0.0
  0
LINE
  5
226
330
222
100
AcDbEntity
  8
0
 62
   254
370
    -2
100
AcDbLine
 10
423.674849
 20
386.008075
 30
0.0
 11
440.887938
 21
386.008075
 31
0.0
  0
LINE
  5
227
330
222
100
AcDbEntity
  8
0
 62
   254
370
    -2
100
AcDbLine
 10
439.8879379999999
 20
366.008075
 30
0.0
 11
439.8879379999999
 21
386.008075
 31
0.0
  0
SOLID
  5
228
330
222
100
AcDbEntity
  8
0
 62
   254
100
AcDbTrace
 10
440.471271
 20
382.508075
 30
0.0
 11
439.3046049999999
 21
382.508075
 31
0.0
 12
439.8879379999999
 22
386.008075
 32
0.0
 13
439.8879379999999
 23
386.008075
 33
0.0
  0
MTEXT
  5
229
330
222
100
AcDbEntity
  8
0
 62
   254
370
    13
100
AcDbMText
 10
434.637938
 20
356.174742
 30
0.0
 40
3.5
 41
0.0
 71
     5
 72
     1
  1
\A1;40
  7
cesky
 11
0.0
 21
1.0
 31
0.0
 73
     1
 44
1.0
  0
POINT
  5
22A
330
222
100
AcDbEntity
  8
Defpoints
 62
     0
100
AcDbPoint
 10
410.2710629999999
 20
366.008075
 30
0.0
  0
POINT
  5
22B
330
222
100
AcDbEntity
  8
Defpoints
 62
     0
100
AcDbPoint
 10
423.674849
 20
386.008075
 30
0.0
  0
POINT
  5
22C
330
222
100
AcDbEntity
  8
Defpoints
 62
     0
100
AcDbPoint
 10
439.8879379999999
 20
386.008075
 30
0.0
  0
ENDBLK
  5
224
330
222
100
AcDbEntity
  8
0
100
AcDbBlockEnd
  0
BLOCK
  5
233
330
22D
100
AcDbEntity
  8
0
100
AcDbBlockBegin
  2
_U3
 70
     0
 10
0.0
 20
0.0
 30
0.0
  3
_U3
  1

  0
ENDBLK
  5
234
330
22D
100
AcDbEntity
  8
0
100
AcDbBlockEnd
  0
BLOCK
  5
239
330
238
100
AcDbEntity
  8
0
100
AcDbBlockBegin
  2
*D10
 70
     1
 10
0.0
 20
0.0
 30
0.0
  3
*D10
  1

  0
LINE
  5
23B
330
238
100
AcDbEntity
  8
0
 62
    95
370
    -2
100
AcDbLine
 10
271.090234
 20
386.008075
 30
0.0
 11
240.25917
 21
386.008075
 31
0.0
  0
LINE
  5
23C
330
238
100
AcDbEntity
  8
0
 62
    95
370
    -2
100
AcDbLine
 10
267.71652
 20
346.008075
 30
0.0
 11
240.25917
 21
346.008075
 31
0.0
  0
LINE
  5
23D
330
238
100
AcDbEntity
  8
0
 62
    95
370
    -2
100
AcDbLine
 10
241.25917
 20
382.508075
 30
0.0
 11
241.25917
 21
349.508075
 31
0.0
  0
SOLID
  5
23E
330
238
100
AcDbEntity
  8
0
 62
    95
100
AcDbTrace
 10
241.842503
 20
382.508075
 30
0.0
 11
240.675836
 21
382.508075
 31
0.0
 12
241.25917
 22
386.008075
 32
0.0
 13
241.25917
 23
386.008075
 33
0.0
  0
SOLID
  5
23F
330
238
100
AcDbEntity
  8
0
 62
    95
100
AcDbTrace
 10
240.675836
 20
349.508075
 30
0.0
 11
241.842503
 21
349.508075
 31
0.0
 12
241.25917
 22
346.008075
 32
0.0
 13
241.25917
 23
346.008075
 33
0.0
  0
MTEXT
  5
240
330
238
100
AcDbEntity
  8
0
 62
    95
370
    13
100
AcDbMText
 10
236.00917
 20
366.008075
 30
0.0
 40
3.5
 41
0.0
 71
     5
 72
     1
  1
\A1;40
  7
cesky
 11
0.0
 21
1.0
 31
0.0
 73
     1
 44
1.0
  0
POINT
  5
241
330
238
100
AcDbEntity
  8
Defpoints
 62
     0
100
AcDbPoint
 10
271.090234
 20
386.008075
 30
0.0
  0
POINT
  5
242
330
238
100
AcDbEntity
  8
Defpoints
 62
     0
100
AcDbPoint
 10
267.71652
 20
346.008075
 30
0.0
  0
POINT
  5
243
330
238
100
AcDbEntity
  8
Defpoints
 62
     0
100
AcDbPoint
 10
241.25917
 20
346.008075
 30
0.0
  0
ENDBLK
  5
23A
330
238
100
AcDbEntity
  8
0
100
AcDbBlockEnd
  0
BLOCK
  5
24C
330
244
100
AcDbEntity
  8
0
100
AcDbBlockBegin
  2
_U4
 70
     0
 10
0.0
 20
0.0
 30
0.0
  3
_U4
  1

  0
MTEXT
  5
245
330
244
100
AcDbEntity
  8
96
  6
Continuous
 62
    95
440
 16777216
370
    13
100
AcDbMText
 10
241.071753
 20
367.534325
 30
0.0
 40
3.5
 41
0.0
 71
     7
 72
     5
  1
\W0.7045;40
  7
cesky
 11
0.0000000000000001
 21
1.0
 31
0.0
 73
     2
 44
0.8433729999999998
  0
MTEXT
  5
246
330
244
100
AcDbEntity
  8
96
  6
Continuous
 62
    95
440
 16777216
370
    13
100
AcDbMText
 10
241.071753
 20
360.796825
 30
0.0
 40
3.5
 41
0.0
 71
     7
 72
     5
  1
\W3.0115;\H2.63;%%c\H3.50;
  7
cesky
 11
0.0000000000000001
 21
1.0
 31
0.0
 73
     2
 44
0.8433729999999998
  0
LINE
  5
247
330
244
100
AcDbEntity
  8
96
 62
    95
440
 16777216
370
    13
100
AcDbLine
 10
252.674849
 20
386.008075
 30
0.0
 11
240.25917
 21
386.008075
 31
0.0
  0
LINE
  5
248
330
244
100
AcDbEntity
  8
96
 62
    95
440
 16777216
370
    13
100
AcDbLine
 10
252.674849
 20
346.008075
 30
0.0
 11
240.25917
 21
346.008075
 31
0.0
  0
LINE
  5
249
330
244
100
AcDbEntity
  8
96
 62
    95
440
 16777216
370
    13
100
AcDbLine
 10
241.25917
 20
386.008075
 30
0.0
 11
241.25917
 21
346.008075
 31
0.0
  0
SOLID
  5
24A
330
244
100
AcDbEntity
  8
96
 62
    95
440
 16777216
370
    13
100
AcDbTrace
 10
241.25917
 20
386.008075
 30
0.0
 11
241.876314
 21
382.508077
 31
0.0
 12
240.642025
 22
382.508073
 32
0.0
 13
240.642025
 23
382.508073
 33
0.0
  0
SOLID
  5
24B
330
244
100
AcDbEntity
  8
96
 62
    95
440
 16777216
370
    13
100
AcDbTrace
 10
241.25917
 20
346.008075
 30
0.0
 11
240.642025
 21
349.508073
 31
0.0
 12
241.876314
 22
349.508077
 32
0.0
 13
241.876314
 23
349.508077
 33
0.0
  0
ENDBLK
  5
24D
330
244
100
AcDbEntity
  8
0
100
AcDbBlockEnd
  0
BLOCK
  5
308
330
306
100
AcDbEntity
  8
0
370
    13
100
AcDbBlockBegin
  2
GENAXEH
 70
     0
 10
0.0
 20
0.0
 30
0.0
  3
GENAXEH
  1

  0
LINE
  5
307
330
306
100
AcDbEntity
  8
0
100
AcDbLine
 10
-1.0
 20
0.0
 30
0.0
 11
1.0
 21
0.0
 31
0.0
  0
ENDBLK
  5
309
330
306
100
AcDbEntity
  8
0
370
    13
100
AcDbBlockEnd
  0
ENDSEC
  0
SECTION
  2
ENTITIES
  0
POINT
  5
73
102
{ACAD_REACTORS
330
389
102
}
330
1F
100
AcDbEntity
  8
80
100
AcDbPoint
 10
322.174849
 20
366.008075
 30
0.0
  0
POINT
  5
75
330
1F
100
AcDbEntity
  8
SK6
 60
     1
100
AcDbPoint
 10
251.174849
 20
366.008075
 30
0.0
  0
POINT
  5
77
330
1F
100
AcDbEntity
  8
SK6
 60
     1
100
AcDbPoint
 10
322.174849
 20
366.008075
 30
0.0
  0
POINT
  5
78
330
1F
100
AcDbEntity
  8
SK6
 60
     1
100
AcDbPoint
 10
322.174849
 20
366.008075
 30
0.0
  0
POINT
  5
79
330
1F
100
AcDbEntity
  8
SK6
 60
     1
100
AcDbPoint
 10
410.2710629999999
 20
366.008075
 30
0.0
  0
POINT
  5
7A
330
1F
100
AcDbEntity
  8
SK6
 60
     1
100
AcDbPoint
 10
251.174849
 20
384.508075
 30
0.0
  0
LINE
  5
7B
330
1F
100
AcDbEntity
  8
1
100
AcDbLine
 10
400.769891
 20
375.518729
 30
0.0
 11
400.5466909999999
 21
375.518729
 31
0.0
  0
LINE
  5
7D
330
1F
100
AcDbEntity
  8
SK1
100
AcDbLine
 10
251.174849
 20
371.048908
 30
0.0
 11
251.174849
 21
360.967242
 31
0.0
  0
LINE
  5
7F
330
1F
100
AcDbEntity
  8
1
100
AcDbLine
 10
410.2710629999999
 20
366.208994
 30
0.0
 11
410.2710629999999
 21
350.598739
 31
0.0
  0
LINE
  5
80
330
1F
100
AcDbEntity
  8
1
100
AcDbLine
 10
385.448676
 20
372.85368
 30
0.0
 11
385.448676
 21
347.576242
 31
0.0
  0
LINE
  5
81
330
1F
100
AcDbEntity
  8
1
100
AcDbLine
 10
362.174849
 20
347.508075
 30
0.0
 11
379.696315
 21
347.508075
 31
0.0
  0
LINE
  5
82
330
1F
100
AcDbEntity
  8
1
100
AcDbLine
 10
384.357759
 20
384.508075
 30
0.0
 11
382.972577
 21
384.508075
 31
0.0
  0
LINE
  5
83
330
1F
100
AcDbEntity
  8
1
100
AcDbLine
 10
381.377221
 20
384.508075
 30
0.0
 11
362.174849
 21
384.508075
 31
0.0
  0
LINE
  5
84
330
1F
100
AcDbEntity
  8
1
100
AcDbLine
 10
386.651522
 20
372.314192
 30
0.0
 11
386.651522
 21
348.804704
 31
0.0
  0
LINE
  5
85
330
1F
100
AcDbEntity
  8
1
100
AcDbLine
 10
383.569295
 20
347.347142
 30
0.0
 11
383.862691
 21
347.201564
 31
0.0
  0
LINE
  5
87
330
1F
100
AcDbEntity
  8
1
100
AcDbLine
 10
420.872619
 20
359.777066
 30
0.0
 11
420.921892
 21
358.950358
 31
0.0
  0
LINE
  5
88
330
1F
100
AcDbEntity
  8
1
100
AcDbLine
 10
383.862691
 20
347.201564
 30
0.0
 11
383.495661
 21
347.54985
 31
0.0
  0
LINE
  5
89
330
1F
100
AcDbEntity
  8
1
100
AcDbLine
 10
384.175663
 20
347.187485
 30
0.0
 11
383.862691
 21
347.201564
 31
0.0
  0
LINE
  5
8A
330
1F
100
AcDbEntity
  8
1
100
AcDbLine
 10
387.479951
 20
347.01623
 30
0.0
 11
401.9950389999999
 21
346.36326
 31
0.0
  0
LINE
  5
8B
330
1F
100
AcDbEntity
  8
1
100
AcDbLine
 10
386.029628
 20
348.169496
 30
0.0
 11
400.7914009999999
 21
347.505428
 31
0.0
  0
LINE
  5
8C
330
1F
100
AcDbEntity
  8
1
100
AcDbLine
 10
400.786197
 20
347.770462
 30
0.0
 11
386.27811
 21
348.423117
 31
0.0
  0
LINE
  5
8D
330
1F
100
AcDbEntity
  8
1
100
AcDbLine
 10
420.872619
 20
359.777066
 30
0.0
 11
420.2408599999999
 21
359.690934
 31
0.0
  0
LINE
  5
8E
330
1F
100
AcDbEntity
  8
1
100
AcDbLine
 10
420.872619
 20
359.777066
 30
0.0
 11
420.1373789999999
 21
361.154201
 31
0.0
  0
LINE
  5
8F
330
1F
100
AcDbEntity
  8
1
100
AcDbLine
 10
362.174849
 20
347.508075
 30
0.0
 11
362.174849
 21
384.508075
 31
0.0
  0
LINE
  5
90
330
1F
100
AcDbEntity
  8
1
100
AcDbLine
 10
362.174849
 20
384.508075
 30
0.0
 11
329.174849
 21
385.508075
 31
0.0
  0
LINE
  5
91
330
1F
100
AcDbEntity
  8
1
100
AcDbLine
 10
329.174849
 20
346.508075
 30
0.0
 11
362.174849
 21
347.508075
 31
0.0
  0
LINE
  5
92
330
1F
100
AcDbEntity
  8
1
100
AcDbLine
 10
329.174849
 20
346.508075
 30
0.0
 11
329.174849
 21
385.508075
 31
0.0
  0
LINE
  5
93
330
1F
100
AcDbEntity
  8
1
100
AcDbLine
 10
329.174849
 20
385.508075
 30
0.0
 11
322.174849
 21
385.508075
 31
0.0
  0
LINE
  5
94
330
1F
100
AcDbEntity
  8
1
100
AcDbLine
 10
322.174849
 20
346.508075
 30
0.0
 11
329.174849
 21
346.508075
 31
0.0
  0
LINE
  5
95
330
1F
100
AcDbEntity
  8
SK1
100
AcDbLine
 10
297.687349
 20
375.127286
 30
0.0
 11
297.687349
 21
356.888865
 31
0.0
  0
LINE
  5
96
330
1F
100
AcDbEntity
  8
SK1
100
AcDbLine
 10
283.662349
 20
375.127286
 30
0.0
 11
283.662349
 21
356.888865
 31
0.0
  0
LINE
  5
97
330
1F
100
AcDbEntity
  8
SK1
100
AcDbLine
 10
270.674849
 20
375.127286
 30
0.0
 11
270.674849
 21
356.888865
 31
0.0
  0
LINE
  5
98
330
1F
100
AcDbEntity
  8
SK1
100
AcDbLine
 10
270.674849
 20
375.127286
 30
0.0
 11
252.674849
 21
375.127286
 31
0.0
  0
LINE
  5
99
330
1F
100
AcDbEntity
  8
SK1
100
AcDbLine
 10
252.674849
 20
356.888865
 30
0.0
 11
270.674849
 21
356.888865
 31
0.0
  0
LINE
  5
9A
330
1F
100
AcDbEntity
  8
SK1
100
AcDbLine
 10
252.674849
 20
386.008075
 30
0.0
 11
252.674849
 21
375.127286
 31
0.0
  0
LINE
  5
9B
330
1F
100
AcDbEntity
  8
SK1
100
AcDbLine
 10
252.674849
 20
356.888865
 30
0.0
 11
252.674849
 21
346.008075
 31
0.0
  0
LINE
  5
9C
330
1F
100
AcDbEntity
  8
SK1
100
AcDbLine
 10
322.174849
 20
386.008075
 30
0.0
 11
322.174849
 21
346.008075
 31
0.0
  0
LINE
  5
9D
330
1F
100
AcDbEntity
  8
SK1
100
AcDbLine
 10
283.662349
 20
356.888865
 30
0.0
 11
297.687349
 21
356.888865
 31
0.0
  0
LINE
  5
9E
330
1F
100
AcDbEntity
  8
SK1
100
AcDbLine
 10
297.687349
 20
375.127286
 30
0.0
 11
283.662349
 21
375.127286
 31
0.0
  0
LINE
  5
9F
330
1F
100
AcDbEntity
  8
SK1
100
AcDbLine
 10
322.174849
 20
386.008075
 30
0.0
 11
252.674849
 21
386.008075
 31
0.0
  0
LINE
  5
A0
330
1F
100
AcDbEntity
  8
SK1
100
AcDbLine
 10
252.674849
 20
346.008075
 30
0.0
 11
322.174849
 21
346.008075
 31
0.0
  0
LINE
  5
A1
330
1F
100
AcDbEntity
  8
1
100
AcDbLine
 10
404.437796
 20
376.4842
 30
0.0
 11
404.045389
 21
376.4842
 31
0.0
  0
LINE
  5
A2
330
1F
100
AcDbEntity
  8
1
100
AcDbLine
 10
385.924432
 20
378.642394
 30
0.0
 11
386.08538
 21
378.308377
 31
0.0
  0
LINE
  5
A3
330
1F
100
AcDbEntity
  8
1
100
AcDbLine
 10
384.715926
 20
383.66301
 30
0.0
 11
385.654273
 21
384.906399
 31
0.0
  0
LINE
  5
A4
330
1F
100
AcDbEntity
  8
1
100
AcDbLine
 10
387.623964
 20
384.995007
 30
0.0
 11
385.654273
 21
384.906399
 31
0.0
  0
LINE
  5
A5
330
1F
100
AcDbEntity
  8
1
100
AcDbLine
 10
384.715926
 20
383.66301
 30
0.0
 11
384.6603120000001
 21
383.530835
 31
0.0
  0
LINE
  5
A6
330
1F
100
AcDbEntity
  8
1
100
AcDbLine
 10
384.6603120000001
 20
383.530835
 30
0.0
 11
384.529938
 21
382.853896
 31
0.0
  0
LINE
  5
A7
330
1F
100
AcDbEntity
  8
1
100
AcDbLine
 10
384.715926
 20
383.66301
 30
0.0
 11
384.5399
 21
382.854307
 31
0.0
  0
LINE
  5
A8
330
1F
100
AcDbEntity
  8
1
100
AcDbLine
 10
420.274849
 20
365.672696
 30
0.0
 11
420.274849
 21
365.343792
 31
0.0
  0
LINE
  5
A9
330
1F
100
AcDbEntity
  8
1
100
AcDbLine
 10
420.274849
 20
364.828711
 30
0.0
 11
420.274849
 21
362.698997
 31
0.0
  0
LINE
  5
AA
330
1F
100
AcDbEntity
  8
1
100
AcDbLine
 10
386.001977
 20
377.684936
 30
0.0
 11
385.83135
 21
378.839185
 31
0.0
  0
LINE
  5
AB
330
1F
100
AcDbEntity
  8
1
100
AcDbLine
 10
385.052369
 20
384.108804
 30
0.0
 11
385.004342
 21
384.433694
 31
0.0
  0
LINE
  5
AC
330
1F
100
AcDbEntity
  8
1
100
AcDbLine
 10
420.1373789999999
 20
361.154201
 30
0.0
 11
419.8776669999999
 21
361.022125
 31
0.0
  0
LINE
  5
AD
330
1F
100
AcDbEntity
  8
1
100
AcDbLine
 10
419.3470709999999
 20
360.752292
 30
0.0
 11
418.7272169999999
 21
360.437067
 31
0.0
  0
LINE
  5
AE
330
1F
100
AcDbEntity
  8
1
100
AcDbLine
 10
419.929892
 20
361.197207
 30
0.0
 11
420.1373789999999
 21
361.154201
 31
0.0
  0
LINE
  5
AF
330
1F
100
AcDbEntity
  8
1
100
AcDbLine
 10
420.2408599999999
 20
359.690934
 30
0.0
 11
420.6866109999999
 21
358.967954
 31
0.0
  0
LINE
  5
B0
330
1F
100
AcDbEntity
  8
1
100
AcDbLine
 10
420.2408599999999
 20
359.690934
 30
0.0
 11
418.7272169999999
 21
360.437067
 31
0.0
  0
LINE
  5
B1
330
1F
100
AcDbEntity
  8
1
100
AcDbLine
 10
417.515335
 20
360.271
 30
0.0
 11
418.7272169999999
 21
360.437067
 31
0.0
  0
LINE
  5
B2
330
1F
100
AcDbEntity
  8
1
100
AcDbLine
 10
417.515335
 20
360.271
 30
0.0
 11
417.48544
 21
360.2141410000001
 31
0.0
  0
LINE
  5
B3
330
1F
100
AcDbEntity
  8
1
100
AcDbLine
 10
417.515335
 20
360.271
 30
0.0
 11
416.525354
 21
360.4761910000001
 31
0.0
  0
LINE
  5
B4
330
1F
100
AcDbEntity
  8
1
100
AcDbLine
 10
417.48544
 20
360.2141410000001
 30
0.0
 11
415.644244
 21
354.297737
 31
0.0
  0
LINE
  5
B5
330
1F
100
AcDbEntity
  8
1
100
AcDbLine
 10
417.48544
 20
360.2141410000001
 30
0.0
 11
417.2133589999999
 21
360.059351
 31
0.0
  0
LINE
  5
B6
330
1F
100
AcDbEntity
  8
1
100
AcDbLine
 10
416.4453529999999
 20
360.218533
 30
0.0
 11
417.2133589999999
 21
360.059351
 31
0.0
  0
LINE
  5
B7
330
1F
100
AcDbEntity
  8
1
100
AcDbLine
 10
417.2133589999999
 20
360.059351
 30
0.0
 11
415.4512129999999
 21
354.396961
 31
0.0
  0
LINE
  5
B8
330
1F
100
AcDbEntity
  8
1
100
AcDbLine
 10
417.2133589999999
 20
360.059351
 30
0.0
 11
416.311954
 21
359.585801
 31
0.0
  0
LINE
  5
B9
330
1F
100
AcDbEntity
  8
1
100
AcDbLine
 10
416.311954
 20
359.585801
 30
0.0
 11
414.7920739999999
 21
354.701897
 31
0.0
  0
LINE
  5
BA
330
1F
100
AcDbEntity
  8
1
100
AcDbLine
 10
416.252317
 20
359.598161
 30
0.0
 11
416.311954
 21
359.585801
 31
0.0
  0
LINE
  5
BB
330
1F
100
AcDbEntity
  8
1
100
AcDbLine
 10
401.01835
 20
358.504185
 30
0.0
 11
399.89654
 21
358.504185
 31
0.0
  0
LINE
  5
BC
330
1F
100
AcDbEntity
  8
1
100
AcDbLine
 10
385.313219
 20
377.473489
 30
0.0
 11
384.413464
 21
383.560117
 31
0.0
  0
LINE
  5
BD
330
1F
100
AcDbEntity
  8
1
100
AcDbLine
 10
420.274849
 20
364.8287160000001
 30
0.0
 11
420.274849
 21
365.343792
 31
0.0
  0
LINE
  5
BE
330
1F
100
AcDbEntity
  8
1
100
AcDbLine
 10
419.4935339999999
 20
365.433671
 30
0.0
 11
420.274849
 21
365.343792
 31
0.0
  0
LINE
  5
BF
330
1F
100
AcDbEntity
  8
1
100
AcDbLine
 10
409.63387
 20
366.416879
 30
0.0
 11
408.147503
 21
366.587863
 31
0.0
  0
LINE
  5
C0
330
1F
100
AcDbEntity
  8
1
100
AcDbLine
 10
420.2200349999999
 20
364.840916
 30
0.0
 11
414.2508279999999
 21
365.713009
 31
0.0
  0
LINE
  5
C1
330
1F
100
AcDbEntity
  8
1
100
AcDbLine
 10
414.567434
 20
354.183917
 30
0.0
 11
416.645633
 21
360.861897
 31
0.0
  0
LINE
  5
C2
330
1F
100
AcDbEntity
  8
1
100
AcDbLine
 10
416.645633
 20
360.861897
 30
0.0
 11
418.331335
 21
360.627678
 31
0.0
  0
LINE
  5
C3
330
1F
100
AcDbEntity
  8
1
100
AcDbLine
 10
418.331335
 20
360.627678
 30
0.0
 11
419.717328
 21
360.797714
 31
0.0
  0
LINE
  5
C4
330
1F
100
AcDbEntity
  8
1
100
AcDbLine
 10
412.46238
 20
365.940843
 30
0.0
 11
412.46238
 21
362.164911
 31
0.0
  0
LINE
  5
C5
330
1F
100
AcDbEntity
  8
1
100
AcDbLine
 10
410.297317
 20
366.20696
 30
0.0
 11
410.297317
 21
350.551775
 31
0.0
  0
LINE
  5
C6
330
1F
100
AcDbEntity
  8
1
100
AcDbLine
 10
412.46238
 20
355.125521
 30
0.0
 11
412.46238
 21
352.067636
 31
0.0
  0
LINE
  5
C7
330
1F
100
AcDbEntity
  8
SK1
100
AcDbLine
 10
251.174849
 20
384.508075
 30
0.0
 11
251.174849
 21
371.048908
 31
0.0
  0
LINE
  5
C8
330
1F
100
AcDbEntity
  8
SK1
100
AcDbLine
 10
251.174849
 20
360.967242
 30
0.0
 11
251.174849
 21
347.508075
 31
0.0
  0
LINE
  5
C9
330
1F
100
AcDbEntity
  8
SK1
100
AcDbLine
 10
251.174849
 20
347.508075
 30
0.0
 11
252.674849
 21
346.008075
 31
0.0
  0
LINE
  5
CA
330
1F
100
AcDbEntity
  8
SK1
100
AcDbLine
 10
252.674849
 20
386.008075
 30
0.0
 11
251.174849
 21
384.508075
 31
0.0
  0
LINE
  5
CB
330
1F
100
AcDbEntity
  8
1
100
AcDbLine
 10
403.7155089999999
 20
377.482465
 30
0.0
 11
404.1120969999999
 21
377.482465
 31
0.0
  0
LINE
  5
CC
330
1F
100
AcDbEntity
  8
1
100
AcDbLine
 10
403.0643229999999
 20
374.854123
 30
0.0
 11
402.655468
 21
374.854123
 31
0.0
  0
LINE
  5
CD
330
1F
100
AcDbEntity
  8
1
100
AcDbLine
 10
402.189204
 20
372.250597
 30
0.0
 11
402.327116
 21
372.250597
 31
0.0
  0
LINE
  5
CE
330
1F
100
AcDbEntity
  8
1
100
AcDbLine
 10
402.327116
 20
380.750597
 30
0.0
 11
402.189204
 21
380.750597
 31
0.0
  0
LINE
  5
CF
330
1F
100
AcDbEntity
  8
1
100
AcDbLine
 10
401.408811
 20
378.14707
 30
0.0
 11
401.817665
 21
378.14707
 31
0.0
  0
LINE
  5
D0
330
1F
100
AcDbEntity
  8
1
100
AcDbLine
 10
401.995547
 20
385.641522
 30
0.0
 11
388.151852
 21
385.018755
 31
0.0
  0
LINE
  5
D1
330
1F
100
AcDbEntity
  8
1
100
AcDbLine
 10
415.731568
 20
365.754932
 30
0.0
 11
401.29459
 21
367.415689
 31
0.0
  0
LINE
  5
D9
330
1F
100
AcDbEntity
  8
1
100
AcDbLine
 10
418.969784
 20
365.403337
 30
0.0
 11
419.2810719999999
 21
365.367528
 31
0.0
  0
LINE
  5
DA
330
1F
100
AcDbEntity
  8
1
100
AcDbLine
 10
419.593283
 20
365.464709
 30
0.0
 11
419.2810719999999
 21
365.367528
 31
0.0
  0
LINE
  5
DB
330
1F
100
AcDbEntity
  8
1
100
AcDbLine
 10
421.9299599999999
 20
366.146737
 30
0.0
 11
421.140462
 21
365.92446
 31
0.0
  0
LINE
  5
DC
330
1F
100
AcDbEntity
  8
81
100
AcDbLine
 10
420.6748489999999
 20
386.008075
 30
0.0
 11
423.674849
 21
386.008075
 31
0.0
  0
LINE
  5
DD
330
1F
100
AcDbEntity
  8
81
100
AcDbLine
 10
422.174849
 20
384.508075
 30
0.0
 11
422.174849
 21
387.508075
 31
0.0
  0
LINE
  5
DE
330
1F
100
AcDbEntity
  8
80
100
AcDbLine
 10
322.174849
 20
366.008075
 30
0.0
 11
323.174849
 21
366.008075
 31
0.0
  0
LINE
  5
DF
330
1F
100
AcDbEntity
  8
80
100
AcDbLine
 10
322.174849
 20
366.008075
 30
0.0
 11
322.174849
 21
365.008075
 31
0.0
  0
LINE
  5
E4
330
1F
100
AcDbEntity
  8
NOCUT
100
AcDbLine
 10
369.5616
 20
366.008075
 30
0.0
 11
420.274849
 21
366.008075
 31
0.0
  0
LINE
  5
E5
330
1F
100
AcDbEntity
  8
NOCUT
100
AcDbLine
 10
369.5616
 20
366.008075
 30
0.0
 11
366.674849
 21
371.008075
 31
0.0
  0
LINE
  5
E6
330
1F
100
AcDbEntity
  8
NOCUT
100
AcDbLine
 10
366.674849
 20
371.008075
 30
0.0
 11
252.906899
 21
371.008075
 31
0.0
  0
LINE
  5
E7
330
1F
100
AcDbEntity
  8
NOCUT
100
AcDbLine
 10
252.906899
 20
371.008075
 30
0.0
 11
251.174849
 21
372.008075
 31
0.0
  0
LINE
  5
E8
330
1F
100
AcDbEntity
  8
NOCUT
100
AcDbLine
 10
251.174849
 20
372.008075
 30
0.0
 11
251.174849
 21
384.508075
 31
0.0
  0
LINE
  5
E9
330
1F
100
AcDbEntity
  8
NOCUT
100
AcDbLine
 10
251.174849
 20
384.508075
 30
0.0
 11
252.674849
 21
386.008075
 31
0.0
  0
LINE
  5
EA
330
1F
100
AcDbEntity
  8
NOCUT
100
AcDbLine
 10
252.674849
 20
386.008075
 30
0.0
 11
322.174849
 21
386.008075
 31
0.0
  0
LINE
  5
EB
330
1F
100
AcDbEntity
  8
NOCUT
100
AcDbLine
 10
322.174849
 20
386.008075
 30
0.0
 11
322.174849
 21
385.508075
 31
0.0
  0
LINE
  5
EC
330
1F
100
AcDbEntity
  8
NOCUT
100
AcDbLine
 10
322.174849
 20
385.508075
 30
0.0
 11
329.174849
 21
385.508075
 31
0.0
  0
LINE
  5
ED
330
1F
100
AcDbEntity
  8
NOCUT
100
AcDbLine
 10
329.174849
 20
385.508075
 30
0.0
 11
362.174849
 21
384.508075
 31
0.0
  0
LINE
  5
EE
330
1F
100
AcDbEntity
  8
NOCUT
100
AcDbLine
 10
362.174849
 20
384.508075
 30
0.0
 11
385.448676
 21
384.508075
 31
0.0
  0
LINE
  5
EF
330
1F
100
AcDbEntity
  8
NOCUT
100
AcDbLine
 10
385.448676
 20
384.508075
 30
0.0
 11
386.651522
 21
383.305229
 31
0.0
  0
LINE
  5
F0
330
1F
100
AcDbEntity
  8
NOCUT
100
AcDbLine
 10
386.651522
 20
383.305229
 30
0.0
 11
400.811252
 21
384.3574779999999
 31
0.0
  0
LINE
  5
F1
330
1F
100
AcDbEntity
  8
NOCUT
100
AcDbLine
 10
410.2710629999999
 20
382.531129
 30
0.0
 11
410.3712919999999
 21
382.704731
 31
0.0
  0
LINE
  5
F2
330
1F
100
AcDbEntity
  8
NOCUT
100
AcDbLine
 10
412.5363549999999
 20
381.454731
 30
0.0
 11
412.4361259999999
 21
381.281129
 31
0.0
  0
LINE
  5
F3
330
1F
100
AcDbEntity
  8
NOCUT
100
AcDbLine
 10
420.274849
 20
369.317154
 30
0.0
 11
420.274849
 21
366.008075
 31
0.0
  0
ARC
  5
101
330
1F
100
AcDbEntity
  8
1
100
AcDbCircle
 10
402.174849
 20
366.008075
 30
0.0
 40
18.4
100
AcDbArc
 50
346.21687
 51
349.639489
  0
ARC
  5
107
330
1F
100
AcDbEntity
  8
NOCUT
100
AcDbCircle
 10
402.174849
 20
366.008075
 30
0.0
 40
18.4
100
AcDbArc
 50
63.89537699999999
 51
94.25
  0
ARC
  5
108
330
1F
100
AcDbEntity
  8
NOCUT
100
AcDbCircle
 10
402.174849
 20
366.008075
 30
0.0
 40
18.6
100
AcDbArc
 50
56.146573
 51
63.85342699999999
  0
ARC
  5
109
330
1F
100
AcDbEntity
  8
NOCUT
100
AcDbCircle
 10
402.174849
 20
366.008075
 30
0.0
 40
18.4
100
AcDbArc
 50
10.360511
 51
56.104623
  0
ELLIPSE
  5
10A
330
1F
100
AcDbEntity
  8
1
100
AcDbEllipse
 10
402.322756
 20
378.529306
 30
0.0
 11
0.0
 21
-0.136463039151512
 31
0.0
210
0.0
220
0.0
230
1.0
 40
0.9848079999999999
 41
0.8937368106160915
 42
1.562709695140561
  0
ELLIPSE
  5
10B
330
1F
100
AcDbEntity
  8
1
100
AcDbEllipse
 10
402.5915269999999
 20
378.527099
 30
0.0
 11
0.0
 21
-0.1364630391515124
 31
0.0
210
0.0
220
0.0
230
1.0
 40
0.9848079999999999
 41
3.5117306886076
 42
4.704302348730354
  0
ELLIPSE
  5
10C
330
1F
100
AcDbEntity
  8
1
100
AcDbEllipse
 10
402.8259499999999
 20
377.91363
 30
0.0
 11
0.0
 21
-0.7944959671748149
 31
0.0
210
0.0
220
0.0
230
1.0
 40
0.9848079999999999
 41
2.231682579665041
 42
3.511730688607591
  0
ELLIPSE
  5
10D
330
1F
100
AcDbEntity
  8
1
100
AcDbEllipse
 10
403.3375409999999
 20
378.317541
 30
0.0
 11
0.0
 21
-0.1364630391515089
 31
0.0
210
0.0
220
0.0
230
1.0
 40
0.9848080000000001
 41
1.039110919542203
 42
2.231682579665105
  0
ELLIPSE
  5
10E
330
1F
100
AcDbEntity
  8
1
100
AcDbEllipse
 10
403.5692169999999
 20
378.179172
 30
0.0
 11
0.0
 21
-0.1364630391515089
 31
0.0
210
0.0
220
0.0
230
1.0
 40
0.9848080000000001
 41
4.180703573132117
 42
4.849676457656483
  0
ELLIPSE
  5
10F
330
1F
100
AcDbEntity
  8
1
100
AcDbEllipse
 10
404.211156
 20
378.269228
 30
0.0
 11
0.0
 21
-0.7944959671748146
 31
0.0
210
0.0
220
0.0
230
1.0
 40
0.9848080000000001
 41
4.849676457656521
 42
6.129724566599053
  0
ELLIPSE
  5
110
330
1F
100
AcDbEntity
  8
1
100
AcDbEllipse
 10
404.1120969999999
 20
377.618928
 30
0.0
 11
0.0
 21
-0.136463039151512
 31
0.0
210
0.0
220
0.0
230
1.0
 40
0.9848079999999999
 41
6.129724566599164
 42
6.79869745112346
  0
ELLIPSE
  5
111
330
1F
100
AcDbEntity
  8
1
100
AcDbEllipse
 10
404.2446009999999
 20
377.381471
 30
0.0
 11
0.0
 21
-0.1364630391515124
 31
0.0
210
0.0
220
0.0
230
1.0
 40
0.9848079999999999
 41
2.464533137410877
 42
3.657104797533786
  0
ELLIPSE
  5
112
330
1F
100
AcDbEntity
  8
1
100
AcDbEllipse
 10
403.838604
 20
376.868588
 30
0.0
 11
0.0
 21
-0.7944959671748149
 31
0.0
210
0.0
220
0.0
230
1.0
 40
0.9848079999999999
 41
1.184485028468424
 42
2.464533137410979
  0
ELLIPSE
  5
113
330
1F
100
AcDbEntity
  8
1
100
AcDbEllipse
 10
404.438883
 20
376.620659
 30
0.0
 11
0.0
 21
-0.1364630391515089
 31
0.0
210
0.0
220
0.0
230
1.0
 40
0.9848080000000001
 41
6.275098675525293
 42
7.46767033564799
  0
ELLIPSE
  5
114
330
1F
100
AcDbEntity
  8
1
100
AcDbEllipse
 10
404.4367089999999
 20
376.3477410000001
 30
0.0
 11
0.0
 21
-0.1364630391515089
 31
0.0
210
0.0
220
0.0
230
1.0
 40
0.9848080000000001
 41
3.133506021935393
 42
3.802478906459986
  0
ELLIPSE
  5
115
330
1F
100
AcDbEntity
  8
1
100
AcDbEllipse
 10
404.8344839999999
 20
375.828258
 30
0.0
 11
0.0
 21
-0.7944959671748146
 31
0.0
210
0.0
220
0.0
230
1.0
 40
0.9848080000000001
 41
3.802478906459908
 42
5.082527015402483
  0
ELLIPSE
  5
116
330
1F
100
AcDbEntity
  8
1
100
AcDbEllipse
 10
404.230335
 20
375.590219
 30
0.0
 11
0.0
 21
-0.136463039151512
 31
0.0
210
0.0
220
0.0
230
1.0
 40
0.9848079999999999
 41
5.082527015402521
 42
5.751499899926942
  0
ELLIPSE
  5
117
330
1F
100
AcDbEntity
  8
1
100
AcDbEllipse
 10
404.094067
 20
375.354969
 30
0.0
 11
0.0
 21
-0.1364630391515124
 31
0.0
210
0.0
220
0.0
230
1.0
 40
0.9848079999999999
 41
1.417335586214365
 42
2.609907246337149
  0
ELLIPSE
  5
118
330
1F
100
AcDbEntity
  8
1
100
AcDbEllipse
 10
403.453647
 20
375.455555
 30
0.0
 11
0.0
 21
-0.7944959671748149
 31
0.0
210
0.0
220
0.0
230
1.0
 40
0.9848079999999999
 41
0.1372874772718263
 42
1.417335586214374
  0
ELLIPSE
  5
119
330
1F
100
AcDbEntity
  8
1
100
AcDbEllipse
 10
403.542335
 20
374.803714
 30
0.0
 11
0.0
 21
-0.1364630391515089
 31
0.0
210
0.0
220
0.0
230
1.0
 40
0.9848080000000001
 41
5.227901124328683
 42
6.420472784451459
  0
ELLIPSE
  5
11A
330
1F
100
AcDbEntity
  8
1
100
AcDbEllipse
 10
403.3084859999999
 20
374.669167
 30
0.0
 11
0.0
 21
-0.1364630391515089
 31
0.0
210
0.0
220
0.0
230
1.0
 40
0.9848080000000001
 41
2.086308470738868
 42
2.755281355263332
  0
ELLIPSE
  5
11B
330
1F
100
AcDbEntity
  8
1
100
AcDbEllipse
 10
403.0643229999999
 20
374.059627
 30
0.0
 11
0.0
 21
-0.7944959671748146
 31
0.0
210
0.0
220
0.0
230
1.0
 40
0.9848080000000001
 41
2.755281355263345
 42
4.035329464205893
  0
ELLIPSE
  5
11C
330
1F
100
AcDbEntity
  8
1
100
AcDbEllipse
 10
402.559232
 20
374.471888
 30
0.0
 11
0.0
 21
-0.136463039151512
 31
0.0
210
0.0
220
0.0
230
1.0
 40
0.9848079999999999
 41
4.035329464205904
 42
4.704302348730328
  0
ELLIPSE
  5
11D
330
1F
100
AcDbEntity
  8
1
100
AcDbEllipse
 10
402.290461
 20
374.4740950000001
 30
0.0
 11
0.0
 21
-0.1364630391515124
 31
0.0
210
0.0
220
0.0
230
1.0
 40
0.9848079999999999
 41
0.3701380350178272
 42
1.562709695140559
  0
ELLIPSE
  5
11E
330
1F
100
AcDbEntity
  8
1
100
AcDbEllipse
 10
402.056038
 20
375.087564
 30
0.0
 11
0.0
 21
-0.7944959671748149
 31
0.0
210
0.0
220
0.0
230
1.0
 40
0.9848079999999999
 41
5.373275233254821
 42
6.653323342197369
  0
ELLIPSE
  5
11F
330
1F
100
AcDbEntity
  8
1
100
AcDbEllipse
 10
401.544447
 20
374.683652
 30
0.0
 11
0.0
 21
-0.1364630391515089
 31
0.0
210
0.0
220
0.0
230
1.0
 40
0.9848080000000001
 41
4.180703573132049
 42
5.373275233254878
  0
ELLIPSE
  5
120
330
1F
100
AcDbEntity
  8
1
100
AcDbEllipse
 10
401.312771
 20
374.822022
 30
0.0
 11
0.0
 21
-0.1364630391515089
 31
0.0
210
0.0
220
0.0
230
1.0
 40
0.9848080000000001
 41
1.039110919542247
 42
1.708083804066705
  0
ELLIPSE
  5
121
330
1F
100
AcDbEntity
  8
1
100
AcDbEllipse
 10
400.6708319999999
 20
374.731966
 30
0.0
 11
0.0
 21
-0.7944959671748146
 31
0.0
210
0.0
220
0.0
230
1.0
 40
0.9848080000000001
 41
1.708083804066724
 42
2.988131913009277
  0
ELLIPSE
  5
122
330
1F
100
AcDbEntity
  8
1
100
AcDbEllipse
 10
400.769891
 20
375.382266
 30
0.0
 11
0.0
 21
-0.136463039151512
 31
0.0
210
0.0
220
0.0
230
1.0
 40
0.9848079999999999
 41
2.988131913009265
 42
3.657104797533773
  0
ELLIPSE
  5
123
330
1F
100
AcDbEntity
  8
1
100
AcDbEllipse
 10
400.637387
 20
375.619722
 30
0.0
 11
0.0
 21
-0.1364630391515124
 31
0.0
210
0.0
220
0.0
230
1.0
 40
0.9848079999999999
 41
5.606125791000752
 42
6.798697451123566
  0
ELLIPSE
  5
124
330
1F
100
AcDbEntity
  8
1
100
AcDbEllipse
 10
401.043384
 20
376.132605
 30
0.0
 11
0.0
 21
-0.7944959671748149
 31
0.0
210
0.0
220
0.0
230
1.0
 40
0.9848079999999999
 41
4.326077682058231
 42
5.60612579100079
  0
ELLIPSE
  5
125
330
1F
100
AcDbEntity
  8
1
100
AcDbEllipse
 10
401.399156
 20
366.008075
 30
0.0
 11
0.0000000000000011
 21
17.8495261949498
 31
0.0
210
0.0
220
0.0
230
1.0
 40
0.9848079999999999
 41
3.108141671184041
 42
3.67063450216179
  0
ELLIPSE
  5
126
330
1F
100
AcDbEntity
  8
1
100
AcDbEllipse
 10
402.2606749999999
 20
366.777366
 30
0.0
 11
18.27035048096305
 21
-2.038354699826278
 31
0.0
210
0.0
220
0.0
230
1.0
 40
0.019547
 41
1.119120043085884
 42
1.569429621147948
  0
ELLIPSE
  5
127
330
1F
100
AcDbEntity
  8
1
100
AcDbEllipse
 10
376.450211
 20
366.008075
 30
0.0
 11
-104.9187145741493
 21
0.0000000000001293
 31
0.0
210
0.0
220
0.0
230
1.0
 40
0.176327
 41
1.621975894596274
 42
1.65666788344316
  0
ELLIPSE
  5
128
330
1F
100
AcDbEntity
  8
1
100
AcDbEllipse
 10
400.0980179999999
 20
366.008075
 30
0.0
 11
-47.88850477748254
 21
18.46744484105776
 31
0.0
210
0.0
220
0.0
230
0.9999999999999998
 40
0.022908
 41
5.032099382664783
 42
5.092636014089289
  0
ELLIPSE
  5
129
330
1F
100
AcDbEntity
  8
1
100
AcDbEllipse
 10
417.5678709999999
 20
366.0080549999999
 30
0.0
 11
-104.918779406831
 21
0.0000066526803985
 31
0.0
210
0.0
220
0.0
230
0.9999999999999998
 40
0.176327
 41
5.033900202879806
 42
5.053385618871568
  0
ELLIPSE
  5
12A
330
1F
100
AcDbEntity
  8
1
100
AcDbEllipse
 10
387.929334
 20
366.008075
 30
0.0
 11
-2.729641633099764
 21
18.49435455868217
 31
0.0
210
0.0
220
0.0
230
1.0
 40
0.167421
 41
0.0649977515794594
 42
0.2968057901795562
  0
ELLIPSE
  5
12B
330
1F
100
AcDbEntity
  8
1
100
AcDbEllipse
 10
387.52057
 20
366.008075
 30
0.0
 11
-2.907023825389142
 21
18.49322593288363
 31
0.0
210
0.0
220
0.0
230
1.0
 40
0.172201
 41
6.166419945751874
 42
6.242235878312702
  0
ELLIPSE
  5
12C
330
1F
100
AcDbEntity
  8
1
100
AcDbEllipse
 10
409.559502
 20
362.361603
 30
0.0
 11
-49.18159319506939
 21
18.96568066728353
 31
0.0
210
0.0
220
0.0
230
1.0
 40
0.02248
 41
4.977147279445278
 42
5.205557866482516
  0
ELLIPSE
  5
12D
330
1F
100
AcDbEntity
  8
1
100
AcDbEllipse
 10
424.519129
 20
366.008075
 30
0.0
 11
-114.0562997911076
 21
0.0000000000001406
 31
0.0
210
0.0
220
0.0
230
1.0
 40
0.159902
 41
1.232364769734207
 42
1.361408459396745
  0
ELLIPSE
  5
12E
330
1F
100
AcDbEntity
  8
1
100
AcDbEllipse
 10
400.4431049999999
 20
376.380535
 30
0.0
 11
0.0
 21
-0.1364630391515089
 31
0.0
210
0.0
220
0.0
230
1.0
 40
0.9848080000000001
 41
3.133506021935498
 42
4.326077682058196
  0
ELLIPSE
  5
12F
330
1F
100
AcDbEntity
  8
1
100
AcDbEllipse
 10
400.445279
 20
376.653452
 30
0.0
 11
0.0
 21
-0.1364630391515089
 31
0.0
210
0.0
220
0.0
230
1.0
 40
0.9848080000000001
 41
6.275098675525081
 42
6.944071560049679
  0
ELLIPSE
  5
130
330
1F
100
AcDbEntity
  8
1
100
AcDbEllipse
 10
400.047504
 20
377.172935
 30
0.0
 11
0.0
 21
-0.7944959671748146
 31
0.0
210
0.0
220
0.0
230
1.0
 40
0.9848080000000001
 41
0.6608862528701179
 42
1.94093436181269
  0
ELLIPSE
  5
131
330
1F
100
AcDbEntity
  8
1
100
AcDbEllipse
 10
400.6516529999999
 20
377.410975
 30
0.0
 11
0.0
 21
-0.136463039151512
 31
0.0
210
0.0
220
0.0
230
1.0
 40
0.9848079999999999
 41
1.940934361812704
 42
2.609907246337149
  0
ELLIPSE
  5
132
330
1F
100
AcDbEntity
  8
1
100
AcDbEllipse
 10
400.7879209999999
 20
377.646225
 30
0.0
 11
0.0
 21
-0.1364630391515124
 31
0.0
210
0.0
220
0.0
230
1.0
 40
0.9848079999999999
 41
4.558928239804165
 42
5.751499899926942
  0
ELLIPSE
  5
133
330
1F
100
AcDbEntity
  8
1
100
AcDbEllipse
 10
401.4283409999999
 20
377.545638
 30
0.0
 11
0.0
 21
-0.7944959671748149
 31
0.0
210
0.0
220
0.0
230
1.0
 40
0.9848079999999999
 41
3.278880130861621
 42
4.558928239804178
  0
ELLIPSE
  5
134
330
1F
100
AcDbEntity
  8
1
100
AcDbEllipse
 10
401.3396529999999
 20
378.19748
 30
0.0
 11
0.0
 21
-0.1364630391515089
 31
0.0
210
0.0
220
0.0
230
1.0
 40
0.9848080000000001
 41
2.086308470738815
 42
3.27888013086145
  0
ELLIPSE
  5
135
330
1F
100
AcDbEntity
  8
1
100
AcDbEllipse
 10
401.573502
 20
378.332027
 30
0.0
 11
0.0
 21
-0.1364630391515089
 31
0.0
210
0.0
220
0.0
230
1.0
 40
0.9848080000000001
 41
5.227901124328563
 42
5.896874008853028
  0
ELLIPSE
  5
136
330
1F
100
AcDbEntity
  8
1
100
AcDbEllipse
 10
401.817665
 20
378.941566
 30
0.0
 11
0.0
 21
-0.7944959671748146
 31
0.0
210
0.0
220
0.0
230
1.0
 40
0.9848080000000001
 41
5.896874008853137
 42
7.176922117795678
  0
ELLIPSE
  5
137
330
1F
100
AcDbEntity
  8
1
100
AcDbEllipse
 10
402.4409939999999
 20
376.500597
 30
0.0
 11
0.0000000000000001
 21
2.4
 31
0.0
210
0.0
220
0.0
230
1.0
 40
0.9848079999999999
 41
0.0
 42
6.283185307179585
  0
ELLIPSE
  5
138
330
1F
100
AcDbEntity
  8
1
100
AcDbEllipse
 10
402.327116
 20
376.500597
 30
0.0
 11
0.0000000000000003
 21
4.25
 31
0.0
210
0.0
220
0.0
230
1.0
 40
0.9848079999999999
 41
0.0
 42
6.283185307179585
  0
ELLIPSE
  5
139
330
1F
100
AcDbEntity
  8
1
100
AcDbEllipse
 10
383.309045
 20
347.438527
 30
0.0
 11
-2.233182690755564
 21
1.103917459257863
 31
0.0
210
0.0
220
0.0
230
1.0
 40
0.013491
 41
4.602257326040803
 42
4.782602574491447
  0
ELLIPSE
  5
13A
330
1F
100
AcDbEntity
  8
1
100
AcDbEllipse
 10
384.625586
 20
347.091881
 30
0.0
 11
-2.408407139895706
 21
0.1225381943646386
 31
0.0
210
0.0
220
0.0
230
0.9999999999999996
 40
0.030662
 41
4.391708875634491
 42
4.901866260188141
  0
ELLIPSE
  5
13B
330
1F
100
AcDbEntity
  8
1
100
AcDbEllipse
 10
401.0068289999999
 20
355.504185
 30
0.0
 11
0.0000000000000002
 21
3.5
 31
0.0
210
0.0
220
0.0
230
0.9999999999999998
 40
0.9848079999999999
 41
0.193604176594376
 42
0.6099633971569521
  0
ELLIPSE
  5
13C
330
1F
100
AcDbEntity
  8
1
100
AcDbEllipse
 10
402.851806
 20
366.000761
 30
0.0
 11
-0.0000000000000012
 21
-19.65676275012362
 31
0.0
210
0.0
220
0.0
230
1.0
 40
0.9848079999999999
 41
6.238912061274103
 42
7.367108938478461
  0
ELLIPSE
  5
13D
330
1F
100
AcDbEntity
  8
1
100
AcDbEllipse
 10
364.997374
 20
366.008072
 30
0.0
 11
-88.97089937450608
 21
-0.0000010988778288
 31
0.0
210
0.0
220
0.0
230
1.0
 40
0.159902
 41
1.958623067833004
 42
1.981546164274503
  0
ELLIPSE
  5
13E
330
1F
100
AcDbEntity
  8
SK1
100
AcDbEllipse
 10
252.561437
 20
366.008075
 30
0.0
 11
-20.35214785944302
 21
0.0000000000000251
 31
0.0
210
0.0
220
0.0
230
1.0
 40
0.9826969999999997
 41
2.668141496317734
 42
3.615043810861855
  0
ELLIPSE
  5
13F
330
1F
100
AcDbEntity
  8
SK1
100
AcDbEllipse
 10
279.573937
 20
366.008075
 30
0.0
 11
-20.35214785944258
 21
0.0000000000000251
 31
0.0
210
0.0
220
0.0
230
1.0
 40
0.9826970000000001
 41
2.668141496317729
 42
3.615043810861861
  0
ELLIPSE
  5
140
330
1F
100
AcDbEntity
  8
SK1
100
AcDbEllipse
 10
301.77576
 20
366.008075
 30
0.0
 11
-20.35214785943517
 21
0.0000000000000251
 31
0.0
210
0.0
220
0.0
230
1.0
 40
0.9826970000000001
 41
5.809734149907433
 42
6.756636464451739
  0
ELLIPSE
  5
141
330
1F
100
AcDbEntity
  8
1
100
AcDbEllipse
 10
391.095388
 20
386.066531
 30
0.0
 11
-0.9643575144862786
 21
12.29891842048458
 31
0.0
210
0.0
220
0.0
230
0.9999999999999998
 40
0.5644970000000001
 41
1.790576786879273
 42
2.173882475938108
  0
ELLIPSE
  5
142
330
1F
100
AcDbEntity
  8
1
100
AcDbEllipse
 10
403.473682
 20
386.947516
 30
0.0
 11
-0.0000000000000012
 21
-19.65676275012362
 31
0.0
210
0.0
220
0.0
230
1.0
 40
0.9848079999999999
 41
5.960745853323858
 42
6.170378920405584
  0
ELLIPSE
  5
143
330
1F
100
AcDbEntity
  8
1
100
AcDbEllipse
 10
403.473682
 20
386.947516
 30
0.0
 11
-0.0000000000000012
 21
-19.65676275012362
 31
0.0
210
0.0
220
0.0
230
1.0
 40
0.9848079999999999
 41
5.042182043201223
 42
5.895610092563549
  0
ELLIPSE
  5
144
330
1F
100
AcDbEntity
  8
1
100
AcDbEllipse
 10
403.473682
 20
386.947516
 30
0.0
 11
-0.0000000000000012
 21
-19.65676275012361
 31
0.0
210
0.0
220
0.0
230
1.0
 40
0.9848079999999999
 41
4.922158151577313
 42
5.012693829712591
  0
ELLIPSE
  5
145
330
1F
100
AcDbEntity
  8
1
100
AcDbEllipse
 10
408.9483079999999
 20
371.3851
 30
0.0
 11
0.0000000000000003
 21
5.0
 31
0.0
210
0.0
220
0.0
230
1.0
 40
0.9848079999999999
 41
3.267451063734376
 42
3.298661689073806
  0
ELLIPSE
  5
146
330
1F
100
AcDbEntity
  8
1
100
AcDbEllipse
 10
402.2606749999999
 20
366.777366
 30
0.0
 11
18.27035048096305
 21
-2.038354699826278
 31
0.0
210
0.0
220
0.0
230
1.0
 40
0.019547
 41
0.1698514613990171
 42
0.186964399110595
  0
ELLIPSE
  5
147
330
1F
100
AcDbEntity
  8
1
100
AcDbEllipse
 10
401.8810259999999
 20
364.324575
 30
0.0
 11
18.04502688464624
 21
-3.149413631429371
 31
0.0
210
0.0
220
0.0
230
1.0
 40
0.179911
 41
6.159152270219669
 42
6.243115515346994
  0
ELLIPSE
  5
148
330
1F
100
AcDbEntity
  8
1
100
AcDbEllipse
 10
402.0221009999999
 20
365.248202
 30
0.0
 11
-18.02311408900047
 21
3.622967640444402
 31
0.0
210
0.0
220
0.0
230
1.0
 40
0.034729
 41
3.116432967554284
 42
3.140134097643326
  0
ELLIPSE
  5
149
330
1F
100
AcDbEntity
  8
1
100
AcDbEllipse
 10
402.6390039999999
 20
366.008075
 30
0.0
 11
0.0000000000000011
 21
18.20481435891405
 31
0.0
210
0.0
220
0.0
230
1.0
 40
0.9848079999999999
 41
4.436419923554356
 42
4.468422343912681
  0
ELLIPSE
  5
14A
330
1F
100
AcDbEntity
  8
1
100
AcDbEllipse
 10
408.701789
 20
371.556084
 30
0.0
 11
-0.0000000000000003
 21
-5.0
 31
0.0
210
0.0
220
0.0
230
1.0
 40
0.9848079999999999
 41
6.044997737901841
 42
6.170378902344911
  0
ELLIPSE
  5
14B
330
1F
100
AcDbEntity
  8
1
100
AcDbEllipse
 10
403.103456
 20
386.974084
 30
0.0
 11
-0.0000000000000012
 21
-19.53005519786405
 31
0.0
210
0.0
220
0.0
230
0.9999999999999998
 40
0.9848079999999999
 41
5.524239819242461
 42
5.878818728100191
  0
ELLIPSE
  5
14C
330
1F
100
AcDbEntity
  8
1
100
AcDbEllipse
 10
402.851806
 20
366.000761
 30
0.0
 11
-0.0000000000000012
 21
-19.65676275012361
 31
0.0
210
0.0
220
0.0
230
1.0
 40
0.9848079999999999
 41
1.113411844787506
 42
1.203947522922784
  0
ELLIPSE
  5
14D
330
1F
100
AcDbEntity
  8
1
100
AcDbEllipse
 10
401.5983369999999
 20
366.000761
 30
0.0
 11
-0.0000000000000011
 21
-18.51347399831584
 31
0.0
210
0.0
220
0.0
230
1.0
 40
0.9848079999999999
 41
6.238912061274101
 42
7.15998394092133
  0
ELLIPSE
  5
14E
330
1F
100
AcDbEntity
  8
1
100
AcDbEllipse
 10
401.8265099999999
 20
364.212492
 30
0.0
 11
-19.5666331453948
 21
3.017933182372559
 31
0.0
210
0.0
220
0.0
230
1.0
 40
0.6151460000000001
 41
2.442835910066147
 42
2.95090410400804
  0
ELLIPSE
  5
14F
330
1F
100
AcDbEntity
  8
1
100
AcDbEllipse
 10
401.58157
 20
366.000761
 30
0.0
 11
-0.0000000000000011
 21
-18.24818056914966
 31
0.0
210
0.0
220
0.0
230
1.0
 40
0.9848079999999999
 41
6.238912061274103
 42
7.164823028896802
  0
ELLIPSE
  5
150
330
1F
100
AcDbEntity
  8
1
100
AcDbEllipse
 10
401.473039
 20
366.000761
 30
0.0
 11
-0.0000000000000011
 21
-17.62318056914964
 31
0.0
210
0.0
220
0.0
230
1.0
 40
0.9848079999999999
 41
0.8657420404360944
 42
0.8748180529071838
  0
ELLIPSE
  5
151
330
1F
100
AcDbEntity
  8
1
100
AcDbEllipse
 10
399.89654
 20
355.504185
 30
0.0
 11
0.0000000000000002
 21
3.0
 31
0.0
210
0.0
220
0.0
230
1.0
 40
0.9848079999999999
 41
5.724181673883736
 42
6.283185307179585
  0
ELLIPSE
  5
152
330
1F
100
AcDbEntity
  8
1
100
AcDbEllipse
 10
399.89654
 20
355.504185
 30
0.0
 11
0.0000000000000002
 21
3.0
 31
0.0
210
0.0
220
0.0
230
1.0
 40
0.9848079999999999
 41
0.0
 42
2.63540722816425
  0
ELLIPSE
  5
153
330
1F
100
AcDbEntity
  8
1
100
AcDbEllipse
 10
399.792351
 20
355.504185
 30
0.0
 11
0.0000000000000001
 21
2.4
 31
0.0
210
0.0
220
0.0
230
1.0
 40
0.9848079999999999
 41
4.458218025136363
 42
6.283185307179585
  0
ELLIPSE
  5
154
330
1F
100
AcDbEntity
  8
1
100
AcDbEllipse
 10
399.792351
 20
355.504185
 30
0.0
 11
0.0000000000000001
 21
2.4
 31
0.0
210
0.0
220
0.0
230
1.0
 40
0.9848079999999999
 41
0.0
 42
3.055791296908919
  0
ELLIPSE
  5
155
330
1F
100
AcDbEntity
  8
1
100
AcDbEllipse
 10
391.716147
 20
377.438227
 30
0.0
 11
0.0000000000000003
 21
5.0
 31
0.0
210
0.0
220
0.0
230
1.0
 40
0.9848079999999999
 41
2.189018498511635
 42
2.75681568994921
  0
ELLIPSE
  5
156
330
1F
100
AcDbEntity
  8
1
100
AcDbEllipse
 10
388.905442
 20
378.02102
 30
0.0
 11
0.0000000000000002
 21
3.688503898019105
 31
0.0
210
0.0
220
0.0
230
1.0
 40
0.9848080000000001
 41
1.719789327820033
 42
2.804347016615107
  0
ELLIPSE
  5
157
330
1F
100
AcDbEntity
  8
1
100
AcDbEllipse
 10
410.1881559999999
 20
371.3851
 30
0.0
 11
-0.0000000000000003
 21
-5.0
 31
0.0
210
0.0
220
0.0
230
1.0
 40
0.9848079999999999
 41
6.170378902344918
 42
6.295760006422963
  0
ELLIPSE
  5
158
330
1F
100
AcDbEntity
  8
1
100
AcDbEllipse
 10
401.399156
 20
366.008075
 30
0.0
 11
0.0000000000000011
 21
17.8495261949498
 31
0.0
210
0.0
220
0.0
230
1.0
 40
0.9848079999999999
 41
3.822330376507339
 42
3.988323844229931
  0
ELLIPSE
  5
159
330
1F
100
AcDbEntity
  8
1
100
AcDbEllipse
 10
400.641668
 20
356.104965
 30
0.0
 11
-0.0000000000000002
 21
-3.0
 31
0.0
210
0.0
220
0.0
230
1.0
 40
0.9848079999999999
 41
3.357773587743793
 42
3.97431105260436
  0
ELLIPSE
  5
15A
330
1F
100
AcDbEntity
  8
1
100
AcDbEllipse
 10
399.374036
 20
356.104965
 30
0.0
 11
-0.0000000000000002
 21
-3.0
 31
0.0
210
0.0
220
0.0
230
1.0
 40
0.9848079999999999
 41
4.712388843652988
 42
6.283185307179585
  0
ELLIPSE
  5
15B
330
1F
100
AcDbEntity
  8
1
100
AcDbEllipse
 10
399.374036
 20
356.104965
 30
0.0
 11
-0.0000000000000002
 21
-3.0
 31
0.0
210
0.0
220
0.0
230
1.0
 40
0.9848079999999999
 41
0.0
 42
1.424712194646351
  0
ELLIPSE
  5
15C
330
1F
100
AcDbEntity
  8
1
100
AcDbEllipse
 10
399.374036
 20
356.104965
 30
0.0
 11
-0.0000000000000002
 21
-3.0
 31
0.0
210
0.0
220
0.0
230
1.0
 40
0.9848079999999999
 41
2.695388461849375
 42
4.712389176986321
  0
ELLIPSE
  5
15D
330
1F
100
AcDbEntity
  8
1
100
AcDbEllipse
 10
416.0482799999999
 20
361.235159
 30
0.0
 11
-2.399603146871061
 21
-6.974924538095821
 31
0.0
210
0.0
220
0.0
230
1.0
 40
0.492416
 41
1.676735191400796
 42
2.273444078267214
  0
ELLIPSE
  5
15E
330
1F
100
AcDbEntity
  8
1
100
AcDbEllipse
 10
416.0482799999999
 20
361.235159
 30
0.0
 11
-2.399603146871061
 21
-6.974924538095821
 31
0.0
210
0.0
220
0.0
230
1.0
 40
0.492416
 41
5.853549729631224
 42
6.531765417199846
  0
ELLIPSE
  5
15F
330
1F
100
AcDbEntity
  8
1
100
AcDbEllipse
 10
402.2606749999999
 20
366.777366
 30
0.0
 11
18.27035048096305
 21
-2.038354699826278
 31
0.0
210
0.0
220
0.0
230
1.0
 40
0.019547
 41
0.8571240554837613
 42
0.9805516328241282
  0
ELLIPSE
  5
160
330
1F
100
AcDbEntity
  8
1
100
AcDbEllipse
 10
416.0482799999999
 20
361.235159
 30
0.0
 11
-2.399603146871061
 21
-6.974924538095821
 31
0.0
210
0.0
220
0.0
230
1.0
 40
0.492416
 41
4.194814365970417
 42
4.790883877531443
  0
ELLIPSE
  5
161
330
1F
100
AcDbEntity
  8
1
100
AcDbEllipse
 10
419.5728519999999
 20
363.780807
 30
0.0
 11
-5.781137981521164
 21
-10.10279616786479
 31
0.0
210
0.0
220
0.0
230
1.0
 40
0.509267
 41
5.150122143462998
 42
5.961760692019241
  0
ELLIPSE
  5
162
330
1F
100
AcDbEntity
  8
1
100
AcDbEllipse
 10
399.374036
 20
356.104965
 30
0.0
 11
0.0000000000000002
 21
3.349999999999999
 31
0.0
210
0.0
220
0.0
230
0.9999999999999998
 40
0.9848079999999999
 41
0.1058337804096121
 42
2.918513041985426
  0
ELLIPSE
  5
163
330
1F
100
AcDbEntity
  8
1
100
AcDbEllipse
 10
402.189204
 20
376.500597
 30
0.0
 11
-0.0000000000000003
 21
-4.25
 31
0.0
210
0.0
220
0.0
230
1.0
 40
0.9848079999999999
 41
3.141687308340745
 42
6.283185307179585
  0
ELLIPSE
  5
164
330
1F
100
AcDbEntity
  8
1
100
AcDbEllipse
 10
403.199377
 20
366.643962
 30
0.0
 11
0.0000000000000012
 21
19.25361789020254
 31
0.0
210
0.0
220
0.0
230
1.0
 40
0.9848079999999999
 41
4.746883649603108
 42
4.750992134765016
  0
ELLIPSE
  5
165
330
1F
100
AcDbEntity
  8
1
100
AcDbEllipse
 10
403.218445
 20
366.378252
 30
0.0
 11
-6.937293322152294
 21
18.06774118115206
 31
0.0
210
0.0
220
0.0
230
0.9999999999999998
 40
0.977349
 41
4.409346258289716
 42
4.643911412293208
  0
ELLIPSE
  5
16C
330
1F
100
AcDbEntity
  8
1
100
AcDbEllipse
 10
418.683251
 20
365.366588
 30
0.0
 11
-2.370646491498593
 21
0.264504194148976
 31
0.0
210
0.0
220
0.0
230
1.0
 40
0.028832
 41
4.594443277518651
 42
5.104600662128333
  0
ELLIPSE
  5
16D
330
1F
100
AcDbEntity
  8
1
100
AcDbEllipse
 10
420.036987
 20
365.499836
 30
0.0
 11
-2.401434640648631
 21
-0.7296436486040529
 31
0.0
210
0.0
220
0.0
230
1.0
 40
0.038586
 41
4.223261592859
 42
4.886486708586275
  0
ELLIPSE
  5
16E
330
1F
100
AcDbEntity
  8
1
100
AcDbEllipse
 10
403.498249
 20
369.075002
 30
0.0
 11
-13.22202242714292
 21
-16.04936793016785
 31
0.0
210
0.0
220
0.0
230
1.0
 40
0.868762
 41
2.043074591564258
 42
2.077057288975881
  0
ELLIPSE
  5
16F
330
1F
100
AcDbEntity
  8
1
100
AcDbEllipse
 10
402.281915
 20
376.500597
 30
0.0
 11
-0.0000000000000003
 21
-4.75
 31
0.0
210
0.0
220
0.0
230
1.0
 40
0.9848080000000001
 41
5.890777275869293
 42
6.283185307179585
  0
ELLIPSE
  5
170
330
1F
100
AcDbEntity
  8
1
100
AcDbEllipse
 10
402.281915
 20
376.500597
 30
0.0
 11
-0.0000000000000003
 21
-4.75
 31
0.0
210
0.0
220
0.0
230
1.0
 40
0.9848080000000001
 41
0.0
 42
3.028786311353408
  0
ELLIPSE
  5
171
330
1F
100
AcDbEntity
  8
1
100
AcDbEllipse
 10
402.281915
 20
376.500597
 30
0.0
 11
-0.0000000000000003
 21
-4.75
 31
0.0
210
0.0
220
0.0
230
1.0
 40
0.9848080000000001
 41
3.028786254806425
 42
3.534091837977976
  0
ELLIPSE
  5
172
330
1F
100
AcDbEntity
  8
1
100
AcDbEllipse
 10
402.438199
 20
376.500597
 30
0.0
 11
0.0000000000000003
 21
4.812934130749162
 31
0.0
210
0.0
220
0.0
230
1.0
 40
0.9848079999999999
 41
0.0
 42
6.283185307179585
  0
SPLINE
  5
174
330
1F
100
AcDbEntity
  8
1
100
AcDbSpline
210
0.0
220
0.0
230
1.0
 70
     8
 71
     3
 72
     8
 73
     4
 74
     0
 42
0.000000001
 43
0.0000000001
 40
0.0
 40
0.0
 40
0.0
 40
0.0
 40
1.0
 40
1.0
 40
1.0
 40
1.0
 10
401.9547929598854
 20
374.3468732569231
 30
0.0
 10
401.9223634381517
 20
374.3337283176073
 30
0.0
 10
401.8892179570238
 20
374.3229987605382
 30
0.0
 10
401.855375955631
 20
374.3146475090292
 30
0.0
  0
SPLINE
  5
175
330
1F
100
AcDbEntity
  8
SK1
100
AcDbSpline
210
0.0
220
0.0
230
1.0
 70
     8
 71
     3
 72
    10
 73
     6
 74
     0
 42
0.000000001
 43
0.0000000001
 40
0.0
 40
0.0
 40
0.0
 40
0.0
 40
0.5
 40
0.5
 40
1.0
 40
1.0
 40
1.0
 40
1.0
 10
251.1748486011855
 20
371.0489083516815
 30
0.0
 10
251.3654585736122
 20
371.7484523169151
 30
0.0
 10
251.589671948935
 20
372.4367851039354
 30
0.0
 10
252.093361322496
 20
373.7950132859072
 30
0.0
 10
252.3728317330652
 20
374.4649105450853
 30
0.0
 10
252.6748486011855
 20
375.1272855793725
 30
0.0
  0
SPLINE
  5
176
330
1F
100
AcDbEntity
  8
SK1
100
AcDbSpline
210
0.0
220
0.0
230
1.0
 70
     8
 71
     3
 72
    10
 73
     6
 74
     0
 42
0.000000001
 43
0.0000000001
 40
0.0
 40
0.0
 40
0.0
 40
0.0
 40
0.5
 40
0.5
 40
1.0
 40
1.0
 40
1.0
 40
1.0
 10
251.1748486011855
 20
360.9672418227787
 30
0.0
 10
251.3663226756495
 20
360.2645265787405
 30
0.0
 10
251.5911874621358
 20
359.5749253364996
 30
0.0
 10
252.0950355393324
 20
358.2169775698325
 30
0.0
 10
252.3740207928829
 20
357.5486318163
 30
0.0
 10
252.6748486011855
 20
356.8888645950877
 30
0.0
  0
SPLINE
  5
177
330
1F
100
AcDbEntity
  8
1
100
AcDbSpline
210
0.0
220
0.0
230
1.0
 70
     8
 71
     3
 72
     8
 73
     4
 74
     0
 42
0.000000001
 43
0.0000000001
 40
0.0
 40
0.0
 40
0.0
 40
0.0
 40
1.0
 40
1.0
 40
1.0
 40
1.0
 10
400.8112523815901
 20
367.3557337587437
 30
0.0
 10
401.3121095492437
 20
367.2635220764994
 30
0.0
 10
401.8167953532738
 20
367.188478981011
 30
0.0
 10
402.3254895711422
 20
367.131712109825
 30
0.0
  0
SPLINE
  5
178
330
1F
100
AcDbEntity
  8
1
100
AcDbSpline
210
0.0
220
0.0
230
1.0
 70
     8
 71
     3
 72
    56
 73
    52
 74
     0
 42
0.000000001
 43
0.0000000001
 40
0.0
 40
0.0
 40
0.0
 40
0.0
 40
0.0624999999999965
 40
0.0624999999999965
 40
0.093749999999993
 40
0.093749999999993
 40
0.1093749999999895
 40
0.1093749999999895
 40
0.124999999999986
 40
0.124999999999986
 40
0.187499999999982
 40
0.187499999999982
 40
0.2499999999999779
 40
0.2499999999999779
 40
0.2656249999999786
 40
0.2656249999999786
 40
0.2812499999999793
 40
0.2812499999999793
 40
0.3124999999999808
 40
0.3124999999999808
 40
0.3749999999999821
 40
0.3749999999999821
 40
0.4374999999999833
 40
0.4374999999999833
 40
0.4531249999999832
 40
0.4531249999999832
 40
0.468749999999983
 40
0.468749999999983
 40
0.4999999999999828
 40
0.4999999999999828
 40
0.5624999999999832
 40
0.5624999999999832
 40
0.6249999999999836
 40
0.6249999999999836
 40
0.6562499999999836
 40
0.6562499999999836
 40
0.6874999999999836
 40
0.6874999999999836
 40
0.7499999999999857
 40
0.7499999999999857
 40
0.8124999999999877
 40
0.8124999999999877
 40
0.84374999999999
 40
0.84374999999999
 40
0.8593749999999911
 40
0.8593749999999911
 40
0.8749999999999921
 40
0.8749999999999921
 40
0.9374999999999962
 40
0.9374999999999962
 40
1.0
 40
1.0
 40
1.0
 40
1.0
 10
400.8112523815901
 20
358.685396143215
 30
0.0
 10
400.9346563221328
 20
358.5893543432551
 30
0.0
 10
401.050578232671
 20
358.4870933107478
 30
0.0
 10
401.2139811522496
 20
358.3250561647052
 30
0.0
 10
401.2666954094626
 20
358.2695972470198
 30
0.0
 10
401.3431753065573
 20
358.184279481871
 30
0.0
 10
401.3682363452966
 20
358.1554850439312
 30
0.0
 10
401.4174962900234
 20
358.0971892171372
 30
0.0
 10
401.4417332376202
 20
358.0676385446993
 30
0.0
 10
401.5600821825731
 20
357.9189898914547
 30
0.0
 10
401.6460181333737
 20
357.7969271581879
 30
0.0
 10
401.8018869819151
 20
357.5471539775525
 30
0.0
 10
401.8718114585555
 20
357.4194401610181
 30
0.0
 10
401.9496028549752
 20
357.256466117096
 30
0.0
 10
401.9646786477905
 20
357.2237040644965
 30
0.0
 10
401.9938683112092
 20
357.1578479951392
 30
0.0
 10
402.0079994114409
 20
357.1247112906018
 30
0.0
 10
402.0488170907943
 20
357.0251348089237
 30
0.0
 10
402.0738896310268
 20
356.9586435744473
 30
0.0
 10
402.1429520285458
 20
356.758880024545
 30
0.0
 10
402.1808087421867
 20
356.6253196027124
 30
0.0
 10
402.2409451016089
 20
356.3575451105182
 30
0.0
 10
402.2632220423958
 20
356.2233307373112
 30
0.0
 10
402.2813969379308
 20
356.0551931619041
 30
0.0
 10
402.2845467559387
 20
356.0215470466336
 30
0.0
 10
402.2898713189055
 20
355.9542181201095
 30
0.0
 10
402.2920411461063
 20
355.9205828751201
 30
0.0
 10
402.297067105695
 20
355.8201231409442
 30
0.0
 10
402.2984529329019
 20
355.7536016571262
 30
0.0
 10
402.2968531528817
 20
355.5553662342963
 30
0.0
 10
402.2881305366571
 20
355.4249776560745
 30
0.0
 10
402.2555925207691
 20
355.1676922037698
 30
0.0
 10
402.2317785689443
 20
355.0407951511413
 30
0.0
 10
402.1844010536948
 20
354.8531247956109
 30
0.0
 10
402.1666604706932
 20
354.7910148282773
 30
0.0
 10
402.1271552412268
 20
354.6677105951004
 30
0.0
 10
402.1055383942428
 20
354.6069865029842
 30
0.0
 10
402.0352483166275
 20
354.4278916873687
 30
0.0
 10
401.9811112216774
 20
354.3124417225965
 30
0.0
 10
401.8580019198287
 20
354.0894686500482
 30
0.0
 10
401.7890353263397
 20
353.9819431896623
 30
0.0
 10
401.6736673173818
 20
353.8268997897335
 30
0.0
 10
401.6332184237393
 20
353.7762625106713
 30
0.0
 10
401.569384778237
 20
353.7019431754435
 30
0.0
 10
401.5475796199338
 20
353.6774430857144
 30
0.0
 10
401.5028787243665
 20
353.62900422126
 30
0.0
 10
401.479937440301
 20
353.6050208105146
 30
0.0
 10
401.3631249449565
 20
353.4872697586392
 30
0.0
 10
401.2628857371193
 20
353.39981810097
 30
0.0
 10
401.0481497810976
 20
353.238805217402
 30
0.0
 10
400.9336627053974
 20
353.165235483166
 30
0.0
 10
400.8112523815901
 20
353.0992316315874
 30
0.0
  0
SPLINE
  5
179
330
1F
100
AcDbEntity
  8
1
100
AcDbSpline
210
0.0
220
0.0
230
1.0
 70
     8
 71
     3
 72
     8
 73
     4
 74
     0
 42
0.000000001
 43
0.0000000001
 40
0.0
 40
0.0
 40
0.0
 40
0.0
 40
1.0
 40
1.0
 40
1.0
 40
1.0
 10
386.6515221039895
 20
372.3141917987652
 30
0.0
 10
386.2506246816274
 20
372.494005748348
 30
0.0
 10
385.8496726716387
 20
372.673836123977
 30
0.0
 10
385.4486757854017
 20
372.8536800033866
 30
0.0
  0
SPLINE
  5
17A
330
1F
100
AcDbEntity
  8
1
100
AcDbSpline
210
0.0
220
0.0
230
1.0
 70
     8
 71
     3
 72
     8
 73
     4
 74
     0
 42
0.000000001
 43
0.0000000001
 40
0.0
 40
0.0
 40
0.0
 40
0.0
 40
1.0
 40
1.0
 40
1.0
 40
1.0
 10
385.4486757854017
 20
347.5762419840624
 30
0.0
 10
385.8501217224119
 20
347.9852660658993
 30
0.0
 10
386.2511046322517
 20
348.3947217024196
 30
0.0
 10
386.6515221039895
 20
348.804704343566
 30
0.0
  0
SPLINE
  5
17B
330
1F
100
AcDbEntity
  8
1
100
AcDbSpline
210
0.0
220
0.0
230
1.0
 70
     8
 71
     3
 72
     8
 73
     4
 74
     0
 42
0.000000001
 43
0.0000000001
 40
0.0
 40
0.0
 40
0.0
 40
0.0
 40
1.0
 40
1.0
 40
1.0
 40
1.0
 10
381.8175615543465
 20
347.5322987699144
 30
0.0
 10
381.8055543782376
 20
347.5323211628484
 30
0.0
 10
381.7935237886372
 20
347.5323324242686
 30
0.0
 10
381.7814695551173
 20
347.5323324211578
 30
0.0
  0
SPLINE
  5
17C
330
1F
100
AcDbEntity
  8
1
100
AcDbSpline
210
0.0
220
0.0
230
1.0
 70
     8
 71
     3
 72
     8
 73
     4
 74
     0
 42
0.000000001
 43
0.0000000001
 40
0.0
 40
0.0
 40
0.0
 40
0.0
 40
1.0
 40
1.0
 40
1.0
 40
1.0
 10
385.041782521055
 20
384.4293030117642
 30
0.0
 10
385.0294892235975
 20
384.429282520279
 30
0.0
 10
385.01718591984
 20
384.4292875577839
 30
0.0
 10
385.0048725507605
 20
384.4293182170458
 30
0.0
  0
SPLINE
  5
17D
330
1F
100
AcDbEntity
  8
1
100
AcDbSpline
210
0.0
220
0.0
230
1.0
 70
     8
 71
     3
 72
    17
 73
    13
 74
     0
 42
0.000000001
 43
0.0000000001
 40
0.0
 40
0.0
 40
0.0
 40
0.0
 40
0.0857566291510506
 40
0.0857566291510506
 40
0.2686053033208407
 40
0.2686053033208407
 40
0.6343026516604203
 40
0.6343026516604203
 40
0.7257269887453149
 40
0.7257269887453149
 40
0.8171513258302098
 40
1.0
 40
1.0
 40
1.0
 40
1.0
 10
384.3573678610285
 20
384.5080749727877
 30
0.0
 10
384.3664070671116
 20
384.5080748023418
 30
0.0
 10
384.3756583966079
 20
384.5080663433092
 30
0.0
 10
384.4051499459886
 20
384.5080168773902
 30
0.0
 10
384.4260537657384
 20
384.5079503514347
 30
0.0
 10
384.4912498130359
 20
384.5076823926542
 30
0.0
 10
384.5380022031457
 20
384.5074129611926
 30
0.0
 10
384.6008893687261
 20
384.5070528429177
 30
0.0
 10
384.6137297019371
 20
384.5069794040747
 30
0.0
 10
384.639675371304
 20
384.5068334118429
 30
0.0
 10
384.6789190141588
 20
384.5066161183169
 30
0.0
 10
384.7191238184557
 20
384.5064132412682
 30
0.0
 10
384.7463523916318
 20
384.5062912492074
 30
0.0
  0
SPLINE
  5
17E
330
1F
100
AcDbEntity
  8
1
100
AcDbSpline
210
0.0
220
0.0
230
1.0
 70
     8
 71
     3
 72
    12
 73
     8
 74
     0
 42
0.000000001
 43
0.0000000001
 40
0.0
 40
0.0
 40
0.0
 40
0.0
 40
0.4101294672284558
 40
0.4101294672284558
 40
0.820258934456957
 40
0.820258934456957
 40
1.0
 40
1.0
 40
1.0
 40
1.0
 10
385.4486757854029
 20
384.4299797819492
 30
0.0
 10
385.4141214684087
 20
384.429922434159
 30
0.0
 10
385.379567151467
 20
384.4298650544993
 30
0.0
 10
385.3104585176899
 20
384.4297502314386
 30
0.0
 10
385.2759042008543
 20
384.4296927880376
 30
0.0
 10
385.2262063008526
 20
384.4296101239706
 30
0.0
 10
385.2110627176437
 20
384.4295849290548
 30
0.0
 10
385.1959191344448
 20
384.4295597280175
 30
0.0
  0
SPLINE
  5
17F
330
1F
100
AcDbEntity
  8
1
100
AcDbSpline
210
0.0
220
0.0
230
1.0
 70
     8
 71
     3
 72
    36
 73
    32
 74
     0
 42
0.000000001
 43
0.0000000001
 40
0.0
 40
0.0
 40
0.0
 40
0.0
 40
0.1171849445379569
 40
0.1171849445379569
 40
0.1757774168069287
 40
0.1757774168069287
 40
0.2050736529414146
 40
0.2050736529414146
 40
0.2343698890759004
 40
0.2343698890759004
 40
0.351554833613806
 40
0.351554833613806
 40
0.4101473058827648
 40
0.4101473058827648
 40
0.4687397781517234
 40
0.4687397781517234
 40
0.5859247226896512
 40
0.5859247226896512
 40
0.6445171949586151
 40
0.6445171949586151
 40
0.7031096672275787
 40
0.7031096672275787
 40
0.8202946117655065
 40
0.8202946117655065
 40
0.8788870840344701
 40
0.8788870840344701
 40
0.9374795563034339
 40
0.9374795563034339
 40
0.9960720285723976
 40
0.9960720285723976
 40
1.0
 40
1.0
 40
1.0
 40
1.0
 10
380.7410693528546
 20
347.5323321526678
 30
0.0
 10
380.6803808549924
 20
347.5323321370064
 30
0.0
 10
380.620414980207
 20
347.532046761467
 30
0.0
 10
380.5314887210884
 20
347.5312357418107
 30
0.0
 10
380.5020181859937
 20
347.5309015486752
 30
0.0
 10
380.4580717226148
 20
347.5303101374076
 30
0.0
 10
380.4434465442831
 20
347.5300976133696
 30
0.0
 10
380.4145425751007
 20
347.5296477783564
 30
0.0
 10
380.4002337989473
 20
347.5294101083422
 30
0.0
 10
380.3293903715312
 20
347.5281630976541
 30
0.0
 10
380.2749401114354
 20
347.5269779990258
 30
0.0
 10
380.1965161470729
 20
347.5250123240357
 30
0.0
 10
380.1709200350017
 20
347.5243257105635
 30
0.0
 10
380.1208444012063
 20
347.5229054812504
 30
0.0
 10
380.0967001103217
 20
347.5221814583134
 30
0.0
 10
380.0268963048686
 20
347.5199965932227
 30
0.0
 10
379.9838290949451
 20
347.5185223347843
 30
0.0
 10
379.9244625713939
 20
347.5163924885521
 30
0.0
 10
379.905550856142
 20
347.5156961163996
 30
0.0
 10
379.8695538544341
 20
347.5143496105436
 30
0.0
 10
379.8527302783186
 20
347.5137093649439
 30
0.0
 10
379.8057035837057
 20
347.511909715253
 30
0.0
 10
379.7789177235963
 20
347.5108711534277
 30
0.0
 10
379.7457584284162
 20
347.509643037259
 30
0.0
 10
379.7358817777659
 20
347.5092886478234
 30
0.0
 10
379.7185984189649
 20
347.5087057116355
 30
0.0
 10
379.711286358193
 20
347.5084804764283
 30
0.0
 10
379.6993773922762
 20
347.5081713694044
 30
0.0
 10
379.6947683354105
 20
347.5080870786102
 30
0.0
 10
379.6913102243985
 20
347.5080755524335
 30
0.0
 10
379.6910991197721
 20
347.5080751585792
 30
0.0
 10
379.6908941878025
 20
347.5080750960334
 30
0.0
  0
SPLINE
  5
180
330
1F
100
AcDbEntity
  8
1
100
AcDbSpline
210
0.0
220
0.0
230
1.0
 70
    24
 71
     3
 72
     8
 73
     4
 74
     0
 42
0.000000001
 43
0.0000000001
 40
0.0
 40
0.0
 40
0.0
 40
0.0
 40
1.0
 40
1.0
 40
1.0
 40
1.0
 10
380.7410693528546
 20
347.5323321526678
 30
0.0
 10
381.0878694202756
 20
347.5323322421643
 30
0.0
 10
381.4346694876965
 20
347.532332331661
 30
0.0
 10
381.7814695551173
 20
347.5323324211578
 30
0.0
  0
SPLINE
  5
181
330
1F
100
AcDbEntity
  8
1
100
AcDbSpline
210
0.0
220
0.0
230
1.0
 70
     8
 71
     3
 72
    65
 73
    61
 74
     0
 42
0.000000001
 43
0.0000000001
 40
0.0
 40
0.0
 40
0.0
 40
0.0
 40
0.012077053434531
 40
0.0433196772364981
 40
0.0433196772364981
 40
0.058940989137481
 40
0.058940989137481
 40
0.0745623010384639
 40
0.0745623010384639
 40
0.1370475486423955
 40
0.1370475486423955
 40
0.1682901724443612
 40
0.1682901724443612
 40
0.1839114843453463
 40
0.1839114843453463
 40
0.1995327962463313
 40
0.1995327962463313
 40
0.2620180438502613
 40
0.2620180438502613
 40
0.2776393557512467
 40
0.2776393557512467
 40
0.2932606676522324
 40
0.3245032914542036
 40
0.3557459152561749
 40
0.3557459152561749
 40
0.3713672271571604
 40
0.3713672271571604
 40
0.386988539058146
 40
0.386988539058146
 40
0.4494737866620805
 40
0.4494737866620805
 40
0.4807164104640477
 40
0.4807164104640477
 40
0.4963377223650355
 40
0.4963377223650355
 40
0.5119590342660232
 40
0.5119590342660232
 40
0.5744442818699662
 40
0.5744442818699662
 40
0.6056869056719374
 40
0.6056869056719374
 40
0.6369295294739086
 40
0.6369295294739086
 40
0.6994147770778435
 40
0.6994147770778435
 40
0.730657400879811
 40
0.730657400879811
 40
0.7619000246817786
 40
0.7619000246817786
 40
0.8243852722857136
 40
0.8243852722857136
 40
0.8400065841866963
 40
0.8400065841866963
 40
0.8556278960876788
 40
0.886870519889644
 40
0.9181131436916095
 40
0.9181131436916095
 40
0.9493557674935747
 40
0.9493557674935747
 40
1.0
 40
1.0
 40
1.0
 40
1.0
 10
381.3748481521466
 20
384.5080750830048
 30
0.0
 10
381.3748532492833
 20
384.508074883448
 30
0.0
 10
381.3755831577088
 20
384.5080455689592
 30
0.0
 10
381.378843877535
 20
384.5079144178798
 30
0.0
 10
381.3843610772382
 20
384.5076945761218
 30
0.0
 10
381.3865323658686
 20
384.5076083022132
 30
0.0
 10
381.3915494711718
 20
384.5074100220165
 30
0.0
 10
381.3944052597582
 20
384.5072976265197
 30
0.0
 10
381.4102652046829
 20
384.5066775953721
 30
0.0
 10
381.4279160767593
 20
384.5059980059474
 30
0.0
 10
381.4615171001676
 20
384.5047730421328
 30
0.0
 10
381.4739139903865
 20
384.5043303900454
 30
0.0
 10
381.4943454407618
 20
384.5036236120427
 30
0.0
 10
381.5014423111016
 20
384.503381612362
 30
0.0
 10
381.5160938973399
 20
384.5028903613449
 30
0.0
 10
381.5236636266042
 20
384.5026405882772
 30
0.0
 10
381.5627079762163
 20
384.5013759082423
 30
0.0
 10
381.5977352955829
 20
384.5003136568964
 30
0.0
 10
381.646232482091
 20
384.4989984789714
 30
0.0
 10
381.6561935690341
 20
384.4987354709921
 30
0.0
 10
381.6764815572874
 20
384.4982156641178
 30
0.0
 10
381.7073909038148
 20
384.4974469820816
 30
0.0
 10
381.7612262720532
 20
384.4962337726357
 30
0.0
 10
381.8067077916514
 20
384.4953608040436
 30
0.0
 10
381.8417267879438
 20
384.4947520070487
 30
0.0
 10
381.8535513600884
 20
384.4945567296974
 30
0.0
 10
381.8775073900924
 20
384.4941830658396
 30
0.0
 10
381.889670249746
 20
384.4940042737809
 30
0.0
 10
381.9507304068725
 20
384.4931637053598
 30
0.0
 10
382.000510664732
 20
384.4926588196834
 30
0.0
 10
382.0765265405508
 20
384.4921846072844
 30
0.0
 10
382.1020910157256
 20
384.4920736941517
 30
0.0
 10
382.140784272356
 20
384.4919820196628
 30
0.0
 10
382.1537740996484
 20
384.4919639214614
 30
0.0
 10
382.1796632331843
 20
384.4919533026676
 30
0.0
 10
382.1925642401094
 20
384.4919606910432
 30
0.0
 10
382.2568553716858
 20
384.4920598587125
 30
0.0
 10
382.3076096446
 20
384.4923383058194
 30
0.0
 10
382.3827253980918
 20
384.4930310850439
 30
0.0
 10
382.4076432504231
 20
384.4933085189247
 30
0.0
 10
382.4569136698615
 20
384.4939482087913
 30
0.0
 10
382.4809717753603
 20
384.4943063986428
 30
0.0
 10
382.5514614022099
 20
384.4954779708931
 30
0.0
 10
382.5962241225538
 20
384.496388560125
 30
0.0
 10
382.6599190085823
 20
384.497877465997
 30
0.0
 10
382.6806644716776
 20
384.4983969171611
 30
0.0
 10
382.720128021219
 20
384.4994418039059
 30
0.0
 10
382.7389277705256
 20
384.4999688325835
 30
0.0
 10
382.7925679197682
 20
384.5015410254327
 30
0.0
 10
382.8246779717953
 20
384.5025777566934
 30
0.0
 10
382.8599651963466
 20
384.5037820762753
 30
0.0
 10
382.8667516716765
 20
384.5040174457179
 30
0.0
 10
382.879684299059
 20
384.5044719614745
 30
0.0
 10
382.8981692071374
 20
384.5051311128376
 30
0.0
 10
382.9244781667698
 20
384.506105624753
 30
0.0
 10
382.9407323607045
 20
384.5067304853834
 30
0.0
 10
382.9545202931407
 20
384.5072664155688
 30
0.0
 10
382.9601912615203
 20
384.5074903301609
 30
0.0
 10
382.9714280428003
 20
384.5079365636124
 30
0.0
 10
382.9748783973414
 20
384.5080758094145
 30
0.0
 10
382.9748522542656
 20
384.5080750846347
 30
0.0
  0
SPLINE
  5
182
330
1F
100
AcDbEntity
  8
1
100
AcDbSpline
210
0.0
220
0.0
230
1.0
 70
     9
 71
     3
 72
   124
 73
   120
 74
     0
 42
0.000000001
 43
0.0000000001
 40
0.0
 40
0.0
 40
0.0
 40
0.0
 40
0.0312500000000114
 40
0.0312500000000114
 40
0.0468750000000164
 40
0.0468750000000164
 40
0.0625000000000214
 40
0.0625000000000214
 40
0.0937500000000307
 40
0.0937500000000307
 40
0.1015625000000329
 40
0.1015625000000329
 40
0.109375000000035
 40
0.1250000000000398
 40
0.1406250000000446
 40
0.1406250000000446
 40
0.1484375000000478
 40
0.1484375000000478
 40
0.1562500000000509
 40
0.1562500000000509
 40
0.1875000000000638
 40
0.1875000000000638
 40
0.2031250000000716
 40
0.2031250000000716
 40
0.2187500000000794
 40
0.2187500000000794
 40
0.2500000000000949
 40
0.2500000000000949
 40
0.2578125000000968
 40
0.2578125000000968
 40
0.2656250000000988
 40
0.2812500000001067
 40
0.2968750000001148
 40
0.2968750000001148
 40
0.3046875000001188
 40
0.3046875000001188
 40
0.3125000000001228
 40
0.3125000000001228
 40
0.3437500000001433
 40
0.3437500000001433
 40
0.3593750000001535
 40
0.3593750000001535
 40
0.3671875000001564
 40
0.3671875000001564
 40
0.3750000000001593
 40
0.3750000000001593
 40
0.406250000000158
 40
0.406250000000158
 40
0.4140625000001575
 40
0.4140625000001575
 40
0.4218750000001571
 40
0.4218750000001571
 40
0.4375000000001525
 40
0.4375000000001525
 40
0.4687500000001429
 40
0.4687500000001429
 40
0.4843750000001396
 40
0.4843750000001396
 40
0.5000000000001363
 40
0.5156250000001329
 40
0.5156250000001329
 40
0.5234375000001313
 40
0.5234375000001313
 40
0.5312500000001296
 40
0.5312500000001296
 40
0.5625000000001256
 40
0.5625000000001256
 40
0.578125000000124
 40
0.578125000000124
 40
0.585937500000123
 40
0.585937500000123
 40
0.5937500000001219
 40
0.5937500000001219
 40
0.625000000000118
 40
0.625000000000118
 40
0.6328125000001168
 40
0.6328125000001168
 40
0.6406250000001157
 40
0.6406250000001157
 40
0.656250000000115
 40
0.6718750000001142
 40
0.6718750000001142
 40
0.6875000000001135
 40
0.6875000000001135
 40
0.718750000000112
 40
0.718750000000112
 40
0.7343750000001129
 40
0.7343750000001129
 40
0.7421875000001134
 40
0.7421875000001134
 40
0.7500000000001138
 40
0.7500000000001138
 40
0.7812500000001156
 40
0.7812500000001156
 40
0.7890625000001128
 40
0.7890625000001128
 40
0.7968750000001102
 40
0.7968750000001102
 40
0.8125000000001001
 40
0.8125000000001001
 40
0.8437500000000806
 40
0.8437500000000806
 40
0.8515625000000747
 40
0.8515625000000747
 40
0.8593750000000685
 40
0.8750000000000609
 40
0.8906250000000534
 40
0.8906250000000534
 40
0.8984375000000495
 40
0.8984375000000495
 40
0.9062500000000456
 40
0.9062500000000456
 40
0.9375000000000303
 40
0.9375000000000303
 40
0.9531250000000227
 40
0.9531250000000227
 40
0.9687500000000152
 40
0.9687500000000152
 40
1.0
 40
1.0
 40
1.0
 40
1.0
 10
377.8232629140445
 20
347.5368317507664
 30
0.0
 10
377.8486114756777
 20
347.5391751421503
 30
0.0
 10
377.8693308572376
 20
347.5417678306498
 30
0.0
 10
377.8936086863993
 20
347.5460877990442
 30
0.0
 10
377.9005634545915
 20
347.5476009019725
 30
0.0
 10
377.912095499406
 20
347.5507798297723
 30
0.0
 10
377.9165861839672
 20
347.5524212718904
 30
0.0
 10
377.9263670864513
 20
347.5575039396471
 30
0.0
 10
377.9280013565948
 20
347.5611032916864
 30
0.0
 10
377.9238322941909
 20
347.5658768133204
 30
0.0
 10
377.9226801133561
 20
347.566847987634
 30
0.0
 10
377.9197667999822
 20
347.5687989820232
 30
0.0
 10
377.9144831597038
 20
347.571741312002
 30
0.0
 10
377.9012250251609
 20
347.5767195495189
 30
0.0
 10
377.8859616180348
 20
347.5807690108655
 30
0.0
 10
377.8727502642683
 20
347.5838254467348
 30
0.0
 10
377.8680519782428
 20
347.5848474703088
 30
0.0
 10
377.8580567611486
 20
347.5868968220577
 30
0.0
 10
377.852770261494
 20
347.5879216800448
 30
0.0
 10
377.82513417711
 20
347.5930011517755
 30
0.0
 10
377.7990200888723
 20
347.5969628494413
 30
0.0
 10
377.7540109565609
 20
347.6026842764359
 30
0.0
 10
377.7380077697316
 20
347.6045563818282
 30
0.0
 10
377.7040630682741
 20
347.6082012763405
 30
0.0
 10
377.6863603694149
 20
347.6099487083919
 30
0.0
 10
377.6311417584973
 20
347.6149539456595
 30
0.0
 10
377.5915349353009
 20
347.6179768158246
 30
0.0
 10
377.5384879457908
 20
347.6212933484757
 30
0.0
 10
377.5276738156524
 20
347.6219348275453
 30
0.0
 10
377.5058107108837
 20
347.6231616117441
 30
0.0
 10
377.4727396797242
 20
347.6249135723413
 30
0.0
 10
377.4162728839824
 20
347.6273923953407
 30
0.0
 10
377.369687182736
 20
347.6288953178618
 30
0.0
 10
377.3342131749353
 20
347.6298353579748
 30
0.0
 10
377.3222992305737
 20
347.6301174761551
 30
0.0
 10
377.2982900229165
 20
347.630617600021
 30
0.0
 10
377.2861637884733
 20
347.6308360437641
 30
0.0
 10
377.2254674533978
 20
347.6317572443961
 30
0.0
 10
377.17703243778
 20
347.6319483593902
 30
0.0
 10
377.1045566597696
 20
347.6314389327328
 30
0.0
 10
377.080427732316
 20
347.6311358322554
 30
0.0
 10
377.0442799253698
 20
347.6304786060348
 30
0.0
 10
377.0322085207078
 20
347.6302249905166
 30
0.0
 10
377.0082312843314
 20
347.6296529207569
 30
0.0
 10
376.9963492277557
 20
347.6293352352729
 30
0.0
 10
376.9374615551627
 20
347.6275934888367
 30
0.0
 10
376.8920092663048
 20
347.6257124117608
 30
0.0
 10
376.8372530161391
 20
347.6227989275407
 30
0.0
 10
376.8264056260888
 20
347.6221879445339
 30
0.0
 10
376.8049219494242
 20
347.6209098835375
 30
0.0
 10
376.7942607721491
 20
347.6202411382823
 30
0.0
 10
376.7627846264967
 20
347.6181632809951
 30
0.0
 10
376.7425768412445
 20
347.616690168446
 30
0.0
 10
376.6842135849624
 20
347.6120338441654
 30
0.0
 10
376.64829646021
 20
347.6086153927249
 30
0.0
 10
376.5990326544661
 20
347.6030855206447
 30
0.0
 10
376.5833647291233
 20
347.6011699365056
 30
0.0
 10
376.5542872285272
 20
347.5973001609644
 30
0.0
 10
376.5272793098475
 20
347.5933722130978
 30
0.0
 10
376.5043579372254
 20
347.5893541661374
 30
0.0
 10
376.4887251842919
 20
347.5863147172821
 30
0.0
 10
376.4837744518715
 20
347.5852972297952
 30
0.0
 10
376.4744036769398
 20
347.5832546769895
 30
0.0
 10
376.4699730161226
 20
347.5822269191464
 30
0.0
 10
376.4493173186464
 20
347.5771054438025
 30
0.0
 10
376.4376553325242
 20
347.5731000124131
 30
0.0
 10
376.4272819617585
 20
347.5672627134813
 30
0.0
 10
376.4250195016841
 20
347.5653452793975
 30
0.0
 10
376.4234779332801
 20
347.5625147245495
 30
0.0
 10
376.4232744932327
 20
347.5615761370603
 30
0.0
 10
376.4234981172685
 20
347.5597324845618
 30
0.0
 10
376.4239226345281
 20
347.5588265696759
 30
0.0
 10
376.4275809741177
 20
347.5543747377653
 30
0.0
 10
376.4353776781342
 20
347.5510614870144
 30
0.0
 10
376.4512242006027
 20
347.5472075417638
 30
0.0
 10
376.4547013119854
 20
347.5464511664418
 30
0.0
 10
376.462282931868
 20
347.5449667976762
 30
0.0
 10
376.4663879457838
 20
347.5442392681213
 30
0.0
 10
376.4794999260687
 20
347.542122718796
 30
0.0
 10
376.4991881724815
 20
347.5394589443336
 30
0.0
 10
376.5231609427328
 20
347.5370822060029
 30
0.0
 10
376.5492756146857
 20
347.5348370817853
 30
0.0
 10
376.563423749091
 20
347.5337790401717
 30
0.0
 10
376.6090508776173
 20
347.5307960656275
 30
0.0
 10
376.6428169378829
 20
347.5291149835057
 30
0.0
 10
376.6982210886192
 20
347.5269498937043
 30
0.0
 10
376.7174877047242
 20
347.5262882166303
 30
0.0
 10
376.7476048994325
 20
347.5253771887667
 30
0.0
 10
376.7578739610506
 20
347.5250864641298
 30
0.0
 10
376.7786315091557
 20
347.5245360918271
 30
0.0
 10
376.7891311091569
 20
347.524276000205
 30
0.0
 10
376.8422201964867
 20
347.5230456625449
 30
0.0
 10
376.8865662857746
 20
347.5222827978795
 30
0.0
 10
376.9443078740356
 20
347.5215526982554
 30
0.0
 10
376.9559726726229
 20
347.5214180323749
 30
0.0
 10
376.9795385608447
 20
347.5211707778441
 30
0.0
 10
376.9914550278029
 20
347.5210581203254
 30
0.0
 10
377.0271924343428
 20
347.5207555317774
 30
0.0
 10
377.0511159411699
 20
347.5205994785123
 30
0.0
 10
377.1231735619152
 20
347.5202574647309
 30
0.0
 10
377.1715920829622
 20
347.5201952890718
 30
0.0
 10
377.2326031148249
 20
347.5203256583383
 30
0.0
 10
377.2448515651422
 20
347.5203624596558
 30
0.0
 10
377.2691500691025
 20
347.5204568781189
 30
0.0
 10
377.305380511273
 20
347.5206299863426
 30
0.0
 10
377.3646995525514
 20
347.5210754925591
 30
0.0
 10
377.4110303104596
 20
347.521607919315
 30
0.0
 10
377.4453489605403
 20
347.5220800835977
 30
0.0
 10
377.4567168154051
 20
347.5222496505818
 30
0.0
 10
377.4793062436062
 20
347.5226147815853
 30
0.0
 10
377.4905584351955
 20
347.5228109513171
 30
0.0
 10
377.545964423724
 20
347.5238525188832
 30
0.0
 10
377.5876464042639
 20
347.5248770946012
 30
0.0
 10
377.6462723783477
 20
347.5267665845324
 30
0.0
 10
377.6651603104249
 20
347.5274556607772
 30
0.0
 10
377.7015820215922
 20
347.5289700428263
 30
0.0
 10
377.719135380067
 20
347.5297976425624
 30
0.0
 10
377.7686650559007
 20
347.532460750846
 30
0.0
 10
377.7979143524114
 20
347.5344883593824
 30
0.0
 10
377.8232629140445
 20
347.5368317507664
 30
0.0
  0
SPLINE
  5
183
330
1F
100
AcDbEntity
  8
1
100
AcDbSpline
210
0.0
220
0.0
230
1.0
 70
     8
 71
     3
 72
    10
 73
     6
 74
     0
 42
0.000000001
 43
0.0000000001
 40
0.0
 40
0.0
 40
0.0
 40
0.0
 40
0.5
 40
0.5
 40
1.0
 40
1.0
 40
1.0
 40
1.0
 10
400.8112523815901
 20
367.3557337587437
 30
0.0
 10
400.1769393553351
 20
367.4725156977832
 30
0.0
 10
399.5505750956564
 20
367.6175888704947
 30
0.0
 10
398.3138401661587
 20
367.9631119627256
 30
0.0
 10
397.7034710351492
 20
368.1635701573287
 30
0.0
 10
397.1013560791733
 20
368.3915554081977
 30
0.0
  0
SPLINE
  5
184
330
1F
100
AcDbEntity
  8
1
100
AcDbSpline
210
0.0
220
0.0
230
1.0
 70
     8
 71
     3
 72
    11
 73
     7
 74
     0
 42
0.000000001
 43
0.0000000001
 40
0.0
 40
0.0
 40
0.0
 40
0.0
 40
0.1095422869097813
 40
0.4753970844601246
 40
0.8426520169953752
 40
1.0
 40
1.0
 40
1.0
 40
1.0
 10
400.0360440267514
 20
358.5058874133485
 30
0.0
 10
400.0572658606516
 20
358.519041879011
 30
0.0
 10
400.1499340466897
 20
358.5750645262768
 30
0.0
 10
400.3183890602442
 20
358.666081721748
 30
0.0
 10
400.5022800665889
 20
358.7483630669368
 30
0.0
 10
400.6126875503891
 20
358.7908512060204
 30
0.0
 10
400.6459733587306
 20
358.8030508662236
 30
0.0
  0
SPLINE
  5
185
330
1F
100
AcDbEntity
  8
1
100
AcDbSpline
210
0.0
220
0.0
230
1.0
 70
     8
 71
     3
 72
    14
 73
    10
 74
     0
 42
0.000000001
 43
0.0000000001
 40
0.0
 40
0.0
 40
0.0
 40
0.0
 40
0.25
 40
0.25
 40
0.5
 40
0.5
 40
0.75
 40
0.75
 40
1.0
 40
1.0
 40
1.0
 40
1.0
 10
386.5799156440333
 20
347.0600283556236
 30
0.0
 10
386.4807887489032
 20
347.0650641037361
 30
0.0
 10
386.3816939213411
 20
347.0700555031708
 30
0.0
 10
386.1834803058293
 20
347.0800714386818
 30
0.0
 10
386.084361814214
 20
347.0850955649346
 30
0.0
 10
385.8859704904044
 20
347.0953572667593
 30
0.0
 10
385.7866979397069
 20
347.1005944530276
 30
0.0
 10
385.5878170832438
 20
347.1115331667704
 30
0.0
 10
385.4882097105381
 20
347.1172334038453
 30
0.0
 10
385.3883108648807
 20
347.1233367410213
 30
0.0
  0
SPLINE
  5
186
330
1F
100
AcDbEntity
  8
1
100
AcDbSpline
210
0.0
220
0.0
230
1.0
 70
     8
 71
     3
 72
     8
 73
     4
 74
     0
 42
0.000000001
 43
0.0000000001
 40
0.0
 40
0.0
 40
0.0
 40
0.0
 40
1.0
 40
1.0
 40
1.0
 40
1.0
 10
387.2545969090162
 20
347.0268892185924
 30
0.0
 10
387.0300654060401
 20
347.037527655017
 30
0.0
 10
386.805161342542
 20
347.0485856427286
 30
0.0
 10
386.579915644028
 20
347.0600283556236
 30
0.0
  0
SPLINE
  5
187
330
1F
100
AcDbEntity
  8
1
100
AcDbSpline
210
0.0
220
0.0
230
1.0
 70
     8
 71
     3
 72
    10
 73
     6
 74
     0
 42
0.000000001
 43
0.0000000001
 40
0.0
 40
0.0
 40
0.0
 40
0.0
 40
0.5
 40
0.5
 40
1.0
 40
1.0
 40
1.0
 40
1.0
 10
387.4799505282036
 20
347.0162300801205
 30
0.0
 10
387.4425352061165
 20
347.0179132318943
 30
0.0
 10
387.4049687634667
 20
347.0196929482147
 30
0.0
 10
387.3297823841277
 20
347.0232915573303
 30
0.0
 10
387.2921719975299
 20
347.0251088885051
 30
0.0
 10
387.2545969090162
 20
347.0268892185924
 30
0.0
  0
SPLINE
  5
188
330
1F
100
AcDbEntity
  8
1
100
AcDbSpline
210
0.0
220
0.0
230
1.0
 70
     8
 71
     3
 72
     8
 73
     4
 74
     0
 42
0.000000001
 43
0.0000000001
 40
0.0
 40
0.0
 40
0.0
 40
0.0
 40
1.0
 40
1.0
 40
1.0
 40
1.0
 10
419.9605298074487
 20
356.8040638981975
 30
0.0
 10
419.9737381100375
 20
356.8293994188134
 30
0.0
 10
419.9865922280148
 20
356.8548243904032
 30
0.0
 10
419.9996911578186
 20
356.880218146337
 30
0.0
  0
SPLINE
  5
189
330
1F
100
AcDbEntity
  8
1
100
AcDbSpline
210
0.0
220
0.0
230
1.0
 70
     8
 71
     3
 72
    10
 73
     6
 74
     0
 42
0.000000001
 43
0.0000000001
 40
0.0
 40
0.0
 40
0.0
 40
0.0
 40
0.5
 40
0.5
 40
1.0
 40
1.0
 40
1.0
 40
1.0
 10
419.9996911578186
 20
356.880218146337
 30
0.0
 10
420.0372923796636
 20
356.9531123647689
 30
0.0
 10
420.0744942030551
 20
357.0262242332006
 30
0.0
 10
420.1480227389232
 20
357.1728995952641
 30
0.0
 10
420.184348716438
 20
357.246463247512
 30
0.0
 10
420.2201272695214
 20
357.320276397213
 30
0.0
  0
SPLINE
  5
18A
330
1F
100
AcDbEntity
  8
1
100
AcDbSpline
210
0.0
220
0.0
230
1.0
 70
     8
 71
     3
 72
    10
 73
     6
 74
     0
 42
0.000000001
 43
0.0000000001
 40
0.0
 40
0.0
 40
0.0
 40
0.0
 40
0.5
 40
0.5
 40
1.0
 40
1.0
 40
1.0
 40
1.0
 10
400.5231789173416
 20
352.9647558291713
 30
0.0
 10
400.5731323938944
 20
352.9846792955697
 30
0.0
 10
400.622244916452
 20
353.0059332057657
 30
0.0
 10
400.7185511248878
 20
353.0509328650341
 30
0.0
 10
400.7654759438501
 20
353.0745488997031
 30
0.0
 10
400.8112523815903
 20
353.0992316315874
 30
0.0
  0
SPLINE
  5
18B
330
1F
100
AcDbEntity
  8
1
100
AcDbSpline
210
0.0
220
0.0
230
1.0
 70
     8
 71
     3
 72
   107
 73
   103
 74
     0
 42
0.000000001
 43
0.0000000001
 40
0.0
 40
0.0
 40
0.0
 40
0.0
 40
0.0312500000000081
 40
0.0312500000000081
 40
0.0468750000000122
 40
0.0468750000000122
 40
0.0546875000000142
 40
0.0546875000000142
 40
0.0625000000000162
 40
0.0625000000000162
 40
0.0937500000000267
 40
0.0937500000000267
 40
0.1250000000000372
 40
0.1250000000000372
 40
0.1406250000000409
 40
0.1406250000000409
 40
0.1484375000000428
 40
0.1484375000000428
 40
0.1562500000000447
 40
0.1562500000000447
 40
0.187500000000049
 40
0.187500000000049
 40
0.2187500000000533
 40
0.2187500000000533
 40
0.2265625000000544
 40
0.2265625000000544
 40
0.2343750000000554
 40
0.2343750000000554
 40
0.2500000000000546
 40
0.2500000000000546
 40
0.281250000000056
 40
0.281250000000056
 40
0.2968750000000579
 40
0.2968750000000579
 40
0.3046875000000604
 40
0.3046875000000604
 40
0.3125000000000628
 40
0.3125000000000628
 40
0.3437500000000694
 40
0.3437500000000694
 40
0.3750000000000761
 40
0.3750000000000761
 40
0.3828125000000763
 40
0.3828125000000763
 40
0.3906250000000765
 40
0.3906250000000765
 40
0.4062500000000753
 40
0.4062500000000753
 40
0.4375000000000727
 40
0.4375000000000727
 40
0.4531250000000722
 40
0.4531250000000722
 40
0.4609375000000715
 40
0.4609375000000715
 40
0.4687500000000708
 40
0.4687500000000708
 40
0.5000000000000676
 40
0.5000000000000676
 40
0.5312500000000645
 40
0.5312500000000645
 40
0.5468750000000627
 40
0.5468750000000627
 40
0.5625000000000611
 40
0.5625000000000611
 40
0.5937500000000573
 40
0.5937500000000573
 40
0.6250000000000534
 40
0.6250000000000534
 40
0.6406250000000514
 40
0.6406250000000514
 40
0.6484375000000501
 40
0.6484375000000501
 40
0.6562500000000487
 40
0.6562500000000487
 40
0.6875000000000434
 40
0.6875000000000434
 40
0.7187500000000381
 40
0.7187500000000381
 40
0.7500000000000327
 40
0.7500000000000327
 40
0.7656250000000301
 40
0.7656250000000301
 40
0.7812500000000275
 40
0.7812500000000275
 40
0.8125000000000227
 40
0.8125000000000227
 40
0.8437500000000181
 40
0.8437500000000181
 40
0.8750000000000133
 40
0.8750000000000133
 40
0.890625000000012
 40
0.890625000000012
 40
0.9062500000000104
 40
0.9062500000000104
 40
0.9375000000000079
 40
0.9375000000000079
 40
0.9687500000000055
 40
0.9687500000000055
 40
0.9765625000000051
 40
0.9765625000000051
 40
0.9843750000000044
 40
1.0
 40
1.0
 40
1.0
 40
1.0
 10
400.8112523815901
 20
358.685396143215
 30
0.0
 10
400.7040351749144
 20
358.7688402655868
 30
0.0
 10
400.5920878407779
 20
358.8467214463283
 30
0.0
 10
400.4168034400636
 20
358.9547534301214
 30
0.0
 10
400.3571452315965
 20
358.9892958120216
 30
0.0
 10
400.2657501379311
 20
359.0388168867337
 30
0.0
 10
400.2349669211814
 20
359.0549415645228
 30
0.0
 10
400.1727507674607
 20
359.0864077432681
 30
0.0
 10
400.1413802867071
 20
359.1017158599963
 30
0.0
 10
399.9839619930299
 20
359.175769843482
 30
0.0
 10
399.85552187036
 20
359.2274383852614
 30
0.0
 10
399.59365383434
 20
359.3156361785958
 30
0.0
 10
399.4602267253591
 20
359.3521679781695
 30
0.0
 10
399.2562011636138
 20
359.3951414359325
 30
0.0
 10
399.1875434155845
 20
359.4074900401861
 30
0.0
 10
399.0835468491438
 20
359.4229365271742
 30
0.0
 10
399.0486841569122
 20
359.4275733652817
 30
0.0
 10
398.9791572339785
 20
359.4357416838574
 30
0.0
 10
398.9444286395989
 20
359.4392837975336
 30
0.0
 10
398.7709580141049
 20
359.4543091037912
 30
0.0
 10
398.6327304347808
 20
359.457767133658
 30
0.0
 10
398.3573643396422
 20
359.4476989485508
 30
0.0
 10
398.2202256185608
 20
359.434175028342
 30
0.0
 10
398.0495196568173
 20
359.4062434123481
 30
0.0
 10
398.0154145153459
 20
359.4001036472737
 30
0.0
 10
397.9472780158577
 20
359.3866979865503
 30
0.0
 10
397.9133812479822
 20
359.3794574000164
 30
0.0
 10
397.8125085399266
 20
359.3562081892044
 30
0.0
 10
397.7462175270712
 20
359.3386479529435
 30
0.0
 10
397.550169257453
 20
359.279924244426
 30
0.0
 10
397.4232253266084
 20
359.2327399510029
 30
0.0
 10
397.2384675230772
 20
359.1500429935849
 30
0.0
 10
397.1778274832291
 20
359.1204849699826
 30
0.0
 10
397.0883159688004
 20
359.0731249618209
 30
0.0
 10
397.0587204091342
 20
359.0568341067767
 30
0.0
 10
397.0000198083754
 20
359.0232338599008
 30
0.0
 10
396.9709393245856
 20
359.0059355066606
 30
0.0
 10
396.8278815840578
 20
358.9175825211496
 30
0.0
 10
396.7200183766857
 20
358.8404639038182
 30
0.0
 10
396.5169337992456
 20
358.6741717876927
 30
0.0
 10
396.4217153851917
 20
358.5849946722728
 30
0.0
 10
396.3106156145695
 20
358.4661687077996
 30
0.0
 10
396.28879308367
 20
358.4420346293923
 30
0.0
 10
396.245948368583
 20
358.3930287330373
 30
0.0
 10
396.2249634127674
 20
358.3681966802771
 30
0.0
 10
396.1636231784557
 20
358.2931191319288
 30
0.0
 10
396.1247503485141
 20
358.2421448703978
 30
0.0
 10
396.0139720068496
 20
358.0866141948154
 30
0.0
 10
395.9478892894945
 20
357.9794587532177
 30
0.0
 10
395.859895720504
 20
357.8139727866276
 30
0.0
 10
395.8324242089553
 20
357.7580162945391
 30
0.0
 10
395.7939788535912
 20
357.6729268963771
 30
0.0
 10
395.7816242989504
 20
357.6443711989664
 30
0.0
 10
395.7578345940672
 20
357.5868794517408
 30
0.0
 10
395.7464075168579
 20
357.5579582728115
 30
0.0
 10
395.691874216669
 20
357.4132811278219
 30
0.0
 10
395.6562622077107
 20
357.2966406560126
 30
0.0
 10
395.5997734026428
 20
357.0619273962335
 30
0.0
 10
395.5789020840638
 20
356.9438532855166
 30
0.0
 10
395.5581033098584
 20
356.7658497947519
 30
0.0
 10
395.5529255858733
 20
356.7063657673708
 30
0.0
 10
395.5460313402857
 20
356.587120473601
 30
0.0
 10
395.5443368943238
 20
356.5277041332102
 30
0.0
 10
395.5442792653182
 20
356.3504644563337
 30
0.0
 10
395.5509165027592
 20
356.2334722395581
 30
0.0
 10
395.5765852432579
 20
356.0017346681091
 30
0.0
 10
395.5956198522601
 20
355.8869895339436
 30
0.0
 10
395.6330841351999
 20
355.716508460614
 30
0.0
 10
395.6470607521877
 20
355.6599543669827
 30
0.0
 10
395.6702370325229
 20
355.5755278295616
 30
0.0
 10
395.6783376900541
 20
355.5474337388835
 30
0.0
 10
395.695207147508
 20
355.4915961932997
 30
0.0
 10
395.7039818629922
 20
355.4638291977855
 30
0.0
 10
395.7495249886672
 20
355.3257378209298
 30
0.0
 10
395.7912867945521
 20
355.2176393298383
 30
0.0
 10
395.8849419820041
 20
355.0058834372468
 30
0.0
 10
395.9368364893344
 20
354.9022266889437
 30
0.0
 10
396.0506010249468
 20
354.6991600912092
 30
0.0
 10
396.1124702139821
 20
354.5997503304457
 30
0.0
 10
396.2129059605499
 20
354.453750605136
 30
0.0
 10
396.2477324365938
 20
354.4055127431828
 30
0.0
 10
396.3194525869724
 20
354.3107747080607
 30
0.0
 10
396.356376476495
 20
354.2642207298791
 30
0.0
 10
396.4703283880951
 20
354.1269479941545
 30
0.0
 10
396.550525612644
 20
354.0386118106748
 30
0.0
 10
396.7195765779718
 20
353.8681597291265
 30
0.0
 10
396.8084276920902
 20
353.7860428645289
 30
0.0
 10
396.9953659920781
 20
353.6281147684409
 30
0.0
 10
397.0934470663089
 20
353.5523006545405
 30
0.0
 10
397.2483107227523
 20
353.4435804029143
 30
0.0
 10
397.301226769213
 20
353.4081762149481
 30
0.0
 10
397.409854095022
 20
353.3391217408994
 30
0.0
 10
397.4651340198957
 20
353.3057476519108
 30
0.0
 10
397.6338264151008
 20
353.209242936572
 30
0.0
 10
397.75014301772
 20
353.1496682062043
 30
0.0
 10
397.9913959919708
 20
353.0407575384007
 30
0.0
 10
398.1163226799202
 20
352.9914108372782
 30
0.0
 10
398.2788215118566
 20
352.937015063463
 30
0.0
 10
398.3116208020301
 20
352.9265114423052
 30
0.0
 10
398.3773736416878
 20
352.9064168934036
 30
0.0
 10
398.4764151026506
 20
352.8775831778775
 30
0.0
 10
398.5767133247579
 20
352.8527206569609
 30
0.0
 10
398.6441619733502
 20
352.8379755700363
 30
0.0
  0
SPLINE
  5
18C
330
1F
100
AcDbEntity
  8
1
100
AcDbSpline
210
0.0
220
0.0
230
1.0
 70
     8
 71
     3
 72
    38
 73
    34
 74
     0
 42
0.000000001
 43
0.0000000001
 40
0.0
 40
0.0
 40
0.0
 40
0.0
 40
0.0001227835631332
 40
0.0001227835631332
 40
0.0611541659027189
 40
0.0611541659027189
 40
0.1832169305818906
 40
0.1832169305818906
 40
0.2442483129214771
 40
0.2442483129214771
 40
0.2747640040912723
 40
0.2747640040912723
 40
0.3052796952610675
 40
0.3052796952610675
 40
0.4273424599402368
 40
0.4273424599402368
 40
0.4578581511100249
 40
0.4578581511100249
 40
0.488373842279813
 40
0.5494052246193832
 40
0.6104366069589537
 40
0.6104366069589537
 40
0.6409522981287422
 40
0.6409522981287422
 40
0.6714679892985313
 40
0.6714679892985313
 40
0.7935307539776994
 40
0.7935307539776994
 40
0.8545621363172875
 40
0.8545621363172875
 40
0.9155935186568754
 40
0.9155935186568754
 40
1.0
 40
1.0
 40
1.0
 40
1.0
 10
382.5946744439296
 20
373.9293234261085
 30
0.0
 10
382.5946804628833
 20
373.9293395487648
 30
0.0
 10
382.5946864897897
 20
373.9293556681138
 30
0.0
 10
382.5976922407798
 20
373.937382500173
 30
0.0
 10
382.6027072469297
 20
373.9445952897859
 30
0.0
 10
382.6235306717368
 20
373.9630254412477
 30
0.0
 10
382.6450766075747
 20
373.9712386266846
 30
0.0
 10
382.6886757195929
 20
373.9767816891333
 30
0.0
 10
382.7050954424519
 20
373.9774950456252
 30
0.0
 10
382.7325948866495
 20
373.976726123
 30
0.0
 10
382.7422043362572
 20
373.9761623705216
 30
0.0
 10
382.7621379732851
 20
373.9744290683582
 30
0.0
 10
382.7724828298623
 20
373.9732590734485
 30
0.0
 10
382.8260246485442
 20
373.9658997348575
 30
0.0
 10
382.8746329677688
 20
373.9552108087722
 30
0.0
 10
382.9418882567794
 20
373.9356746737898
 30
0.0
 10
382.9556999197068
 20
373.9314456938987
 30
0.0
 10
382.9837363181568
 20
373.9224320504273
 30
0.0
 10
383.0264447428265
 20
373.9080711588268
 30
0.0
 10
383.1007080649405
 20
373.8800171990299
 30
0.0
 10
383.1631242666146
 20
373.8532743466185
 30
0.0
 10
383.2109964727631
 20
373.8316119970975
 30
0.0
 10
383.2271309270709
 20
373.8241234070322
 30
0.0
 10
383.2597470840105
 20
373.8086087114648
 30
0.0
 10
383.276227618639
 20
373.8005821866563
 30
0.0
 10
383.3588229369972
 20
373.7594375232644
 30
0.0
 10
383.4260209765553
 20
373.7230520352111
 30
0.0
 10
383.5282984519388
 20
373.6636436980056
 30
0.0
 10
383.5626412021592
 20
373.6430331387937
 30
0.0
 10
383.6318327701834
 20
373.600234238049
 30
0.0
 10
383.666780485033
 20
373.5779780973727
 30
0.0
 10
383.7496042521291
 20
373.5238260599994
 30
0.0
 10
383.7974717289616
 20
373.4914056368721
 30
0.0
 10
383.8452101046149
 20
373.4581164841499
 30
0.0
  0
SPLINE
  5
18D
330
1F
100
AcDbEntity
  8
1
100
AcDbSpline
210
0.0
220
0.0
230
1.0
 70
     8
 71
     2
 72
    10
 73
     7
 74
     0
 42
0.000000001
 43
0.0000000001
 40
0.0
 40
0.0
 40
0.0
 40
0.3446641591102418
 40
0.3446641591102418
 40
0.6893283182204836
 40
0.6893283182204836
 40
1.0
 40
1.0
 40
1.0
 10
382.4803260591859
 20
383.4428847974269
 30
0.0
 10
382.9226690886634
 20
380.9614031382438
 30
0.0
 10
383.9576822292598
 20
378.6690070932289
 30
0.0
 10
385.0252882074848
 20
376.3044228902618
 30
0.0
 10
386.6539012676147
 20
374.2949875329744
 30
0.0
 10
388.1181653798523
 20
372.4883312119803
 30
0.0
 10
389.948947141372
 20
371.077301266212
 30
0.0
  0
SPLINE
  5
18E
330
1F
100
AcDbEntity
  8
1
100
AcDbSpline
210
0.0
220
0.0
230
1.0
 70
     8
 71
     3
 72
    84
 73
    80
 74
     0
 42
0.000000001
 43
0.0000000001
 40
0.0
 40
0.0
 40
0.0
 40
0.0
 40
0.0625000000000065
 40
0.0625000000000065
 40
0.125000000000013
 40
0.125000000000013
 40
0.1875000000000196
 40
0.1875000000000196
 40
0.2187500000000225
 40
0.2187500000000225
 40
0.2265625000000228
 40
0.2265625000000228
 40
0.2343750000000231
 40
0.2343750000000231
 40
0.250000000000023
 40
0.250000000000023
 40
0.2812500000000236
 40
0.2812500000000236
 40
0.3125000000000241
 40
0.3125000000000241
 40
0.3437500000000248
 40
0.3437500000000248
 40
0.3593750000000251
 40
0.3593750000000251
 40
0.3671875000000252
 40
0.3671875000000252
 40
0.3750000000000253
 40
0.406250000000025
 40
0.406250000000025
 40
0.4375000000000245
 40
0.4375000000000245
 40
0.4687500000000239
 40
0.4687500000000239
 40
0.4765625000000238
 40
0.4765625000000238
 40
0.4843750000000237
 40
0.4843750000000237
 40
0.5000000000000236
 40
0.5000000000000236
 40
0.5312500000000237
 40
0.5312500000000237
 40
0.5468750000000238
 40
0.5468750000000238
 40
0.5546875000000239
 40
0.5546875000000239
 40
0.5625000000000241
 40
0.5625000000000241
 40
0.6250000000000246
 40
0.6250000000000246
 40
0.6328125000000246
 40
0.6367187500000246
 40
0.6367187500000246
 40
0.6406250000000245
 40
0.6406250000000245
 40
0.6562500000000235
 40
0.6562500000000235
 40
0.6875000000000213
 40
0.6875000000000213
 40
0.7031250000000203
 40
0.7031250000000203
 40
0.7109375000000196
 40
0.7109375000000196
 40
0.7187500000000191
 40
0.7187500000000191
 40
0.7500000000000169
 40
0.7500000000000169
 40
0.7812500000000148
 40
0.7812500000000148
 40
0.8125000000000127
 40
0.8125000000000127
 40
0.8437500000000106
 40
0.8437500000000106
 40
0.8750000000000085
 40
0.8750000000000085
 40
0.9062500000000065
 40
0.9062500000000065
 40
0.9375000000000044
 40
0.9375000000000044
 40
1.0
 40
1.0
 40
1.0
 40
1.0
 10
382.7170408875216
 20
373.8809387744159
 30
0.0
 10
382.3111797828145
 20
374.0331988688965
 30
0.0
 10
381.9152127633012
 20
374.1986847196358
 30
0.0
 10
381.1437872940039
 20
374.5557499434736
 30
0.0
 10
380.7683206491771
 20
374.7473228688037
 30
0.0
 10
380.0393919184708
 20
375.156950246737
 30
0.0
 10
379.6859091767096
 20
375.3749857771623
 30
0.0
 10
379.1741925985299
 20
375.723008451996
 30
0.0
 10
379.0067158510902
 20
375.8425209204692
 30
0.0
 10
378.8015613552356
 20
375.9965115216937
 30
0.0
 10
378.7607403969994
 20
376.0275399773346
 30
0.0
 10
378.6795280017177
 20
376.0900644679552
 30
0.0
 10
378.6391388323173
 20
376.1215596807646
 30
0.0
 10
378.5190458174192
 20
376.2164246756947
 30
0.0
 10
378.4402760129875
 20
376.2802807024154
 30
0.0
 10
378.2079247160387
 20
376.4736729329283
 30
0.0
 10
378.0582952135321
 20
376.6050309030756
 30
0.0
 10
377.7701465344131
 20
376.8725853622937
 30
0.0
 10
377.6316253764276
 20
377.0087812586088
 30
0.0
 10
377.3664773735121
 20
377.286072856911
 30
0.0
 10
377.2398474626273
 20
377.4271676049874
 30
0.0
 10
377.0596309641822
 20
377.6426098431085
 30
0.0
 10
377.0011827602183
 20
377.7150581880672
 30
0.0
 10
376.9160753012087
 20
377.8247075104065
 30
0.0
 10
376.8881584620205
 20
377.8613902025278
 30
0.0
 10
376.8334414908123
 20
377.9347564186557
 30
0.0
 10
376.6992989685923
 20
378.1183600070092
 30
0.0
 10
376.5784883487731
 20
378.3028529331281
 30
0.0
 10
376.4030465553209
 20
378.5989710349714
 30
0.0
 10
376.3242507136647
 20
378.7474948365052
 30
0.0
 10
376.1856609569715
 20
379.0453059813009
 30
0.0
 10
376.1258631250021
 20
379.1945932761058
 30
0.0
 10
376.0639921743871
 20
379.3816026450733
 30
0.0
 10
376.0522942497173
 20
379.4189342229779
 30
0.0
 10
376.0303159652696
 20
379.4932491395774
 30
0.0
 10
376.0200249593907
 20
379.5302644119548
 30
0.0
 10
375.9912429574749
 20
379.6408807982663
 30
0.0
 10
375.9748358825992
 20
379.7140522107302
 30
0.0
 10
375.9344582227887
 20
379.9318501015983
 30
0.0
 10
375.9192943758947
 20
380.0747600613854
 30
0.0
 10
375.9168218930886
 20
380.2857061656439
 30
0.0
 10
375.9193856564506
 20
380.3554517866716
 30
0.0
 10
375.92873200933
 20
380.4592177414125
 30
0.0
 10
375.9327707361658
 20
380.4937034947223
 30
0.0
 10
375.9427356872736
 20
380.5622200134368
 30
0.0
 10
375.9486397932511
 20
380.5961134577213
 30
0.0
 10
376.0100989637161
 20
380.8979199211556
 30
0.0
 10
376.1239753076496
 20
381.1432061948572
 30
0.0
 10
376.3202508388968
 20
381.3962494369854
 30
0.0
 10
376.3543811757518
 20
381.4379459438453
 30
0.0
 10
376.3906403808062
 20
381.4789377869794
 30
0.0
 10
376.4152864004076
 20
381.5061103564108
 30
0.0
 10
376.4278591205483
 20
381.519632439371
 30
0.0
 10
376.4916905241362
 20
381.5866343695414
 30
0.0
 10
376.5458942338038
 20
381.638351067993
 30
0.0
 10
376.7172658797361
 20
381.788357449242
 30
0.0
 10
376.843178051721
 20
381.8815192569484
 30
0.0
 10
377.0472512943509
 20
382.0127130807372
 30
0.0
 10
377.1178141459089
 20
382.055015338343
 30
0.0
 10
377.227214644302
 20
382.1165059217136
 30
0.0
 10
377.2642744055906
 20
382.1366754377173
 30
0.0
 10
377.3395404614603
 20
382.1763875069763
 30
0.0
 10
377.3776209897468
 20
382.1958635605386
 30
0.0
 10
377.5699992103948
 20
382.2913871521042
 30
0.0
 10
377.7303458112403
 20
382.3619796305258
 30
0.0
 10
378.0615012879879
 20
382.4939872218768
 30
0.0
 10
378.2323186839982
 20
382.5553924524376
 30
0.0
 10
378.5826347738213
 20
382.6707919266837
 30
0.0
 10
378.7621386603169
 20
382.7247802593364
 30
0.0
 10
379.1284660492644
 20
382.8266631388032
 30
0.0
 10
379.3152928792861
 20
382.8745539686904
 30
0.0
 10
379.6952008399129
 20
382.9652483740792
 30
0.0
 10
379.88735810919
 20
383.0078315896531
 30
0.0
 10
380.2752360426297
 20
383.0884157337384
 30
0.0
 10
380.4709845239444
 20
383.1264199986807
 30
0.0
 10
380.8655695428059
 20
383.1986000556372
 30
0.0
 10
381.0644072617552
 20
383.2327739957831
 30
0.0
 10
381.6649258212697
 20
383.3304189722832
 30
0.0
 10
382.0705840298461
 20
383.3890537919355
 30
0.0
 10
382.4803260580856
 20
383.4428848036005
 30
0.0
  0
SPLINE
  5
18F
330
1F
100
AcDbEntity
  8
1
100
AcDbSpline
210
0.0
220
0.0
230
1.0
 70
     8
 71
     3
 72
    19
 73
    15
 74
     0
 42
0.000000001
 43
0.0000000001
 40
0.0
 40
0.0
 40
0.0
 40
0.0
 40
0.1250000000000292
 40
0.1250000000000292
 40
0.2500000000000584
 40
0.3750000000000876
 40
0.3750000000000876
 40
0.5000000000001168
 40
0.5000000000001168
 40
0.6250000000001461
 40
0.6250000000001461
 40
0.7500000000001752
 40
0.7500000000001752
 40
1.0
 40
1.0
 40
1.0
 40
1.0
 10
404.1790860361841
 20
376.5692428471993
 30
0.0
 10
404.1762841461997
 20
376.5627006067662
 30
0.0
 10
404.1729572014556
 20
376.5563861839396
 30
0.0
 10
404.1654192262954
 20
376.5444349955234
 30
0.0
 10
404.1570499079027
 20
376.5332180977541
 30
0.0
 10
404.1471122331985
 20
376.523387913891
 30
0.0
 10
404.1363821646041
 20
376.5142591201618
 30
0.0
 10
404.1306843528365
 20
376.5101079453238
 30
0.0
 10
404.1188782449218
 20
376.5027464435013
 30
0.0
 10
404.1127370365363
 20
376.499507979047
 30
0.0
 10
404.0999849809188
 20
376.4939045167968
 30
0.0
 10
404.0933214728158
 20
376.49152909306
 30
0.0
 10
404.0731665486098
 20
376.4859169886352
 30
0.0
 10
404.0594292265108
 20
376.4840916758615
 30
0.0
 10
404.0453893951768
 20
376.4842000117925
 30
0.0
  0
SPLINE
  5
190
330
1F
100
AcDbEntity
  8
1
100
AcDbSpline
210
0.0
220
0.0
230
1.0
 70
     8
 71
     3
 72
    12
 73
     8
 74
     0
 42
0.000000001
 43
0.0000000001
 40
0.0
 40
0.0
 40
0.0
 40
0.0
 40
0.2500000000000003
 40
0.2500000000000003
 40
0.5000000000000006
 40
0.5000000000000006
 40
1.0
 40
1.0
 40
1.0
 40
1.0
 10
403.9564770104985
 20
376.4554719821926
 30
0.0
 10
403.9629199288539
 20
376.4602573144744
 30
0.0
 10
403.9696731512801
 20
376.4644316937546
 30
0.0
 10
403.9837618616003
 20
376.4716365108644
 30
0.0
 10
403.9911384380248
 20
376.4746790995321
 30
0.0
 10
404.0138881227491
 20
376.4819684295091
 30
0.0
 10
404.0294448944242
 20
376.4843230447757
 30
0.0
 10
404.0453893951768
 20
376.4842000117925
 30
0.0
  0
SPLINE
  5
191
330
1F
100
AcDbEntity
  8
1
100
AcDbSpline
210
0.0
220
0.0
230
1.0
 70
     8
 71
     3
 72
    28
 73
    24
 74
     0
 42
0.000000001
 43
0.0000000001
 40
0.0
 40
0.0
 40
0.0
 40
0.0
 40
0.1250000000000013
 40
0.1250000000000013
 40
0.1875000000000002
 40
0.1875000000000002
 40
0.2499999999999991
 40
0.2499999999999991
 40
0.3749999999999968
 40
0.3749999999999968
 40
0.4374999999999873
 40
0.4687499999999871
 40
0.4687499999999871
 40
0.4999999999999866
 40
0.4999999999999866
 40
0.6249999999999848
 40
0.6249999999999848
 40
0.6874999999999857
 40
0.6874999999999857
 40
0.7499999999999865
 40
0.7499999999999865
 40
0.8749999999999932
 40
1.0
 40
1.0
 40
1.0
 40
1.0
 10
403.9445137700516
 20
377.4878330724389
 30
0.0
 10
403.9781874218153
 20
377.461237570745
 30
0.0
 10
404.0093288903792
 20
377.4322573319318
 30
0.0
 10
404.0523189297046
 20
377.3852811438694
 30
0.0
 10
404.066025636393
 20
377.3690353364287
 30
0.0
 10
404.0921692302028
 20
377.3353476526219
 30
0.0
 10
404.1046546447078
 20
377.3178258760045
 30
0.0
 10
404.1396532010304
 20
377.2641659182222
 30
0.0
 10
404.1598007162559
 20
377.2269012320525
 30
0.0
 10
404.1853502230881
 20
377.1688155182872
 30
0.0
 10
404.1969513539534
 20
377.1392228407923
 30
0.0
 10
404.2067599749735
 20
377.1087903070897
 30
0.0
 10
404.212893362706
 20
377.0883118651228
 30
0.0
 10
404.2157604043617
 20
377.0779620667362
 30
0.0
 10
404.2289477766876
 20
377.0262060371413
 30
0.0
 10
404.2359566601241
 20
376.9844508651264
 30
0.0
 10
404.2413379910653
 20
376.9213108858737
 30
0.0
 10
404.2422721336563
 20
376.9001792744017
 30
0.0
 10
404.2424004649192
 20
376.8577443298449
 30
0.0
 10
404.2415892684536
 20
376.8363772909296
 30
0.0
 10
404.2364987973622
 20
376.7724401141102
 30
0.0
 10
404.2228068547808
 20
376.6888817923542
 30
0.0
 10
404.1959261519276
 20
376.6085634796039
 30
0.0
 10
404.1790860361841
 20
376.5692428471993
 30
0.0
  0
SPLINE
  5
192
330
1F
100
AcDbEntity
  8
1
100
AcDbSpline
210
0.0
220
0.0
230
1.0
 70
     8
 71
     3
 72
    10
 73
     6
 74
     0
 42
0.000000001
 43
0.0000000001
 40
0.0
 40
0.0
 40
0.0
 40
0.0
 40
0.5
 40
0.5
 40
1.0
 40
1.0
 40
1.0
 40
1.0
 10
388.0668331402586
 20
385.0147874086499
 30
0.0
 10
387.9929965924504
 20
385.0114658251521
 30
0.0
 10
387.9191886269045
 20
385.0081725714047
 30
0.0
 10
387.7715910102677
 20
385.0016042165644
 30
0.0
 10
387.6978009875486
 20
384.9983287471267
 30
0.0
 10
387.6239644397405
 20
384.9950071636288
 30
0.0
  0
SPLINE
  5
193
330
1F
100
AcDbEntity
  8
1
100
AcDbSpline
210
0.0
220
0.0
230
1.0
 70
     8
 71
     3
 72
     8
 73
     4
 74
     0
 42
0.000000001
 43
0.0000000001
 40
0.0
 40
0.0
 40
0.0
 40
0.0
 40
1.0
 40
1.0
 40
1.0
 40
1.0
 10
385.1587718549911
 20
380.5817273019009
 30
0.0
 10
385.1496293049684
 20
380.6088490089517
 30
0.0
 10
385.140524084837
 20
380.6360288787788
 30
0.0
 10
385.1314985326478
 20
380.6631907305568
 30
0.0
  0
SPLINE
  5
194
330
1F
100
AcDbEntity
  8
1
100
AcDbSpline
210
0.0
220
0.0
230
1.0
 70
     8
 71
     3
 72
    10
 73
     6
 74
     0
 42
0.000000001
 43
0.0000000001
 40
0.0
 40
0.0
 40
0.0
 40
0.0
 40
0.5
 40
0.5
 40
1.0
 40
1.0
 40
1.0
 40
1.0
 10
385.1314985326478
 20
380.6631907305568
 30
0.0
 10
385.1055901725585
 20
380.7411603685137
 30
0.0
 10
385.0801717726665
 20
380.8192765826555
 30
0.0
 10
385.030308529973
 20
380.9758128983432
 30
0.0
 10
385.0058636313967
 20
381.0542331042269
 30
0.0
 10
384.9818970685896
 20
381.1328208331091
 30
0.0
  0
SPLINE
  5
195
330
1F
100
AcDbEntity
  8
1
100
AcDbSpline
210
0.0
220
0.0
230
1.0
 70
     8
 71
     3
 72
     8
 73
     4
 74
     0
 42
0.000000001
 43
0.0000000001
 40
0.0
 40
0.0
 40
0.0
 40
0.0
 40
1.0
 40
1.0
 40
1.0
 40
1.0
 10
384.529937549649
 20
382.8538963439604
 30
0.0
 10
384.533255615549
 20
382.8540212147886
 30
0.0
 10
384.5365762989946
 20
382.8541580844639
 30
0.0
 10
384.5398995765296
 20
382.8543068454635
 30
0.0
  0
SPLINE
  5
196
330
1F
100
AcDbEntity
  8
1
100
AcDbSpline
210
0.0
220
0.0
230
1.0
 70
     8
 71
     3
 72
    16
 73
    12
 74
     0
 42
0.000000001
 43
0.0000000001
 40
0.0
 40
0.0
 40
0.0
 40
0.0
 40
0.1428444158020617
 40
0.1428444158020617
 40
0.2856888316041233
 40
0.2856888316041233
 40
0.571377663208247
 40
0.571377663208247
 40
0.8570664948123704
 40
0.8570664948123704
 40
1.0
 40
1.0
 40
1.0
 40
1.0
 10
389.8678975619084
 20
372.8038161070953
 30
0.0
 10
389.9000261477212
 20
372.7791102691357
 30
0.0
 10
389.9304579791071
 20
372.7564559268939
 30
0.0
 10
389.9884876147309
 20
372.7145400904067
 30
0.0
 10
390.016083228178
 20
372.6952813716989
 30
0.0
 10
390.0952271816657
 20
372.6418221554242
 30
0.0
 10
390.1431623732674
 20
372.611900882297
 30
0.0
 10
390.2315845090106
 20
372.5606902676156
 30
0.0
 10
390.2720544466304
 20
372.5394224812368
 30
0.0
 10
390.3282133744843
 20
372.5126803557663
 30
0.0
 10
390.3461782579578
 20
372.5046270507369
 30
0.0
 10
390.3634408375978
 20
372.4973614452027
 30
0.0
  0
SPLINE
  5
197
330
1F
100
AcDbEntity
  8
1
100
AcDbSpline
210
0.0
220
0.0
230
1.0
 70
     8
 71
     3
 72
    21
 73
    17
 74
     0
 42
0.000000001
 43
0.0000000001
 40
0.0
 40
0.0
 40
0.0
 40
0.0
 40
0.1249999999999999
 40
0.1249999999999999
 40
0.2499999999999999
 40
0.2499999999999999
 40
0.3749999999999998
 40
0.3749999999999998
 40
0.4999999999999999
 40
0.4999999999999999
 40
0.7499999999999995
 40
0.7499999999999995
 40
0.8124999999999998
 40
0.8124999999999998
 40
0.875
 40
1.0
 40
1.0
 40
1.0
 40
1.0
 10
386.2516358708225
 20
376.6960151448543
 30
0.0
 10
386.291348439928
 20
376.5819532128568
 30
0.0
 10
386.3346757578018
 20
376.4734161543531
 30
0.0
 10
386.4271932488892
 20
376.2640491181834
 30
0.0
 10
386.4763986471035
 20
376.1632549962014
 30
0.0
 10
386.5799482248097
 20
375.967561769391
 30
0.0
 10
386.6342987059324
 20
375.8726776980551
 30
0.0
 10
386.7477037883927
 20
375.6876881412693
 30
0.0
 10
386.8067613791069
 20
375.5975898845028
 30
0.0
 10
386.9905887161019
 20
375.3333897092692
 30
0.0
 10
387.1219824199469
 20
375.1653116326219
 30
0.0
 10
387.2966321569411
 20
374.9633472994556
 30
0.0
 10
387.3320917814845
 20
374.9233600273078
 30
0.0
 10
387.4040229419532
 20
374.844214557818
 30
0.0
 10
387.5132443518873
 20
374.7269532690081
 30
0.0
 10
387.6263775053908
 20
374.6138953558873
 30
0.0
 10
387.7034982451391
 20
374.5402904372654
 30
0.0
  0
SPLINE
  5
198
330
1F
100
AcDbEntity
  8
1
100
AcDbSpline
210
0.0
220
0.0
230
1.0
 70
     8
 71
     3
 72
    28
 73
    24
 74
     0
 42
0.000000001
 43
0.0000000001
 40
0.0
 40
0.0
 40
0.0
 40
0.0
 40
0.0312500000000018
 40
0.0312500000000018
 40
0.0625000000000036
 40
0.0625000000000036
 40
0.1250000000000072
 40
0.1250000000000072
 40
0.2500000000000101
 40
0.2500000000000101
 40
0.312500000000015
 40
0.312500000000015
 40
0.37500000000002
 40
0.37500000000002
 40
0.5000000000000226
 40
0.5000000000000226
 40
0.6250000000000251
 40
0.6250000000000251
 40
0.6875000000000223
 40
0.6875000000000223
 40
0.7500000000000197
 40
0.7500000000000197
 40
1.0
 40
1.0
 40
1.0
 40
1.0
 10
386.0019769090724
 20
377.6849362054811
 30
0.0
 10
386.0038115580463
 20
377.6725252481306
 30
0.0
 10
386.0057018309697
 20
377.6600841716377
 30
0.0
 10
386.0095952171533
 20
377.6351409180967
 30
0.0
 10
386.0116018476481
 20
377.6226188070618
 30
0.0
 10
386.0177292425616
 20
377.585340506159
 30
0.0
 10
386.0219746705693
 20
377.5607575879699
 30
0.0
 10
386.0351605856015
 20
377.4877632208313
 30
0.0
 10
386.0445500391371
 20
377.4401050444219
 30
0.0
 10
386.0594174144969
 20
377.3699318184155
 30
0.0
 10
386.0645140586393
 20
377.3467207692012
 30
0.0
 10
386.0747945627278
 20
377.3013784747225
 30
0.0
 10
386.0799966130565
 20
377.2791579424232
 30
0.0
 10
386.0957656269018
 20
377.2136838936621
 30
0.0
 10
386.1064945170367
 20
377.1716110985433
 30
0.0
 10
386.1282935355818
 20
377.0899537175886
 30
0.0
 10
386.1393640543362
 20
377.0503719780277
 30
0.0
 10
386.1561773788244
 20
376.9925127357618
 30
0.0
 10
386.1618014264187
 20
376.9735327538743
 30
0.0
 10
386.173032100908
 20
376.9362880309224
 30
0.0
 10
386.1786472622628
 20
376.9179939547375
 30
0.0
 10
386.2067222919794
 20
376.8279738928611
 30
0.0
 10
386.2291798751918
 20
376.7605129676911
 30
0.0
 10
386.2516358708224
 20
376.6960151448544
 30
0.0
  0
SPLINE
  5
199
330
1F
100
AcDbEntity
  8
1
100
AcDbSpline
210
0.0
220
0.0
230
1.0
 70
     8
 71
     3
 72
     8
 73
     4
 74
     0
 42
0.000000001
 43
0.0000000001
 40
0.0
 40
0.0
 40
0.0
 40
0.0
 40
1.0
 40
1.0
 40
1.0
 40
1.0
 10
420.6866110365615
 20
358.9679537712124
 30
0.0
 10
420.7650384532312
 20
358.9620762176224
 30
0.0
 10
420.8434652773417
 20
358.9562109194174
 30
0.0
 10
420.9218915142026
 20
358.9503577667761
 30
0.0
  0
SPLINE
  5
19A
330
1F
100
AcDbEntity
  8
1
100
AcDbSpline
210
0.0
220
0.0
230
1.0
 70
     8
 71
     3
 72
     8
 73
     4
 74
     0
 42
0.000000001
 43
0.0000000001
 40
0.0
 40
0.0
 40
0.0
 40
0.0
 40
1.0
 40
1.0
 40
1.0
 40
1.0
 10
415.6442442027445
 20
354.2977368595912
 30
0.0
 10
415.6339115339511
 20
354.2515729283004
 30
0.0
 10
415.623613907462
 20
354.2054139035764
 30
0.0
 10
415.6133508840526
 20
354.1592597239194
 30
0.0
  0
SPLINE
  5
19B
330
1F
100
AcDbEntity
  8
1
100
AcDbSpline
210
0.0
220
0.0
230
1.0
 70
     8
 71
     3
 72
     8
 73
     4
 74
     0
 42
0.000000001
 43
0.0000000001
 40
0.0
 40
0.0
 40
0.0
 40
0.0
 40
1.0
 40
1.0
 40
1.0
 40
1.0
 10
415.6442442027445
 20
354.2977368595912
 30
0.0
 10
415.5798832594853
 20
354.3307785099201
 30
0.0
 10
415.5155393913217
 20
354.3638530824158
 30
0.0
 10
415.4512128870321
 20
354.3969611338666
 30
0.0
  0
SPLINE
  5
19C
330
1F
100
AcDbEntity
  8
1
100
AcDbSpline
210
0.0
220
0.0
230
1.0
 70
     8
 71
     3
 72
     8
 73
     4
 74
     0
 42
0.000000001
 43
0.0000000001
 40
0.0
 40
0.0
 40
0.0
 40
0.0
 40
1.0
 40
1.0
 40
1.0
 40
1.0
 10
415.451212887032
 20
354.3969611338665
 30
0.0
 10
415.2313544745189
 20
354.4982748458092
 30
0.0
 10
415.0116389262683
 20
354.5999140328284
 30
0.0
 10
414.7920740588248
 20
354.7018965026706
 30
0.0
  0
SPLINE
  5
19D
330
1F
100
AcDbEntity
  8
1
100
AcDbSpline
210
0.0
220
0.0
230
1.0
 70
     8
 71
     3
 72
     8
 73
     4
 74
     0
 42
0.000000001
 43
0.0000000001
 40
0.0
 40
0.0
 40
0.0
 40
0.0
 40
1.0
 40
1.0
 40
1.0
 40
1.0
 10
412.4623803559161
 20
362.1649108344941
 30
0.0
 10
412.4532693457761
 20
362.0650808818822
 30
0.0
 10
412.4445177525859
 20
361.9655072196778
 30
0.0
 10
412.4361261852764
 20
361.8661902820928
 30
0.0
  0
SPLINE
  5
19E
330
1F
100
AcDbEntity
  8
1
100
AcDbSpline
210
0.0
220
0.0
230
1.0
 70
     8
 71
     3
 72
     8
 73
     4
 74
     0
 42
0.000000001
 43
0.0000000001
 40
0.0
 40
0.0
 40
0.0
 40
0.0
 40
1.0
 40
1.0
 40
1.0
 40
1.0
 10
412.4361261852764
 20
355.3863168026808
 30
0.0
 10
412.4445325408595
 20
355.298967947343
 30
0.0
 10
412.4532853365063
 20
355.2120376418153
 30
0.0
 10
412.4623803559161
 20
355.1255207921959
 30
0.0
  0
SPLINE
  5
19F
330
1F
100
AcDbEntity
  8
1
100
AcDbSpline
210
0.0
220
0.0
230
1.0
 70
     8
 71
     3
 72
     8
 73
     4
 74
     0
 42
0.000000001
 43
0.0000000001
 40
0.0
 40
0.0
 40
0.0
 40
0.0
 40
1.0
 40
1.0
 40
1.0
 40
1.0
 10
410.2973168464549
 20
366.206960386132
 30
0.0
 10
410.2885654272374
 20
366.2076383792431
 30
0.0
 10
410.2798140369446
 20
366.2083163687961
 30
0.0
 10
410.2710626758153
 20
366.2089943547621
 30
0.0
  0
SPLINE
  5
1A0
330
1F
100
AcDbEntity
  8
1
100
AcDbSpline
210
0.0
220
0.0
230
1.0
 70
     8
 71
     3
 72
     8
 73
     4
 74
     0
 42
0.000000001
 43
0.0000000001
 40
0.0
 40
0.0
 40
0.0
 40
0.0
 40
1.0
 40
1.0
 40
1.0
 40
1.0
 10
410.2710626758153
 20
350.5987388428029
 30
0.0
 10
410.2798133415751
 20
350.5830839382749
 30
0.0
 10
410.2885647338701
 20
350.567429460291
 30
0.0
 10
410.2973168464549
 20
350.5517754051842
 30
0.0
  0
SPLINE
  5
1A1
330
1F
100
AcDbEntity
  8
1
100
AcDbSpline
210
0.0
220
0.0
230
1.0
 70
     8
 71
     3
 72
     8
 73
     4
 74
     0
 42
0.000000001
 43
0.0000000001
 40
0.0
 40
0.0
 40
0.0
 40
0.0
 40
1.0
 40
1.0
 40
1.0
 40
1.0
 10
412.4623803559161
 20
365.940842747714
 30
0.0
 10
411.7410095023617
 20
366.0295242584262
 30
0.0
 10
411.0192979229823
 20
366.118231963186
 30
0.0
 10
410.2973168464549
 20
366.206960386132
 30
0.0
  0
SPLINE
  5
1A2
330
1F
100
AcDbEntity
  8
1
100
AcDbSpline
210
0.0
220
0.0
230
1.0
 70
     8
 71
     3
 72
     8
 73
     4
 74
     0
 42
0.000000001
 43
0.0000000001
 40
0.0
 40
0.0
 40
0.0
 40
0.0
 40
1.0
 40
1.0
 40
1.0
 40
1.0
 10
410.2973168464549
 20
350.5517754051842
 30
0.0
 10
411.023684556743
 20
351.0507765493969
 30
0.0
 10
411.7458112792162
 20
351.5554739153283
 30
0.0
 10
412.4623803559161
 20
352.0676359531559
 30
0.0
  0
SPLINE
  5
1A3
330
1F
100
AcDbEntity
  8
1
100
AcDbSpline
210
0.0
220
0.0
230
1.0
 70
     8
 71
     3
 72
    20
 73
    16
 74
     0
 42
0.000000001
 43
0.0000000001
 40
0.0
 40
0.0
 40
0.0
 40
0.0
 40
0.1249999999999998
 40
0.1249999999999998
 40
0.2499999999999997
 40
0.2499999999999997
 40
0.3749999999999996
 40
0.3749999999999996
 40
0.4999999999999994
 40
0.4999999999999994
 40
0.6249999999999993
 40
0.6249999999999993
 40
0.7499999999999993
 40
0.7499999999999993
 40
1.0
 40
1.0
 40
1.0
 40
1.0
 10
403.7697947998293
 20
375.4725939157483
 30
0.0
 10
403.7758981555321
 20
375.4692012491708
 30
0.0
 10
403.7817192582745
 20
375.465407592922
 30
0.0
 10
403.7927996608508
 20
375.4570223936503
 30
0.0
 10
403.7980501270596
 20
375.4524283405885
 30
0.0
 10
403.8077455236164
 20
375.4426513783085
 30
0.0
 10
403.8122241156362
 20
375.4374449612539
 30
0.0
 10
403.8204286888338
 20
375.4263847469218
 30
0.0
 10
403.8241768811992
 20
375.4204824985884
 30
0.0
 10
403.830694164255
 20
375.4083054034025
 30
0.0
 10
403.8334814789065
 20
375.4020202859642
 30
0.0
 10
403.8381024709668
 20
375.3890533935124
 30
0.0
 10
403.8399449322357
 20
375.3823228189073
 30
0.0
 10
403.8438632878853
 20
375.3618439230352
 30
0.0
 10
403.8443567871515
 20
375.3480500859786
 30
0.0
 10
403.8425952938953
 20
375.3341094595783
 30
0.0
  0
SPLINE
  5
1A4
330
1F
100
AcDbEntity
  8
1
100
AcDbSpline
210
0.0
220
0.0
230
1.0
 70
     8
 71
     3
 72
    12
 73
     8
 74
     0
 42
0.000000001
 43
0.0000000001
 40
0.0
 40
0.0
 40
0.0
 40
0.0
 40
0.2500000000000003
 40
0.2500000000000003
 40
0.5000000000000007
 40
0.5000000000000007
 40
1.0
 40
1.0
 40
1.0
 40
1.0
 10
403.7697947998293
 20
375.4725939157483
 30
0.0
 10
403.7628562486094
 20
375.47645084167
 30
0.0
 10
403.7563145438908
 20
375.4808069792338
 30
0.0
 10
403.7440022934815
 20
375.4904897282805
 30
0.0
 10
403.7382117356171
 20
375.4958380880224
 30
0.0
 10
403.7221892677966
 20
375.5132813991254
 30
0.0
 10
403.7136238220326
 20
375.5263172436596
 30
0.0
 10
403.7073051641639
 20
375.5408540507464
 30
0.0
  0
SPLINE
  5
1A5
330
1F
100
AcDbEntity
  8
1
100
AcDbSpline
210
0.0
220
0.0
230
1.0
 70
     8
 71
     3
 72
     8
 73
     4
 74
     0
 42
0.000000001
 43
0.0000000001
 40
0.0
 40
0.0
 40
0.0
 40
0.0
 40
1.0
 40
1.0
 40
1.0
 40
1.0
 10
403.7155140484879
 20
377.4824510014728
 30
0.0
 10
403.7083043745187
 20
377.482449004779
 30
0.0
 10
403.701071144204
 20
377.4829833533447
 30
0.0
 10
403.6938133689513
 20
377.484068660006
 30
0.0
  0
SPLINE
  5
1A6
330
1F
100
AcDbEntity
  8
1
100
AcDbSpline
210
0.0
220
0.0
230
1.0
 70
     8
 71
     3
 72
    28
 73
    24
 74
     0
 42
0.000000001
 43
0.0000000001
 40
0.0
 40
0.0
 40
0.0
 40
0.0
 40
0.0625000000000111
 40
0.0625000000000111
 40
0.1250000000000223
 40
0.1250000000000223
 40
0.2500000000000397
 40
0.2500000000000397
 40
0.2812500000000392
 40
0.2812500000000392
 40
0.3125000000000386
 40
0.3125000000000386
 40
0.3750000000000375
 40
0.3750000000000375
 40
0.5000000000000301
 40
0.5000000000000301
 40
0.6250000000000224
 40
0.6250000000000224
 40
0.7500000000000151
 40
0.7500000000000151
 40
0.8750000000000074
 40
0.8750000000000074
 40
1.0
 40
1.0
 40
1.0
 40
1.0
 10
403.7073051641639
 20
375.5408540507464
 30
0.0
 10
403.6988452799093
 20
375.5603169980913
 30
0.0
 10
403.6911509037501
 20
375.5801607580619
 30
0.0
 10
403.6774616449632
 20
375.6202112754304
 30
0.0
 10
403.6714521353227
 20
375.640442602528
 30
0.0
 10
403.6559377523789
 20
375.7017670174213
 30
0.0
 10
403.6489277729485
 20
375.7434856032562
 30
0.0
 10
403.6446287456953
 20
375.7967876886177
 30
0.0
 10
403.6439934754281
 20
375.8075289396718
 30
0.0
 10
403.6431906046485
 20
375.8289454687453
 30
0.0
 10
403.6430208026949
 20
375.8396356871098
 30
0.0
 10
403.6432010621044
 20
375.8716531778661
 30
0.0
 10
403.6442397082971
 20
375.8929273939432
 30
0.0
 10
403.6501091777748
 20
375.9565415465372
 30
0.0
 10
403.6576747993737
 20
375.9986748956134
 30
0.0
 10
403.6805298488531
 20
376.0823666459723
 30
0.0
 10
403.6954659032431
 20
376.1226110240912
 30
0.0
 10
403.7318706627068
 20
376.1999129984892
 30
0.0
 10
403.7533494440788
 20
376.2370015741191
 30
0.0
 10
403.8029464016886
 20
376.3080154440057
 30
0.0
 10
403.8303507086077
 20
376.3409177261416
 30
0.0
 10
403.8898585617273
 20
376.4018247461145
 30
0.0
 10
403.9219822104941
 20
376.4298517475556
 30
0.0
 10
403.9564770104985
 20
376.4554719821926
 30
0.0
  0
SPLINE
  5
1A7
330
1F
100
AcDbEntity
  8
1
100
AcDbSpline
210
0.0
220
0.0
230
1.0
 70
     8
 71
     3
 72
    25
 73
    21
 74
     0
 42
0.000000001
 43
0.0000000001
 40
0.0
 40
0.0
 40
0.0
 40
0.0
 40
0.1672276316610524
 40
0.1672276316610524
 40
0.2508414474915784
 40
0.2508414474915784
 40
0.3344552633221046
 40
0.3344552633221046
 40
0.5016828949831805
 40
0.5016828949831805
 40
0.5852967108137343
 40
0.6271036187290138
 40
0.6271036187290138
 40
0.6689105266442934
 40
0.6689105266442934
 40
0.8361381583053299
 40
0.8361381583053299
 40
0.9197519741358687
 40
0.9197519741358687
 40
1.0
 40
1.0
 40
1.0
 40
1.0
 10
403.8425952938953
 20
375.3341094595783
 30
0.0
 10
403.8372943840131
 20
375.2921575508799
 30
0.0
 10
403.828623715864
 20
375.2511173748747
 30
0.0
 10
403.810669887813
 20
375.1909073241323
 30
0.0
 10
403.8038567044213
 20
375.1710633739019
 30
0.0
 10
403.7885430932221
 20
375.1318373852267
 30
0.0
 10
403.779999330854
 20
375.1123736726597
 30
0.0
 10
403.7521506949117
 20
375.0554998354329
 30
0.0
 10
403.7306492744443
 20
375.0195136459885
 30
0.0
 10
403.6940926655403
 20
374.9683689870553
 30
0.0
 10
403.6747329868824
 20
374.9435087135526
 30
0.0
 10
403.6537218647501
 20
374.9197363665956
 30
0.0
 10
403.6393406922052
 20
374.9041343781899
 30
0.0
 10
403.6319515295272
 20
374.8964458702577
 30
0.0
 10
403.5944034439485
 20
374.8589699707535
 30
0.0
 10
403.5622255001316
 20
374.8318045845629
 30
0.0
 10
403.5108574624542
 20
374.7951354652484
 30
0.0
 10
403.4932153220133
 20
374.7835956472999
 30
0.0
 10
403.4576107838893
 20
374.7623350600337
 30
0.0
 10
403.4396370261661
 20
374.7525341386511
 30
0.0
 10
403.4212757666108
 20
374.7434432135346
 30
0.0
  0
SPLINE
  5
1A8
330
1F
100
AcDbEntity
  8
1
100
AcDbSpline
210
0.0
220
0.0
230
1.0
 70
     8
 71
     3
 72
    19
 73
    15
 74
     0
 42
0.000000001
 43
0.0000000001
 40
0.0
 40
0.0
 40
0.0
 40
0.0
 40
0.1249999999999915
 40
0.1249999999999915
 40
0.249999999999983
 40
0.3749999999999745
 40
0.3749999999999745
 40
0.4999999999999659
 40
0.4999999999999659
 40
0.6249999999999574
 40
0.6249999999999574
 40
0.749999999999949
 40
0.749999999999949
 40
1.0
 40
1.0
 40
1.0
 40
1.0
 10
403.05935274213
 20
378.4013047589438
 30
0.0
 10
403.0634407475586
 20
378.395729219837
 30
0.0
 10
403.0670572777653
 20
378.3898316975576
 30
0.0
 10
403.0732456296051
 20
378.3776414601339
 30
0.0
 10
403.0783689289433
 20
378.3651279662377
 30
0.0
 10
403.0814809476901
 20
378.3520067512953
 30
0.0
 10
403.0835757168757
 20
378.3385796123939
 30
0.0
 10
403.0840947885268
 20
378.3317967167632
 30
0.0
 10
403.0841135344046
 20
378.3183610146687
 30
0.0
 10
403.0836197523978
 20
378.3116669503915
 30
0.0
 10
403.0816385351972
 20
378.2983269733346
 30
0.0
 10
403.0801320767482
 20
378.2916323248543
 30
0.0
 10
403.0742341456103
 20
378.2721696237098
 30
0.0
 10
403.0685085297244
 20
378.2599041616804
 30
0.0
 10
403.0609728443305
 20
378.2483565005216
 30
0.0
  0
SPLINE
  5
1A9
330
1F
100
AcDbEntity
  8
1
100
AcDbSpline
210
0.0
220
0.0
230
1.0
 70
     8
 71
     3
 72
    28
 73
    24
 74
     0
 42
0.000000001
 43
0.0000000001
 40
0.0
 40
0.0
 40
0.0
 40
0.0
 40
0.0624999999999574
 40
0.0624999999999574
 40
0.1249999999999147
 40
0.1249999999999147
 40
0.2499999999998692
 40
0.2499999999998692
 40
0.2812499999998836
 40
0.2812499999998836
 40
0.312499999999898
 40
0.312499999999898
 40
0.3749999999998924
 40
0.3749999999998924
 40
0.4999999999999141
 40
0.4999999999999141
 40
0.6249999999999356
 40
0.6249999999999356
 40
0.749999999999957
 40
0.749999999999957
 40
0.8749999999999785
 40
0.8749999999999785
 40
1.0
 40
1.0
 40
1.0
 40
1.0
 10
403.6938133689513
 20
377.484068660006
 30
0.0
 10
403.6724727862598
 20
377.487259868847
 30
0.0
 10
403.6512088749471
 20
377.4912818773836
 30
0.0
 10
403.6092719255345
 20
377.5009128123333
 30
0.0
 10
403.5885697809836
 20
377.5065225290397
 30
0.0
 10
403.5272612353461
 20
377.5257396203571
 30
0.0
 10
403.4874466540681
 20
377.5417166835162
 30
0.0
 10
403.4390815073603
 20
377.5659165211345
 30
0.0
 10
403.429459408366
 20
377.5709810288923
 30
0.0
 10
403.4105241750031
 20
377.5814552785356
 30
0.0
 10
403.4011968813469
 20
377.5868710298956
 30
0.0
 10
403.373632809856
 20
377.6036495455909
 30
0.0
 10
403.3558131873741
 20
377.6155427137701
 30
0.0
 10
403.3040225307282
 20
377.6533394525766
 30
0.0
 10
403.2717083659673
 20
377.6813453480181
 30
0.0
 10
403.2117597219435
 20
377.7432860196125
 30
0.0
 10
403.1850701401083
 20
377.7762518362332
 30
0.0
 10
403.1379744551221
 20
377.8458078785839
 30
0.0
 10
403.1175473449501
 20
377.8824220746382
 30
0.0
 10
403.0829947176951
 20
377.9594081277406
 30
0.0
 10
403.0693672707613
 20
377.9986710592321
 30
0.0
 10
403.0488397468635
 20
378.0785278112382
 30
0.0
 10
403.0419315394794
 20
378.1191489134777
 30
0.0
 10
403.0383504396286
 20
378.1604956700109
 30
0.0
  0
SPLINE
  5
1AA
330
1F
100
AcDbEntity
  8
1
100
AcDbSpline
210
0.0
220
0.0
230
1.0
 70
     8
 71
     3
 72
    12
 73
     8
 74
     0
 42
0.000000001
 43
0.0000000001
 40
0.0
 40
0.0
 40
0.0
 40
0.0
 40
0.25
 40
0.25
 40
0.5
 40
0.5
 40
1.0
 40
1.0
 40
1.0
 40
1.0
 10
403.0383504396286
 20
378.1604956700109
 30
0.0
 10
403.0376815505447
 20
378.1682185471286
 30
0.0
 10
403.0376992384552
 20
378.1758905962977
 30
0.0
 10
403.0390201073634
 20
378.1911416926462
 30
0.0
 10
403.0403347058718
 20
378.1987607581978
 30
0.0
 10
403.046176097722
 20
378.2212090560958
 30
0.0
 10
403.0524149313751
 20
378.2352423809861
 30
0.0
 10
403.0609728443305
 20
378.2483565005216
 30
0.0
  0
SPLINE
  5
1AB
330
1F
100
AcDbEntity
  8
1
100
AcDbSpline
210
0.0
220
0.0
230
1.0
 70
     8
 71
     3
 72
    17
 73
    13
 74
     0
 42
0.000000001
 43
0.0000000001
 40
0.0
 40
0.0
 40
0.0
 40
0.0
 40
0.0020574166230816
 40
0.0020574166230816
 40
0.2515430624673687
 40
0.2515430624673687
 40
0.3762858853894757
 40
0.3762858853894757
 40
0.5010287083115829
 40
0.5010287083115829
 40
0.7505143541557914
 40
1.0
 40
1.0
 40
1.0
 40
1.0
 10
402.6562599881044
 20
378.6795391830198
 30
0.0
 10
402.6565949538482
 20
378.679445396045
 30
0.0
 10
402.6569297951125
 20
378.6793513961143
 30
0.0
 10
402.6978523324565
 20
378.667832901599
 30
0.0
 10
402.7368980011681
 20
378.6532429974753
 30
0.0
 10
402.793230195586
 20
378.6267721465509
 30
0.0
 10
402.8116329752828
 20
378.6171803870307
 30
0.0
 10
402.8476797369457
 20
378.5964428781924
 30
0.0
 10
402.8653747174823
 20
378.5852614416346
 30
0.0
 10
402.9169406304678
 20
378.5495537319992
 30
0.0
 10
402.9806701827039
 20
378.4969456405997
 30
0.0
 10
403.0347824066635
 20
378.4348156895558
 30
0.0
 10
403.05935274213
 20
378.4013047589438
 30
0.0
  0
SPLINE
  5
1AC
330
1F
100
AcDbEntity
  8
1
100
AcDbSpline
210
0.0
220
0.0
230
1.0
 70
     8
 71
     3
 72
    24
 73
    20
 74
     0
 42
0.000000001
 43
0.0000000001
 40
0.0
 40
0.0
 40
0.0
 40
0.0
 40
0.0897907611581297
 40
0.0897907611581297
 40
0.1795815223162597
 40
0.1795815223162597
 40
0.3591630446325585
 40
0.3591630446325585
 40
0.4040584252116314
 40
0.4040584252116314
 40
0.4489538057907043
 40
0.4489538057907043
 40
0.5387445669488498
 40
0.5387445669488498
 40
0.7183260892651441
 40
0.7183260892651441
 40
0.8979076115814383
 40
0.8979076115814383
 40
1.0
 40
1.0
 40
1.0
 40
1.0
 10
402.0567444707021
 20
374.557382260524
 30
0.0
 10
402.0686025866178
 20
374.5736540100057
 30
0.0
 10
402.0811868358438
 20
374.5894757093686
 30
0.0
 10
402.1075652059831
 20
374.6198950705734
 30
0.0
 10
402.1213722689195
 20
374.6345166082639
 30
0.0
 10
402.1646668645561
 20
374.6766238259533
 30
0.0
 10
402.1960133147088
 20
374.7023654268255
 30
0.0
 10
402.2385679829381
 20
374.731467965827
 30
0.0
 10
402.2472676567106
 20
374.7371447225227
 30
0.0
 10
402.2648631511541
 20
374.7480868618701
 30
0.0
 10
402.2737704576131
 20
374.7533612710612
 30
0.0
 10
402.3008195568754
 20
374.7686001074137
 30
0.0
 10
402.3192880596114
 20
374.7779811090977
 30
0.0
 10
402.3760063624943
 20
374.8037985097353
 30
0.0
 10
402.4155608692297
 20
374.8179261218094
 30
0.0
 10
402.4983695035863
 20
374.8396777932466
 30
0.0
 10
402.5403247510396
 20
374.8469556188342
 30
0.0
 10
402.6067987858341
 20
374.8530304090002
 30
0.0
 10
402.6310395931748
 20
374.8541338526616
 30
0.0
 10
402.6554272577034
 20
374.8541275558224
 30
0.0
  0
SPLINE
  5
1AD
330
1F
100
AcDbEntity
  8
1
100
AcDbSpline
210
0.0
220
0.0
230
1.0
 70
     8
 71
     3
 72
    12
 73
     8
 74
     0
 42
0.000000001
 43
0.0000000001
 40
0.0
 40
0.0
 40
0.0
 40
0.0
 40
0.2500000000000007
 40
0.2500000000000007
 40
0.5000000000000014
 40
0.5000000000000014
 40
1.0
 40
1.0
 40
1.0
 40
1.0
 10
402.0324398122021
 20
374.4729911528382
 30
0.0
 10
402.0320195815925
 20
374.4805983919717
 30
0.0
 10
402.0322263363969
 20
374.4881112734633
 30
0.0
 10
402.0338587162805
 20
374.5029540409195
 30
0.0
 10
402.0352921459983
 20
374.5103112808461
 30
0.0
 10
402.0414736390517
 20
374.5319190658674
 30
0.0
 10
402.0478874195545
 20
374.5452285829541
 30
0.0
 10
402.0567444707025
 20
374.5573822605242
 30
0.0
  0
SPLINE
  5
1AE
330
1F
100
AcDbEntity
  8
1
100
AcDbSpline
210
0.0
220
0.0
230
1.0
 70
     8
 71
     3
 72
    20
 73
    16
 74
     0
 42
0.000000001
 43
0.0000000001
 40
0.0
 40
0.0
 40
0.0
 40
0.0
 40
0.125
 40
0.125
 40
0.25
 40
0.25
 40
0.375
 40
0.375
 40
0.5
 40
0.5
 40
0.625
 40
0.625
 40
0.75
 40
0.75
 40
1.0
 40
1.0
 40
1.0
 40
1.0
 10
402.0324398122021
 20
374.4729911528382
 30
0.0
 10
402.0328094631316
 20
374.4662995341117
 30
0.0
 10
402.0326946743635
 20
374.4596534016042
 30
0.0
 10
402.0315012040084
 20
374.4464518957802
 30
0.0
 10
402.0304156754675
 20
374.4399020563982
 30
0.0
 10
402.0273276722407
 20
374.4271958020057
 30
0.0
 10
402.0253232402864
 20
374.4210001362044
 30
0.0
 10
402.0203767218813
 20
374.4089307288177
 30
0.0
 10
402.0174057174356
 20
374.4030154263915
 30
0.0
 10
402.0106367299324
 20
374.3918250815618
 30
0.0
 10
402.0068400315823
 20
374.3865305344928
 30
0.0
 10
401.9984140458259
 20
374.3765508146704
 30
0.0
 10
401.9937488018765
 20
374.3718354749204
 30
0.0
 10
401.9786662032575
 20
374.3588968151268
 30
0.0
 10
401.967381451771
 20
374.351975859523
 30
0.0
 10
401.9547929598854
 20
374.3468732569231
 30
0.0
  0
SPLINE
  5
1AF
330
1F
100
AcDbEntity
  8
1
100
AcDbSpline
210
0.0
220
0.0
230
1.0
 70
     8
 71
     3
 72
    12
 73
     8
 74
     0
 42
0.000000001
 43
0.0000000001
 40
0.0
 40
0.0
 40
0.0
 40
0.0
 40
0.1774617555926176
 40
0.1774617555926176
 40
0.5887308777963089
 40
0.5887308777963089
 40
1.0
 40
1.0
 40
1.0
 40
1.0
 10
401.4084186872371
 20
378.1470661837613
 30
0.0
 10
401.3907423045903
 20
378.1470709645578
 30
0.0
 10
401.3730896889962
 20
378.1477150610223
 30
0.0
 10
401.3145980004989
 20
378.1519893045739
 30
0.0
 10
401.2750299695727
 20
378.1583504665178
 30
0.0
 10
401.1983231600529
 20
378.1773001512948
 30
0.0
 10
401.1611579004767
 20
378.1898941460501
 30
0.0
 10
401.12512610462
 20
378.2056205576022
 30
0.0
  0
SPLINE
  5
1B0
330
1F
100
AcDbEntity
  8
1
100
AcDbSpline
210
0.0
220
0.0
230
1.0
 70
     8
 71
     3
 72
    12
 73
     8
 74
     0
 42
0.000000001
 43
0.0000000001
 40
0.0
 40
0.0
 40
0.0
 40
0.0
 40
0.2499999999999923
 40
0.2499999999999923
 40
0.4999999999999848
 40
0.4999999999999848
 40
1.0
 40
1.0
 40
1.0
 40
1.0
 10
401.12512610462
 20
378.2056205576022
 30
0.0
 10
401.1183957687548
 20
378.2085580751246
 30
0.0
 10
401.1120626011677
 20
378.2120557500769
 30
0.0
 10
401.1001373258906
 20
378.2201018676967
 30
0.0
 10
401.0945185442296
 20
378.2246776514282
 30
0.0
 10
401.0789756997303
 20
378.2398380691861
 30
0.0
 10
401.0705954179198
 20
378.2515171614535
 30
0.0
 10
401.0641710142306
 20
378.264753358513
 30
0.0
  0
SPLINE
  5
1B1
330
1F
100
AcDbEntity
  8
1
100
AcDbSpline
210
0.0
220
0.0
230
1.0
 70
     8
 71
     3
 72
     8
 73
     4
 74
     0
 42
0.000000001
 43
0.0000000001
 40
0.0
 40
0.0
 40
0.0
 40
0.0
 40
1.0
 40
1.0
 40
1.0
 40
1.0
 10
388.1518523082138
 20
385.0187545310868
 30
0.0
 10
388.1235616436238
 20
385.017481857764
 30
0.0
 10
388.0951238048486
 20
385.0160600819727
 30
0.0
 10
388.0668331402586
 20
385.0147874086499
 30
0.0
  0
SPLINE
  5
1B2
330
1F
100
AcDbEntity
  8
1
100
AcDbSpline
210
0.0
220
0.0
230
1.0
 70
     8
 71
     3
 72
    15
 73
    11
 74
     0
 42
0.000000001
 43
0.0000000001
 40
0.0
 40
0.0
 40
0.0
 40
0.0
 40
0.249999999999996
 40
0.249999999999996
 40
0.3749999999999967
 40
0.3749999999999967
 40
0.4999999999999973
 40
0.4999999999999973
 40
0.7499999999999987
 40
1.0
 40
1.0
 40
1.0
 40
1.0
 10
415.9213419955403
 20
380.5050028158984
 30
0.0
 10
416.2414175469673
 20
380.2075655087181
 30
0.0
 10
416.5514685059001
 20
379.9000776945371
 30
0.0
 10
417.0016019627104
 20
379.4238672890465
 30
0.0
 10
417.1491537145299
 20
379.2626319145157
 30
0.0
 10
417.4392636748142
 20
378.9351560490387
 30
0.0
 10
417.5818425627241
 20
378.7688905684131
 30
0.0
 10
418.0019283759027
 20
378.2627056392547
 30
0.0
 10
418.5395326210038
 20
377.5706732128177
 30
0.0
 10
419.0325509126006
 20
376.8446894456452
 30
0.0
 10
419.267904676664
 20
376.4731823518441
 30
0.0
  0
SPLINE
  5
1B3
330
1F
100
AcDbEntity
  8
1
100
AcDbSpline
210
0.0
220
0.0
230
1.0
 70
     8
 71
     3
 72
    13
 73
     9
 74
     0
 42
0.000000001
 43
0.0000000001
 40
0.0
 40
0.0
 40
0.0
 40
0.0
 40
0.2499999999999996
 40
0.4999999999999992
 40
0.4999999999999992
 40
0.7499999999999996
 40
0.7499999999999996
 40
1.0
 40
1.0
 40
1.0
 40
1.0
 10
419.2843139719827
 20
376.4465868514836
 30
0.0
 10
419.4991113223329
 20
376.0890239401202
 30
0.0
 10
419.9051577062438
 20
375.3632538360662
 30
0.0
 10
420.2652800370974
 20
374.6167102206463
 30
0.0
 10
420.6027279951168
 20
373.8599035223101
 30
0.0
 10
420.7601137874316
 20
373.4763682304258
 30
0.0
 10
421.0522219708874
 20
372.6990336529846
 30
0.0
 10
421.1869422976358
 20
372.3052335720698
 30
0.0
 10
421.3102197744285
 20
371.9062472311994
 30
0.0
  0
SPLINE
  5
1B4
330
1F
100
AcDbEntity
  8
1
100
AcDbSpline
210
0.0
220
0.0
230
1.0
 70
     8
 71
     3
 72
     8
 73
     4
 74
     0
 42
0.000000001
 43
0.0000000001
 40
0.0
 40
0.0
 40
0.0
 40
0.0
 40
1.0
 40
1.0
 40
1.0
 40
1.0
 10
419.267904676664
 20
376.4731823518441
 30
0.0
 10
419.2734792253382
 20
376.4643828988781
 30
0.0
 10
419.2789489651007
 20
376.455517722731
 30
0.0
 10
419.2843139719827
 20
376.4465868514836
 30
0.0
  0
SPLINE
  5
1B5
330
1F
100
AcDbEntity
  8
1
100
AcDbSpline
210
0.0
220
0.0
230
1.0
 70
     8
 71
     3
 72
    20
 73
    16
 74
     0
 42
0.000000001
 43
0.0000000001
 40
0.0
 40
0.0
 40
0.0
 40
0.0
 40
0.2499999999999998
 40
0.2499999999999998
 40
0.3125000000000005
 40
0.3125000000000005
 40
0.3750000000000012
 40
0.3750000000000012
 40
0.4999999999999983
 40
0.4999999999999983
 40
0.7499999999999992
 40
0.7499999999999992
 40
0.8749999999999996
 40
0.8749999999999996
 40
1.0
 40
1.0
 40
1.0
 40
1.0
 10
422.1492092437764
 20
367.3079773818462
 30
0.0
 10
422.1507174271869
 20
367.2635982895916
 30
0.0
 10
422.1508603727699
 20
367.2194508781055
 30
0.0
 10
422.1493384925603
 20
367.1645564351946
 30
0.0
 10
422.1489485979758
 20
367.153592132456
 30
0.0
 10
422.1479959179718
 20
367.1316930919607
 30
0.0
 10
422.1474314381553
 20
367.1207324834115
 30
0.0
 10
422.145489895556
 20
367.0881373433685
 30
0.0
 10
422.1438667545406
 20
367.0667770345633
 30
0.0
 10
422.1380498379855
 20
367.0037695982996
 30
0.0
 10
422.1329142539884
 20
366.9631888783778
 30
0.0
 10
422.1233682718934
 20
366.9044472581751
 30
0.0
 10
422.1198691280918
 20
366.8851816674533
 30
0.0
 10
422.1122831778335
 20
366.8475800807998
 30
0.0
 10
422.1082119848031
 20
366.8293120699435
 30
0.0
 10
422.1038675509162
 20
366.8115753100607
 30
0.0
  0
SPLINE
  5
1B6
330
1F
100
AcDbEntity
  8
1
100
AcDbSpline
210
0.0
220
0.0
230
1.0
 70
     8
 71
     3
 72
     8
 73
     4
 74
     0
 42
0.000000001
 43
0.0000000001
 40
0.0
 40
0.0
 40
0.0
 40
0.0
 40
1.0
 40
1.0
 40
1.0
 40
1.0
 10
415.9545955797451
 20
365.7297584634156
 30
0.0
 10
416.1767702565132
 20
365.7046980147659
 30
0.0
 10
416.3984551736853
 20
365.680066483462
 30
0.0
 10
416.619690985204
 20
365.6558282659442
 30
0.0
  0
SPLINE
  5
1B7
330
1F
100
AcDbEntity
  8
1
100
AcDbSpline
210
0.0
220
0.0
230
1.0
 70
     8
 71
     3
 72
    10
 73
     6
 74
     0
 42
0.000000001
 43
0.0000000001
 40
0.0
 40
0.0
 40
0.0
 40
0.0
 40
0.5
 40
0.5
 40
1.0
 40
1.0
 40
1.0
 40
1.0
 10
415.7315684357022
 20
365.7549320357094
 30
0.0
 10
415.7687824158712
 20
365.7506511265294
 30
0.0
 10
415.8059549730989
 20
365.7464580153221
 30
0.0
 10
415.8802747572919
 20
365.7381087186512
 30
0.0
 10
415.9174149033838
 20
365.7339523006443
 30
0.0
 10
415.9545955797451
 20
365.7297584634156
 30
0.0
  0
SPLINE
  5
1B8
330
1F
100
AcDbEntity
  8
1
100
AcDbSpline
210
0.0
220
0.0
230
1.0
 70
     8
 71
     3
 72
    14
 73
    10
 74
     0
 42
0.000000001
 43
0.0000000001
 40
0.0
 40
0.0
 40
0.0
 40
0.0
 40
0.25
 40
0.25
 40
0.5
 40
0.5
 40
0.75
 40
0.75
 40
1.0
 40
1.0
 40
1.0
 40
1.0
 10
416.6196909851981
 20
365.6558282659451
 30
0.0
 10
416.717053195585
 20
365.6451614285232
 30
0.0
 10
416.8144751533657
 20
365.6344480303678
 30
0.0
 10
417.0092744266043
 20
365.6130560235123
 30
0.0
 10
417.1066522941847
 20
365.6023769845472
 30
0.0
 10
417.3011204663079
 20
365.5812430025161
 30
0.0
 10
417.3982112953281
 20
365.5707876507287
 30
0.0
 10
417.591767383944
 20
365.5503644491085
 30
0.0
 10
417.6882343819908
 20
365.5403952445128
 30
0.0
 10
417.7841583158105
 20
365.5308492461379
 30
0.0
  0
SPLINE
  5
1C1
330
1F
100
AcDbEntity
  8
1
100
AcDbSpline
210
0.0
220
0.0
230
1.0
 70
     8
 71
     3
 72
     8
 73
     4
 74
     0
 42
0.000000001
 43
0.0000000001
 40
0.0
 40
0.0
 40
0.0
 40
0.0
 40
1.0
 40
1.0
 40
1.0
 40
1.0
 10
422.1425478307542
 20
367.4575763217235
 30
0.0
 10
422.1441935162135
 20
367.4341133109884
 30
0.0
 10
422.1454661850025
 20
367.4105972501394
 30
0.0
 10
422.1463626664792
 20
367.3870277016072
 30
0.0
  0
SPLINE
  5
1C2
330
1F
100
AcDbEntity
  8
1
100
AcDbSpline
210
0.0
220
0.0
230
1.0
 70
     8
 71
     3
 72
    31
 73
    27
 74
     0
 42
0.000000001
 43
0.0000000001
 40
0.0
 40
0.0
 40
0.0
 40
0.0
 40
0.1249999999999948
 40
0.1249999999999948
 40
0.2499999999999896
 40
0.2499999999999896
 40
0.2812499999999883
 40
0.2812499999999883
 40
0.3124999999999871
 40
0.3124999999999871
 40
0.374999999999987
 40
0.374999999999987
 40
0.4999999999999846
 40
0.4999999999999846
 40
0.6249999999999819
 40
0.6249999999999819
 40
0.6874999999999795
 40
0.6874999999999795
 40
0.7031249999999809
 40
0.7031249999999809
 40
0.7187499999999822
 40
0.7499999999999841
 40
0.7499999999999841
 40
0.8749999999999921
 40
0.8749999999999921
 40
1.0
 40
1.0
 40
1.0
 40
1.0
 10
401.9955471091936
 20
385.6415218402982
 30
0.0
 10
402.632569356424
 20
385.6701786863583
 30
0.0
 10
403.2677123154017
 20
385.6668104699021
 30
0.0
 10
404.5342809981341
 20
385.5970359097142
 30
0.0
 10
405.1657070185479
 20
385.5306293481448
 30
0.0
 10
405.9526494115491
 20
385.4077202830605
 30
0.0
 10
406.1100180593176
 20
385.3811169098964
 30
0.0
 10
406.4231431145747
 20
385.3241462847197
 30
0.0
 10
406.5790586761028
 20
385.2937568729374
 30
0.0
 10
407.0448842065476
 20
385.1969361027002
 30
0.0
 10
407.3528741144756
 20
385.1248556581296
 30
0.0
 10
408.2692795732696
 20
384.8863635144368
 30
0.0
 10
408.8701470673152
 20
384.6977520842441
 30
0.0
 10
410.0519615549417
 20
384.2618770967704
 30
0.0
 10
410.6329090354258
 20
384.0146149060418
 30
0.0
 10
411.4890823103256
 20
383.5988737604786
 30
0.0
 10
411.7719279406568
 20
383.4528057226616
 30
0.0
 10
412.12223793596
 20
383.2606673008239
 30
0.0
 10
412.1921633932106
 20
383.2217464341958
 30
0.0
 10
412.3313669582323
 20
383.1431261143069
 30
0.0
 10
412.5393087150028
 20
383.0239700117047
 30
0.0
 10
412.744670809022
 20
382.9011524955234
 30
0.0
 10
413.4235182759506
 20
382.4836787618418
 30
0.0
 10
413.9484195756755
 20
382.1238954099127
 30
0.0
 10
414.9621318485437
 20
381.3531208958215
 30
0.0
 10
415.4509434576509
 20
380.9421310932345
 30
0.0
 10
415.9213419955403
 20
380.5050028158984
 30
0.0
  0
LINE
  5
1CA
330
1F
100
AcDbEntity
  8
SK4
100
AcDbLine
 10
249.174849
 20
366.008075
 30
0.0
 11
325.174849
 21
366.008075
 31
0.0
  0
LINE
  5
1CB
330
1F
100
AcDbEntity
  8
4
100
AcDbLine
 10
320.174849
 20
366.008075
 30
0.0
 11
425.271063
 21
366.008075
 31
0.0
  0
MTEXT
  5
1D4
330
1F
100
AcDbEntity
  8
SK6
100
AcDbMText
 10
313.983022
 20
331.755815
 30
0.0
 40
3.5
 41
0.0
 71
     7
 72
     5
  1
\W0.7351;40L2R100B40-SZP40-C
  7
cesky
 73
     2
 44
0.8433729999999998
  0
MTEXT
  5
32C
330
1F
100
AcDbEntity
  8
2
100
AcDbMText
 10
399.575061
 20
391.579806
 30
0.0
 40
3.5
 41
0.0
 71
     7
 72
     5
  1
\W0.8459;35,7
  7
cesky
 73
     2
 44
0.8433729999999998
  0
LINE
  5
32D
330
1F
100
AcDbEntity
  8
2
100
AcDbLine
 10
422.174849
 20
387.508075
 30
0.0
 11
422.174849
 21
392.70564
 31
0.0
  0
LINE
  5
32E
330
1F
100
AcDbEntity
  8
2
100
AcDbLine
 10
385.654273
 20
384.906399
 30
0.0
 11
385.654273
 21
392.70564
 31
0.0
  0
LINE
  5
32F
330
1F
100
AcDbEntity
  8
2
100
AcDbLine
 10
422.174849
 20
391.70564
 30
0.0
 11
385.654273
 21
391.70564
 31
0.0
  0
SOLID
  5
330
330
1F
100
AcDbEntity
  8
2
100
AcDbTrace
 10
422.174849
 20
391.70564
 30
0.0
 11
418.674851
 21
391.088495
 31
0.0
 12
418.674846
 22
392.322784
 32
0.0
 13
418.674846
 23
392.322784
 33
0.0
  0
SOLID
  5
331
330
1F
100
AcDbEntity
  8
2
100
AcDbTrace
 10
385.654273
 20
391.70564
 30
0.0
 11
389.154271
 21
392.322784
 31
0.0
 12
389.154275
 22
391.088495
 32
0.0
 13
389.154275
 23
391.088495
 33
0.0
  0
MTEXT
  5
332
330
1F
100
AcDbEntity
  8
2
100
AcDbMText
 10
369.097849
 20
401.500866
 30
0.0
 40
3.5
 41
0.0
 71
     7
 72
     5
  1
\W0.7809;100
  7
cesky
 73
     2
 44
0.8433729999999998
  0
LINE
  5
333
330
1F
100
AcDbEntity
  8
2
100
AcDbLine
 10
422.174849
 20
387.508075
 30
0.0
 11
422.174849
 21
402.626699
 31
0.0
  0
LINE
  5
334
330
1F
100
AcDbEntity
  8
2
100
AcDbLine
 10
322.174849
 20
366.008075
 30
0.0
 11
322.174849
 21
402.626699
 31
0.0
  0
LINE
  5
335
330
1F
100
AcDbEntity
  8
2
100
AcDbLine
 10
422.174849
 20
401.626699
 30
0.0
 11
322.174849
 21
401.626699
 31
0.0
  0
SOLID
  5
336
330
1F
100
AcDbEntity
  8
2
100
AcDbTrace
 10
422.174849
 20
401.626699
 30
0.0
 11
418.674851
 21
401.009554
 31
0.0
 12
418.674846
 22
402.243843
 32
0.0
 13
418.674846
 23
402.243843
 33
0.0
  0
SOLID
  5
337
330
1F
100
AcDbEntity
  8
2
100
AcDbTrace
 10
322.174849
 20
401.626699
 30
0.0
 11
325.674846
 21
402.243843
 31
0.0
 12
325.674851
 22
401.009554
 32
0.0
 13
325.674851
 23
401.009554
 33
0.0
  0
MTEXT
  5
338
330
1F
100
AcDbEntity
  8
2
100
AcDbMText
 10
439.7005209999999
 20
364.275228
 30
0.0
 40
3.5
 41
0.0
 71
     7
 72
     5
  1
\W0.7045;40
  7
cesky
 11
0.0000000000000001
 21
1.0
 31
0.0
 73
     2
 44
0.8433729999999998
  0
MTEXT
  5
339
330
1F
100
AcDbEntity
  8
2
100
AcDbMText
 10
439.7005209999999
 20
357.537728
 30
0.0
 40
3.5
 41
0.0
 71
     7
 72
     5
  1
\W3.0115;\H2.63;%%c\H3.50;
  7
cesky
 11
0.0000000000000001
 21
1.0
 31
0.0
 73
     2
 44
0.8433729999999998
  0
LINE
  5
33A
330
1F
100
AcDbEntity
  8
2
100
AcDbLine
 10
423.674849
 20
386.008075
 30
0.0
 11
440.887938
 21
386.008075
 31
0.0
  0
LINE
  5
33B
330
1F
100
AcDbEntity
  8
2
100
AcDbLine
 10
439.8879379999999
 20
386.008075
 30
0.0
 11
439.8879379999999
 21
357.380228
 31
0.0
  0
SOLID
  5
33C
330
1F
100
AcDbEntity
  8
2
100
AcDbTrace
 10
439.8879379999999
 20
386.008075
 30
0.0
 11
440.505083
 21
382.508077
 31
0.0
 12
439.270794
 22
382.508073
 32
0.0
 13
439.270794
 23
382.508073
 33
0.0
  0
MTEXT
  5
33D
330
1F
100
AcDbEntity
  8
SK2
100
AcDbMText
 10
333.597849
 20
410.3175059999999
 30
0.0
 40
3.5
 41
0.0
 71
     7
 72
     5
  1
\W0.9524;171
  7
cesky
 73
     2
 44
0.8433729999999998
  0
LINE
  5
33E
330
1F
100
AcDbEntity
  8
SK2
100
AcDbLine
 10
422.174849
 20
387.508075
 30
0.0
 11
422.174849
 21
411.443339
 31
0.0
  0
LINE
  5
33F
330
1F
100
AcDbEntity
  8
SK2
100
AcDbLine
 10
251.174849
 20
384.508075
 30
0.0
 11
251.174849
 21
411.443339
 31
0.0
  0
LINE
  5
340
330
1F
100
AcDbEntity
  8
SK2
100
AcDbLine
 10
422.174849
 20
410.443339
 30
0.0
 11
251.174849
 21
410.443339
 31
0.0
  0
SOLID
  5
341
330
1F
100
AcDbEntity
  8
SK2
100
AcDbTrace
 10
422.174849
 20
410.443339
 30
0.0
 11
418.674851
 21
409.8261939999999
 31
0.0
 12
418.674846
 22
411.060483
 32
0.0
 13
418.674846
 23
411.060483
 33
0.0
  0
SOLID
  5
342
330
1F
100
AcDbEntity
  8
SK2
100
AcDbTrace
 10
251.174849
 20
410.443339
 30
0.0
 11
254.674846
 21
411.060483
 31
0.0
 12
254.674851
 22
409.8261939999999
 32
0.0
 13
254.674851
 23
409.8261939999999
 33
0.0
  0
MTEXT
  5
343
330
1F
100
AcDbEntity
  8
SK2
100
AcDbMText
 10
241.071753
 20
367.534325
 30
0.0
 40
3.5
 41
0.0
 71
     7
 72
     5
  1
\W0.7045;40
  7
cesky
 11
0.0000000000000001
 21
1.0
 31
0.0
 73
     2
 44
0.8433729999999998
  0
MTEXT
  5
344
330
1F
100
AcDbEntity
  8
SK2
100
AcDbMText
 10
241.071753
 20
360.796825
 30
0.0
 40
3.5
 41
0.0
 71
     7
 72
     5
  1
\W3.0115;\H2.63;%%c\H3.50;
  7
cesky
 11
0.0000000000000001
 21
1.0
 31
0.0
 73
     2
 44
0.8433729999999998
  0
LINE
  5
345
330
1F
100
AcDbEntity
  8
SK2
100
AcDbLine
 10
252.674849
 20
386.008075
 30
0.0
 11
240.25917
 21
386.008075
 31
0.0
  0
LINE
  5
346
330
1F
100
AcDbEntity
  8
SK2
100
AcDbLine
 10
252.674849
 20
346.008075
 30
0.0
 11
240.25917
 21
346.008075
 31
0.0
  0
LINE
  5
347
330
1F
100
AcDbEntity
  8
SK2
100
AcDbLine
 10
241.25917
 20
386.008075
 30
0.0
 11
241.25917
 21
346.008075
 31
0.0
  0
SOLID
  5
348
330
1F
100
AcDbEntity
  8
SK2
100
AcDbTrace
 10
241.25917
 20
386.008075
 30
0.0
 11
241.876314
 21
382.508077
 31
0.0
 12
240.642025
 22
382.508073
 32
0.0
 13
240.642025
 23
382.508073
 33
0.0
  0
SOLID
  5
349
330
1F
100
AcDbEntity
  8
SK2
100
AcDbTrace
 10
241.25917
 20
346.008075
 30
0.0
 11
240.642025
 21
349.508073
 31
0.0
 12
241.876314
 22
349.508077
 32
0.0
 13
241.876314
 23
349.508077
 33
0.0
  0
LINE
  5
34C
330
1F
100
AcDbEntity
  8
CUT
100
AcDbLine
 10
388.0668331402586
 20
385.0147874086499
 30
0.0
 11
388.1518523082138
 21
385.0187545310868
 31
0.0
  0
LINE
  5
352
330
1F
100
AcDbEntity
  8
CUT
100
AcDbLine
 10
387.6239644397403
 20
384.9950071636288
 30
0.0
 11
388.0668331402586
 21
385.0147874086499
 31
0.0
  0
ELLIPSE
  5
357
330
1F
100
AcDbEntity
  8
CUT
100
AcDbEllipse
 10
420.036987
 20
365.499836
 30
0.0
 11
-2.401434640524295
 21
-0.7296436485644793
 31
0.0
210
0.0
220
0.0
230
1.0
 40
0.038586
 41
4.223261592851448
 42
4.886486708613426
  0
ELLIPSE
  5
358
330
1F
100
AcDbEntity
  8
CUT
100
AcDbEllipse
 10
418.683251
 20
365.366588
 30
0.0
 11
-2.370646491357896
 21
0.2645041941322041
 31
0.0
210
0.0
220
0.0
230
1.0
 40
0.028832
 41
4.594443277495983
 42
5.104600662136101
  0
ELLIPSE
  5
359
330
1F
100
AcDbEntity
  8
CUT
100
AcDbEllipse
 10
403.473682
 20
386.947516
 30
0.0
 11
-0.0000000000000012
 21
-19.65676275012361
 31
0.0
210
0.0
220
0.0
230
1.0
 40
0.9848079999999999
 41
4.922158151577313
 42
5.012693829712591
  0
ELLIPSE
  5
35A
330
1F
100
AcDbEntity
  8
CUT
100
AcDbEllipse
 10
403.218445
 20
366.378252
 30
0.0
 11
-6.937293323783604
 21
18.06774118078819
 31
0.0
210
0.0
220
0.0
230
1.0
 40
0.977349
 41
4.409346258206037
 42
4.64391141220662
  0
ELLIPSE
  5
35B
330
1F
100
AcDbEntity
  8
CUT
100
AcDbEllipse
 10
403.199377
 20
366.643962
 30
0.0
 11
-0.0000000000000012
 21
-19.25361789020254
 31
0.0
210
0.0
220
0.0
230
1.0
 40
0.9848079999999999
 41
1.605290996013304
 42
1.609399481175215
  0
ELLIPSE
  5
35C
330
1F
100
AcDbEntity
  8
CUT
100
AcDbEllipse
 10
403.4982499999999
 20
369.075002
 30
0.0
 11
-13.22202197688433
 21
-16.04936806736121
 31
0.0
210
0.0
220
0.0
230
1.0
 40
0.868762
 41
2.043074570319217
 42
2.077057267972112
  0
ELLIPSE
  5
35D
330
1F
100
AcDbEntity
  8
CUT
100
AcDbEllipse
 10
403.473682
 20
386.947516
 30
0.0
 11
-0.0000000000000012
 21
-19.65676275012362
 31
0.0
210
0.0
220
0.0
230
1.0
 40
0.9848079999999999
 41
5.042182043201223
 42
6.170378920405584
  0
LINE
  5
35E
330
1F
100
AcDbEntity
  8
CUT
100
AcDbLine
 10
384.5399
 20
382.854307
 30
0.0
 11
384.715926
 21
383.66301
 31
0.0
  0
LINE
  5
35F
330
1F
100
AcDbEntity
  8
CUT
100
AcDbLine
 10
385.654273
 20
384.906399
 30
0.0
 11
387.623964
 21
384.995007
 31
0.0
  0
LINE
  5
360
330
1F
100
AcDbEntity
  8
CUT
100
AcDbLine
 10
415.731568
 20
365.754932
 30
0.0
 11
401.29459
 21
367.415689
 31
0.0
  0
LINE
  5
361
330
1F
100
AcDbEntity
  8
CUT
100
AcDbLine
 10
384.715926
 20
383.66301
 30
0.0
 11
385.654273
 21
384.906399
 31
0.0
  0
LINE
  5
362
330
1F
100
AcDbEntity
  8
CUT
100
AcDbLine
 10
421.9299599999999
 20
366.146737
 30
0.0
 11
421.140462
 21
365.92446
 31
0.0
  0
LINE
  5
363
330
1F
100
AcDbEntity
  8
CUT
100
AcDbLine
 10
419.2810719999999
 20
365.367528
 30
0.0
 11
418.969784
 21
365.403337
 31
0.0
  0
LINE
  5
364
330
1F
100
AcDbEntity
  8
CUT
100
AcDbLine
 10
419.593283
 20
365.464709
 30
0.0
 11
419.2810719999999
 21
365.367528
 31
0.0
  0
LINE
  5
365
330
1F
100
AcDbEntity
  8
CUT
100
AcDbLine
 10
388.151852
 20
385.018755
 30
0.0
 11
401.995547
 21
385.641522
 31
0.0
  0
LINE
  5
366
330
1F
100
AcDbEntity
  8
CUT
100
AcDbLine
 10
419.2843139719827
 20
376.4465868514836
 30
0.0
 11
419.2843139719827
 21
376.4465868514836
 31
0.0
  0
ARC
  5
367
330
1F
100
AcDbEntity
  8
CUT
100
AcDbCircle
 10
401.5897643527966
 20
365.8291036077722
 30
0.0
 40
20.63560119444868
100
AcDbArc
 50
17.12743869963532
 51
30.96555045295599
  0
ARC
  5
368
330
1F
100
AcDbEntity
  8
CUT
100
AcDbCircle
 10
437.0851058686349
 20
554.3738900895264
 30
0.0
 40
189.8238838029564
100
AcDbArc
 50
263.5579980918174
 51
263.6087945136045
  0
ARC
  5
369
330
1F
100
AcDbEntity
  8
CUT
100
AcDbCircle
 10
420.5582123539114
 20
407.8077784054784
 30
0.0
 40
42.32893076032731
100
AcDbArc
 50
263.4524889156631
 51
263.5284957054419
  0
LINE
  5
36A
330
1F
100
AcDbEntity
  8
CUT
100
AcDbLine
 10
416.619690985204
 20
365.6558282659442
 30
0.0
 11
416.619690985204
 21
365.6558282659442
 31
0.0
  0
ARC
  5
36B
330
1F
100
AcDbEntity
  8
CUT
100
AcDbCircle
 10
439.4009506959917
 20
573.6306542008037
 30
0.0
 40
209.2188185050415
100
AcDbArc
 50
263.5655640915665
 51
263.7488261827745
  0
LINE
  5
36C
330
1F
100
AcDbEntity
  8
CUT
100
AcDbLine
 10
401.9955471091936
 20
385.6415218402982
 30
0.0
 11
401.9955471091936
 21
385.6415218402982
 31
0.0
  0
ARC
  5
36D
330
1F
100
AcDbEntity
  8
CUT
100
AcDbCircle
 10
402.8395976774275
 20
366.4842443342774
 30
0.0
 40
19.17586250483724
100
AcDbArc
 50
46.98431992030315
 51
92.52276343615527
  0
ARC
  5
36E
330
1F
100
AcDbEntity
  8
CUT
100
AcDbCircle
 10
420.1011538297945
 20
367.2346769102484
 30
0.0
 40
2.049366716299758
100
AcDbArc
 50
352.5377513478173
 51
2.049756939070574
  0
ARC
  5
36F
330
1F
100
AcDbEntity
  8
CUT
100
AcDbCircle
 10
420.6052905102637
 20
367.1725152669246
 30
0.0
 40
1.541431412431767
100
AcDbArc
 50
346.45794920784
 51
352.3950712614451
  0
LINE
  5
370
330
1F
100
AcDbEntity
  8
CUT
100
AcDbLine
 10
385.1587718549911
 20
380.5817273019009
 30
0.0
 11
385.1587718549911
 21
380.5817273019009
 31
0.0
  0
ARC
  5
371
330
1F
100
AcDbEntity
  8
CUT
100
AcDbCircle
 10
404.4232624059885
 20
387.0766260738766
 30
0.0
 40
20.32988702004219
100
AcDbArc
 50
198.3890882691637
 51
198.6312022281525
  0
LINE
  5
372
330
1F
100
AcDbEntity
  8
CUT
100
AcDbLine
 10
419.267904676664
 20
376.4731823518441
 30
0.0
 11
419.267904676664
 21
376.4731823518441
 31
0.0
  0
ARC
  5
373
330
1F
100
AcDbEntity
  8
CUT
100
AcDbCircle
 10
418.1560816841581
 20
375.7688329551986
 30
0.0
 40
1.316152893557434
100
AcDbArc
 50
30.99416191817171
 51
32.35460899721565
  0
LINE
  5
374
330
1F
100
AcDbEntity
  8
CUT
100
AcDbLine
 10
422.1425478307542
 20
367.4575763217235
 30
0.0
 11
422.1425478307542
 21
367.4575763217235
 31
0.0
  0
ARC
  5
375
330
1F
100
AcDbEntity
  8
CUT
100
AcDbCircle
 10
419.9384117131418
 20
367.3030127374576
 30
0.0
 40
2.209548806101552
100
AcDbArc
 50
2.179116179732334
 51
4.011262136621108
  0
LINE
  5
376
330
1F
100
AcDbEntity
  8
CUT
100
AcDbLine
 10
385.1314985326478
 20
380.6631907305569
 30
0.0
 11
385.1314985326478
 21
380.6631907305569
 31
0.0
  0
ARC
  5
377
330
1F
100
AcDbEntity
  8
CUT
100
AcDbCircle
 10
403.9728001152673
 20
386.9237621913266
 30
0.0
 40
19.85420359376394
100
AcDbArc
 50
196.958161474859
 51
198.3805708258137
  0
ARC
  5
378
330
1F
100
AcDbEntity
  8
CUT
100
AcDbCircle
 10
422.6458588144387
 20
414.2618397418001
 30
0.0
 40
48.97290645271823
100
AcDbArc
 50
263.9625997728122
 51
264.3026763978087
  0
ARC
  5
379
330
1F
100
AcDbEntity
  8
CUT
100
AcDbCircle
 10
438.4531412345421
 20
562.1983046547844
 30
0.0
 40
197.7514717387662
100
AcDbArc
 50
263.6611336619218
 51
263.9162416840892
  0
LINE
  5
37A
330
1F
100
AcDbEntity
  8
CUT
100
AcDbLine
 10
415.9213419955403
 20
380.5050028158984
 30
0.0
 11
415.9213419955403
 21
380.5050028158984
 31
0.0
  0
ARC
  5
37B
330
1F
100
AcDbEntity
  8
CUT
100
AcDbCircle
 10
402.0387066073122
 20
365.5770964125721
 30
0.0
 40
20.38553298074281
100
AcDbArc
 50
32.3100707228884
 51
47.07782835903166
  0
ENDSEC
  0
SECTION
  2
OBJECTS
  0
DICTIONARY
  5
C
330
0
100
AcDbDictionary
281
     1
  3
ACAD_CIP_PREVIOUS_PRODUCT_INFO
350
2AF
  3
ACAD_COLOR
350
2A9
  3
ACAD_DETAILVIEWSTYLE
350
2A5
  3
ACAD_FIELDLIST
350
319
  3
ACAD_GROUP
350
D
  3
ACAD_IMAGE_DICT
350
FC
  3
ACAD_IMAGE_VARS
350
2AE
  3
ACAD_LAYOUT
350
1A
  3
ACAD_MATERIAL
350
43
  3
ACAD_MLEADERSTYLE
350
6B
  3
ACAD_MLINESTYLE
350
17
  3
ACAD_PLOTSETTINGS
350
19
  3
ACAD_PLOTSTYLENAME
350
E
  3
ACAD_SCALELIST
350
47
  3
ACAD_SECTIONVIEWSTYLE
350
2A6
  3
ACAD_TABLESTYLE
350
69
  3
ACAD_VISUALSTYLE
350
2A
  3
ACDB_RECOMPOSE_DATA
350
3A8
  3
AcDbVariableDictionary
350
262
  3
AcmDictionary
350
2DB
  3
AMG
350
2B0
  3
AMGSNAPSETTINGS
350
323
  0
DICTIONARY
  5
38A
330
10
100
AcDbDictionary
280
     1
281
     1
  3
ADSK_XREC_LAYER_RECONCILED
360
38B
  0
DICTIONARY
  5
38C
330
76
100
AcDbDictionary
280
     1
281
     1
  3
ADSK_XREC_LAYER_RECONCILED
360
38D
  0
DICTIONARY
  5
38E
330
37C
100
AcDbDictionary
280
     1
281
     1
  3
ADSK_XREC_LAYER_RECONCILED
360
38F
  0
DICTIONARY
  5
390
330
37D
100
AcDbDictionary
280
     1
281
     1
  3
ADSK_XREC_LAYER_RECONCILED
360
391
  0
DICTIONARY
  5
392
330
37E
100
AcDbDictionary
280
     1
281
     1
  3
ADSK_XREC_LAYER_RECONCILED
360
393
  0
DICTIONARY
  5
394
330
380
100
AcDbDictionary
280
     1
281
     1
  3
ADSK_XREC_LAYER_RECONCILED
360
395
  0
DICTIONARY
  5
396
330
381
100
AcDbDictionary
280
     1
281
     1
  3
ADSK_XREC_LAYER_RECONCILED
360
397
  0
DICTIONARY
  5
398
330
383
100
AcDbDictionary
280
     1
281
     1
  3
ADSK_XREC_LAYER_RECONCILED
360
399
  0
DICTIONARY
  5
39A
330
384
100
AcDbDictionary
280
     1
281
     1
  3
ADSK_XREC_LAYER_RECONCILED
360
39B
  0
DICTIONARY
  5
39C
330
385
100
AcDbDictionary
280
     1
281
     1
  3
ADSK_XREC_LAYER_RECONCILED
360
39D
  0
DICTIONARY
  5
39E
330
386
100
AcDbDictionary
280
     1
281
     1
  3
ADSK_XREC_LAYER_RECONCILED
360
39F
  0
DICTIONARY
  5
3A0
330
387
100
AcDbDictionary
280
     1
281
     1
  3
ADSK_XREC_LAYER_RECONCILED
360
3A1
  0
DICTIONARY
  5
3A2
330
388
100
AcDbDictionary
280
     1
281
     1
  3
ADSK_XREC_LAYER_RECONCILED
360
3A3
  0
DICTIONARY
  5
32A
330
1F
100
AcDbDictionary
280
     1
281
     1
  3
ACAD_SORTENTS
360
32B
  0
XRECORD
  5
2AF
102
{ACAD_REACTORS
330
C
102
}
330
C
100
AcDbXrecord
280
     1
300
AMECH_PP
300
2019
300
87089AMECH_PP_2019_0F
  0
DICTIONARY
  5
2A9
102
{ACAD_REACTORS
330
C
102
}
330
C
100
AcDbDictionary
281
     1
  0
DICTIONARY
  5
2A5
102
{ACAD_REACTORS
330
C
102
}
330
C
100
AcDbDictionary
281
     1
  3
Metric50
350
2AB
  0
FIELDLIST
  5
319
102
{ACAD_REACTORS
330
C
102
}
330
C
100
AcDbIdSet
 90
        3
330
317
330
318
330
31A
100
AcDbFieldList
  0
DICTIONARY
  5
D
102
{ACAD_REACTORS
330
C
102
}
330
C
100
AcDbDictionary
281
     1
  3
NULOVY_BOD
350
389
  0
DICTIONARY
  5
FC
102
{ACAD_REACTORS
330
C
102
}
330
C
100
AcDbDictionary
281
     1
  3
40L2R100B40-SZP40-C_115009859ndi000_00-2D_DormerPramet_jpg
350
FD
  0
RASTERVARIABLES
  5
2AE
102
{ACAD_REACTORS
330
C
102
}
330
C
100
AcDbRasterVariables
 90
        0
 70
     1
 71
     1
 72
     1
  0
DICTIONARY
  5
1A
102
{ACAD_REACTORS
330
C
102
}
330
C
100
AcDbDictionary
281
     1
  3
Layout1
350
1E
  3
Layout2
350
26
  3
Model
350
22
  0
DICTIONARY
  5
43
102
{ACAD_REACTORS
330
C
102
}
330
C
100
AcDbDictionary
281
     1
  3
ByBlock
350
45
  3
ByLayer
350
44
  3
Global
350
46
  0
DICTIONARY
  5
6B
102
{ACAD_REACTORS
330
C
102
}
330
C
100
AcDbDictionary
281
     1
  3
Standard
350
6C
  0
DICTIONARY
  5
17
102
{ACAD_REACTORS
330
C
102
}
330
C
100
AcDbDictionary
281
     1
  3
Standard
350
18
  0
DICTIONARY
  5
19
102
{ACAD_REACTORS
330
C
102
}
330
C
100
AcDbDictionary
281
     1
  0
ACDBDICTIONARYWDFLT
  5
E
102
{ACAD_REACTORS
330
C
102
}
330
C
100
AcDbDictionary
281
     1
  3
Normal
350
F
100
AcDbDictionaryWithDefault
340
F
  0
DICTIONARY
  5
47
102
{ACAD_REACTORS
330
C
102
}
330
C
100
AcDbDictionary
281
     1
  3
A0
350
48
  3
A1
350
49
  3
A2
350
4A
  3
A3
350
4B
  3
A4
350
4C
  3
A5
350
4D
  3
A6
350
4E
  3
A7
350
4F
  3
A8
350
50
  3
A9
350
51
  3
B0
350
52
  3
B1
350
53
  3
B2
350
54
  3
B3
350
55
  3
B4
350
56
  3
B5
350
57
  3
B6
350
58
  3
B7
350
59
  3
B8
350
5A
  3
B9
350
5B
  3
C0
350
5C
  3
C1
350
5D
  3
C2
350
5E
  3
C3
350
5F
  3
C4
350
60
  3
C5
350
61
  3
C6
350
62
  3
C7
350
63
  3
C8
350
64
  3
C9
350
65
  3
D0
350
66
  3
D1
350
67
  3
D2
350
68
  0
DICTIONARY
  5
2A6
102
{ACAD_REACTORS
330
C
102
}
330
C
100
AcDbDictionary
281
     1
  3
Metric50
350
2AA
  0
DICTIONARY
  5
69
102
{ACAD_REACTORS
330
C
102
}
330
C
100
AcDbDictionary
281
     1
  3
Standard
350
6A
  0
DICTIONARY
  5
2A
102
{ACAD_REACTORS
330
C
102
}
330
C
100
AcDbDictionary
281
     1
  3
2dWireframe
350
2F
  3
Basic
350
32
  3
Brighten
350
36
  3
ColorChange
350
3A
  3
Conceptual
350
34
  3
Dim
350
35
  3
EdgeColorOff
350
3D
  3
Facepattern
350
39
  3
Flat
350
2B
  3
FlatWithEdges
350
2C
  3
Gouraud
350
2D
  3
GouraudWithEdges
350
2E
  3
Hidden
350
31
  3
JitterOff
350
3B
  3
Linepattern
350
38
  3
OverhangOff
350
3C
  3
Realistic
350
33
  3
Shaded
350
42
  3
Shaded with edges
350
41
  3
Shades of Gray
350
3E
  3
Sketchy
350
3F
  3
Thicken
350
37
  3
Wireframe
350
30
  3
X-Ray
350
40
  0
XRECORD
  5
3A8
102
{ACAD_REACTORS
330
C
102
}
330
C
100
AcDbXrecord
280
     1
 90
        1
330
6A
  0
DICTIONARY
  5
262
102
{ACAD_REACTORS
330
C
102
}
330
C
100
AcDbDictionary
281
     1
  3
CANNOSCALE
350
263
  3
CMLEADERSTYLE
350
2A4
  3
CTABLESTYLE
350
2A3
  3
CVIEWDETAILSTYLE
350
3A4
  3
CVIEWSECTIONSTYLE
350
3A5
  3
MSLTSCALE
350
264
  3
XCLIPFRAME
350
3A6
  0
DICTIONARY
  5
2DB
102
{ACAD_REACTORS
330
C
102
}
330
C
100
AcDbDictionary
281
     1
  3
AcmStdDictionary
350
2E2
  0
DICTIONARY
  5
2B0
102
{ACAD_REACTORS
330
C
102
}
330
C
100
AcDbDictionary
281
     1
  0
DICTIONARY
  5
323
102
{ACAD_REACTORS
330
C
102
}
330
C
100
AcDbDictionary
281
     1
  0
XRECORD
  5
38B
102
{ACAD_REACTORS
330
38A
102
}
330
38A
100
AcDbXrecord
280
     1
290
     1
  0
XRECORD
  5
38D
102
{ACAD_REACTORS
330
38C
102
}
330
38C
100
AcDbXrecord
280
     1
290
     1
  0
XRECORD
  5
38F
102
{ACAD_REACTORS
330
38E
102
}
330
38E
100
AcDbXrecord
280
     1
290
     1
  0
XRECORD
  5
391
102
{ACAD_REACTORS
330
390
102
}
330
390
100
AcDbXrecord
280
     1
290
     1
  0
XRECORD
  5
393
102
{ACAD_REACTORS
330
392
102
}
330
392
100
AcDbXrecord
280
     1
290
     1
  0
XRECORD
  5
395
102
{ACAD_REACTORS
330
394
102
}
330
394
100
AcDbXrecord
280
     1
290
     1
  0
XRECORD
  5
397
102
{ACAD_REACTORS
330
396
102
}
330
396
100
AcDbXrecord
280
     1
290
     1
  0
XRECORD
  5
399
102
{ACAD_REACTORS
330
398
102
}
330
398
100
AcDbXrecord
280
     1
290
     1
  0
XRECORD
  5
39B
102
{ACAD_REACTORS
330
39A
102
}
330
39A
100
AcDbXrecord
280
     1
290
     1
  0
XRECORD
  5
39D
102
{ACAD_REACTORS
330
39C
102
}
330
39C
100
AcDbXrecord
280
     1
290
     1
  0
XRECORD
  5
39F
102
{ACAD_REACTORS
330
39E
102
}
330
39E
100
AcDbXrecord
280
     1
290
     1
  0
XRECORD
  5
3A1
102
{ACAD_REACTORS
330
3A0
102
}
330
3A0
100
AcDbXrecord
280
     1
290
     1
  0
XRECORD
  5
3A3
102
{ACAD_REACTORS
330
3A2
102
}
330
3A2
100
AcDbXrecord
280
     1
290
     1
  0
SORTENTSTABLE
  5
32B
102
{ACAD_REACTORS
330
32A
102
}
330
32A
100
AcDbSortentsTable
330
1F
331
32C
  5
1EF
331
32D
  5
235
331
32E
  5
32C
331
32F
  5
32D
331
330
  5
32E
331
331
  5
32F
331
332
  5
337
331
333
  5
338
331
334
  5
339
331
335
  5
33A
331
336
  5
33B
331
337
  5
33D
331
338
  5
33E
331
339
  5
33F
331
33A
  5
340
331
33B
  5
341
331
33C
  5
342
331
33D
  5
331
331
33E
  5
332
331
33F
  5
333
331
340
  5
334
331
341
  5
335
331
342
  5
336
331
34C
  5
360
331
352
  5
36B
331
35E
  5
374
331
35F
  5
375
331
360
  5
376
331
361
  5
377
331
362
  5
378
331
363
  5
379
331
364
  5
37A
331
365
  5
37B
331
366
  5
34C
331
367
  5
352
331
368
  5
35E
331
369
  5
35F
331
36A
  5
361
331
36B
  5
362
331
36C
  5
363
331
36D
  5
364
331
36E
  5
365
331
36F
  5
366
331
370
  5
367
331
371
  5
368
331
372
  5
369
331
373
  5
36A
331
374
  5
36C
331
375
  5
36D
331
376
  5
36E
331
377
  5
36F
331
378
  5
370
331
379
  5
371
331
37A
  5
372
331
37B
  5
373
  0
ACDBDETAILVIEWSTYLE
  5
2AB
102
{ACAD_XDICTIONARY
360
3DC
102
}
102
{ACAD_REACTORS
330
2A5
330
30D
102
}
330
2A5
100
AcDbModelDocViewStyle
 70
     0
  3
Metric50
290
     0
100
AcDbDetailViewStyle
 70
     0
 71
     0
 90
        3
 71
     1
340
11
 62
   256
 40
5.0
340
0
 62
   256
 40
5.0
300

 40
0.0
280
     1
 71
     2
340
16
 90
       25
 62
   256
 71
     3
340
11
 62
   256
 40
5.0
 90
        0
 40
15.0
 90
        1
300
%<\AcVar ViewDetailId>% (%<\AcVar ViewScale \f "%sn">%)
 71
     4
340
16
 90
       25
 62
   256
340
16
 90
       25
 62
   256
280
     0
  0
GROUP
  5
389
102
{ACAD_REACTORS
330
D
102
}
330
D
100
AcDbGroup
300

 70
     0
 71
     1
340
73
  0
IMAGEDEF
  5
FD
102
{ACAD_REACTORS
330
FC
330
100
102
}
330
FC
100
AcDbRasterImageDef
 90
        0
  1
R:\Katalog\Data\ZP\40L2R100B40-SZP40-C\40L2R100B40-SZP40-C_115009859ndi000_00-2D_DormerPramet.jpg
 10
2089.0
 20
531.0
 11
0.0004786979415989
 21
0.0004786979415989
280
     1
281
     0
  0
LAYOUT
  5
1E
102
{ACAD_REACTORS
330
1A
102
}
330
1A
100
AcDbPlotSettings
  1

  2
none_device
  4

  6

 40
0.0
 41
0.0
 42
0.0
 43
0.0
 44
0.0
 45
0.0
 46
0.0
 47
0.0
 48
0.0
 49
0.0
140
0.0
141
0.0
142
1.0
143
1.0
 70
   688
 72
     0
 73
     0
 74
     5
  7

 75
    16
147
1.0
 76
     0
 77
     2
 78
   300
148
0.0
149
0.0
100
AcDbLayout
  1
Layout1
 70
     1
 71
     1
 10
-0.5
 20
-0.5
 11
5.0
 21
5.0
 12
0.0
 22
0.0
 32
0.0
 14
-0.5
 24
-0.5
 34
-0.5
 15
5.0
 25
5.0
 35
5.0
146
0.0
 13
0.0
 23
0.0
 33
0.0
 16
1.0
 26
0.0
 36
0.0
 17
0.0
 27
1.0
 37
0.0
 76
     0
330
1B
  0
LAYOUT
  5
26
102
{ACAD_REACTORS
330
1A
102
}
330
1A
100
AcDbPlotSettings
  1

  2
none_device
  4

  6

 40
0.0
 41
0.0
 42
0.0
 43
0.0
 44
0.0
 45
0.0
 46
0.0
 47
0.0
 48
0.0
 49
0.0
140
0.0
141
0.0
142
1.0
143
1.0
 70
   688
 72
     0
 73
     0
 74
     5
  7

 75
    16
147
1.0
 76
     0
 77
     2
 78
   300
148
0.0
149
0.0
100
AcDbLayout
  1
Layout2
 70
     1
 71
     2
 10
0.0
 20
0.0
 11
0.0
 21
0.0
 12
0.0
 22
0.0
 32
0.0
 14
0.0
 24
0.0
 34
0.0
 15
0.0
 25
0.0
 35
0.0
146
0.0
 13
0.0
 23
0.0
 33
0.0
 16
1.0
 26
0.0
 36
0.0
 17
0.0
 27
1.0
 37
0.0
 76
     0
330
23
  0
LAYOUT
  5
22
102
{ACAD_REACTORS
330
1A
102
}
330
1A
100
AcDbPlotSettings
  1

  2
none_device
  4
Letter_(8.50_x_11.00_Inches)
  6

 40
6.349999999999999
 41
6.349999999999999
 42
6.350005
 43
6.350005
 44
215.9
 45
279.4
 46
0.0
 47
0.0
 48
0.0
 49
0.0
140
0.0
141
0.0
142
1.0
143
1.0
 70
  1712
 72
     0
 73
     0
 74
     0
  7

 75
     0
147
1.0
 76
     0
 77
     2
 78
   300
148
0.0
149
0.0
100
AcDbLayout
  1
Model
 70
     1
 71
     0
 10
-0.5
 20
-0.5
 11
5.0
 21
5.0
 12
0.0
 22
0.0
 32
0.0
 14
-0.5
 24
-0.5
 34
-0.5
 15
5.0
 25
5.0
 35
5.0
146
0.0
 13
0.0
 23
0.0
 33
0.0
 16
1.0
 26
0.0
 36
0.0
 17
0.0
 27
1.0
 37
0.0
 76
     0
330
1F
331
29
  0
MATERIAL
  5
45
102
{ACAD_XDICTIONARY
360
298
102
}
102
{ACAD_REACTORS
330
43
102
}
330
43
100
AcDbMaterial
  1
ByBlock
  0
MATERIAL
  5
44
102
{ACAD_XDICTIONARY
360
296
102
}
102
{ACAD_REACTORS
330
43
102
}
330
43
100
AcDbMaterial
  1
ByLayer
  0
MATERIAL
  5
46
102
{ACAD_XDICTIONARY
360
29A
102
}
102
{ACAD_REACTORS
330
43
102
}
330
43
100
AcDbMaterial
  1
Global
  0
MLEADERSTYLE
  5
6C
102
{ACAD_REACTORS
330
6B
102
}
330
6B
100
AcDbMLeaderStyle
170
     2
171
     1
172
     0
 90
        2
 40
0.0
 41
0.0
173
     1
 91
-1056964608
340
14
 92
       -2
290
     1
 42
0.09
291
     1
 43
0.36
  3
Standard
 44
0.18
300

342
11
174
     1
178
     6
175
     1
176
     0
 93
-1056964608
 45
0.18
292
     0
297
     0
 46
0.18
 94
-1056964608
 47
1.0
 49
1.0
140
1.0
293
     1
141
0.0
294
     1
177
     0
142
1.0
295
     0
296
     0
143
0.125
1001
ACAD_MLEADERVER
1070
     2
  0
MLINESTYLE
  5
18
102
{ACAD_REACTORS
330
17
102
}
330
17
100
AcDbMlineStyle
  2
STANDARD
 70
     0
  3

 62
   256
 51
90.0
 52
90.0
 71
     2
 49
0.5
 62
   256
  6
BYLAYER
 49
-0.5
 62
   256
  6
BYLAYER
  0
ACDBPLACEHOLDER
  5
F
102
{ACAD_REACTORS
330
E
102
}
330
E
  0
SCALE
  5
48
102
{ACAD_REACTORS
330
47
102
}
330
47
100
AcDbScale
 70
     0
300
1:1
140
1.0
141
1.0
290
     1
  0
SCALE
  5
49
102
{ACAD_REACTORS
330
47
102
}
330
47
100
AcDbScale
 70
     0
300
1:2
140
1.0
141
2.0
290
     0
  0
SCALE
  5
4A
102
{ACAD_REACTORS
330
47
102
}
330
47
100
AcDbScale
 70
     0
300
1:4
140
1.0
141
4.0
290
     0
  0
SCALE
  5
4B
102
{ACAD_REACTORS
330
47
102
}
330
47
100
AcDbScale
 70
     0
300
1:5
140
1.0
141
5.0
290
     0
  0
SCALE
  5
4C
102
{ACAD_REACTORS
330
47
102
}
330
47
100
AcDbScale
 70
     0
300
1:8
140
1.0
141
8.0
290
     0
  0
SCALE
  5
4D
102
{ACAD_REACTORS
330
47
102
}
330
47
100
AcDbScale
 70
     0
300
1:10
140
1.0
141
10.0
290
     0
  0
SCALE
  5
4E
102
{ACAD_REACTORS
330
47
102
}
330
47
100
AcDbScale
 70
     0
300
1:16
140
1.0
141
16.0
290
     0
  0
SCALE
  5
4F
102
{ACAD_REACTORS
330
47
102
}
330
47
100
AcDbScale
 70
     0
300
1:20
140
1.0
141
20.0
290
     0
  0
SCALE
  5
50
102
{ACAD_REACTORS
330
47
102
}
330
47
100
AcDbScale
 70
     0
300
1:30
140
1.0
141
30.0
290
     0
  0
SCALE
  5
51
102
{ACAD_REACTORS
330
47
102
}
330
47
100
AcDbScale
 70
     0
300
1:40
140
1.0
141
40.0
290
     0
  0
SCALE
  5
52
102
{ACAD_REACTORS
330
47
102
}
330
47
100
AcDbScale
 70
     0
300
1:50
140
1.0
141
50.0
290
     0
  0
SCALE
  5
53
102
{ACAD_REACTORS
330
47
102
}
330
47
100
AcDbScale
 70
     0
300
1:100
140
1.0
141
100.0
290
     0
  0
SCALE
  5
54
102
{ACAD_REACTORS
330
47
102
}
330
47
100
AcDbScale
 70
     0
300
2:1
140
2.0
141
1.0
290
     0
  0
SCALE
  5
55
102
{ACAD_REACTORS
330
47
102
}
330
47
100
AcDbScale
 70
     0
300
4:1
140
4.0
141
1.0
290
     0
  0
SCALE
  5
56
102
{ACAD_REACTORS
330
47
102
}
330
47
100
AcDbScale
 70
     0
300
8:1
140
8.0
141
1.0
290
     0
  0
SCALE
  5
57
102
{ACAD_REACTORS
330
47
102
}
330
47
100
AcDbScale
 70
     0
300
10:1
140
10.0
141
1.0
290
     0
  0
SCALE
  5
58
102
{ACAD_REACTORS
330
47
102
}
330
47
100
AcDbScale
 70
     0
300
100:1
140
100.0
141
1.0
290
     0
  0
SCALE
  5
59
102
{ACAD_REACTORS
330
47
102
}
330
47
100
AcDbScale
 70
     0
300
1/128" = 1'-0"
140
0.007812
141
12.0
290
     0
  0
SCALE
  5
5A
102
{ACAD_REACTORS
330
47
102
}
330
47
100
AcDbScale
 70
     0
300
1/64" = 1'-0"
140
0.015625
141
12.0
290
     0
  0
SCALE
  5
5B
102
{ACAD_REACTORS
330
47
102
}
330
47
100
AcDbScale
 70
     0
300
1/32" = 1'-0"
140
0.03125
141
12.0
290
     0
  0
SCALE
  5
5C
102
{ACAD_REACTORS
330
47
102
}
330
47
100
AcDbScale
 70
     0
300
1/16" = 1'-0"
140
0.0625
141
12.0
290
     0
  0
SCALE
  5
5D
102
{ACAD_REACTORS
330
47
102
}
330
47
100
AcDbScale
 70
     0
300
3/32" = 1'-0"
140
0.09375
141
12.0
290
     0
  0
SCALE
  5
5E
102
{ACAD_REACTORS
330
47
102
}
330
47
100
AcDbScale
 70
     0
300
1/8" = 1'-0"
140
0.125
141
12.0
290
     0
  0
SCALE
  5
5F
102
{ACAD_REACTORS
330
47
102
}
330
47
100
AcDbScale
 70
     0
300
3/16" = 1'-0"
140
0.1875
141
12.0
290
     0
  0
SCALE
  5
60
102
{ACAD_REACTORS
330
47
102
}
330
47
100
AcDbScale
 70
     0
300
1/4" = 1'-0"
140
0.25
141
12.0
290
     0
  0
SCALE
  5
61
102
{ACAD_REACTORS
330
47
102
}
330
47
100
AcDbScale
 70
     0
300
3/8" = 1'-0"
140
0.375
141
12.0
290
     0
  0
SCALE
  5
62
102
{ACAD_REACTORS
330
47
102
}
330
47
100
AcDbScale
 70
     0
300
1/2" = 1'-0"
140
0.5
141
12.0
290
     0
  0
SCALE
  5
63
102
{ACAD_REACTORS
330
47
102
}
330
47
100
AcDbScale
 70
     0
300
3/4" = 1'-0"
140
0.75
141
12.0
290
     0
  0
SCALE
  5
64
102
{ACAD_REACTORS
330
47
102
}
330
47
100
AcDbScale
 70
     0
300
1" = 1'-0"
140
1.0
141
12.0
290
     0
  0
SCALE
  5
65
102
{ACAD_REACTORS
330
47
102
}
330
47
100
AcDbScale
 70
     0
300
1-1/2" = 1'-0"
140
1.5
141
12.0
290
     0
  0
SCALE
  5
66
102
{ACAD_REACTORS
330
47
102
}
330
47
100
AcDbScale
 70
     0
300
3" = 1'-0"
140
3.0
141
12.0
290
     0
  0
SCALE
  5
67
102
{ACAD_REACTORS
330
47
102
}
330
47
100
AcDbScale
 70
     0
300
6" = 1'-0"
140
6.0
141
12.0
290
     0
  0
SCALE
  5
68
102
{ACAD_REACTORS
330
47
102
}
330
47
100
AcDbScale
 70
     0
300
1'-0" = 1'-0"
140
12.0
141
12.0
290
     0
  0
ACDBSECTIONVIEWSTYLE
  5
2AA
102
{ACAD_XDICTIONARY
360
3DA
102
}
102
{ACAD_REACTORS
330
2A6
330
30C
102
}
330
2A6
100
AcDbModelDocViewStyle
 70
     0
  3
Metric50
290
     0
100
AcDbSectionViewStyle
 70
     0
 71
     0
 90
      102
 71
     1
340
11
 62
   256
 40
5.0
340
0
340
0
 62
   256
 40
5.0
300
I, O, Q, S, X, Z
 40
10.0
 90
        0
 40
2.5
 90
        0
 71
     2
340
16
 90
       25
 62
   256
340
16
 90
       50
 62
   256
 40
5.0
 40
2.5
 40
5.0
 71
     3
340
11
 62
   256
 40
5.0
 90
        0
 40
15.0
 90
        1
300
%<\AcVar ViewSectionStartId>%-%<\AcVar ViewSectionEndId>% (%<\AcVar ViewScale \f "%sn">%)
 71
     4
 62
   256
 62
   257
300
ANSI31
 40
1.0
 90
        0
290
     0
290
     0
 90
        6
 40
0.0
 40
1.570796326794896
 40
0.2617993877991494
 40
1.308996938995747
 40
-0.2617993877991494
 40
1.832595714594046
  0
TABLESTYLE
  5
6A
102
{ACAD_XDICTIONARY
360
29C
102
}
102
{ACAD_REACTORS
330
69
102
}
330
69
100
AcDbTableStyle
  3
Standard
 70
     0
 71
     0
 40
0.06
 41
0.06
280
     0
281
     0
  7
Standard
140
0.18
170
     2
 62
     0
 63
     7
283
     0
274
    -2
284
     1
 64
     0
275
    -2
285
     1
 65
     0
276
    -2
286
     1
 66
     0
277
    -2
287
     1
 67
     0
278
    -2
288
     1
 68
     0
279
    -2
289
     1
 69
     0
  7
Standard
140
0.25
170
     5
 62
     0
 63
     7
283
     0
274
    -2
284
     1
 64
     0
275
    -2
285
     1
 65
     0
276
    -2
286
     1
 66
     0
277
    -2
287
     1
 67
     0
278
    -2
288
     1
 68
     0
279
    -2
289
     1
 69
     0
  7
Standard
140
0.18
170
     5
 62
     0
 63
     7
283
     0
274
    -2
284
     1
 64
     0
275
    -2
285
     1
 65
     0
276
    -2
286
     1
 66
     0
277
    -2
287
     1
 67
     0
278
    -2
288
     1
 68
     0
279
    -2
289
     1
 69
     0
  0
VISUALSTYLE
  5
2F
102
{ACAD_XDICTIONARY
360
3B1
102
}
102
{ACAD_REACTORS
330
2A
102
}
330
2A
100
AcDbVisualStyle
  2

 70
     4
 71
     0
 72
     2
 73
     0
 90
        0
 40
-0.6
 41
-30.0
 62
     5
 63
     7
421
 16777215
 74
     1
 91
        4
 64
     7
 65
   257
 75
     1
175
     1
 42
1.0
 92
        0
 66
   257
 43
1.0
 76
     1
 77
     6
 78
     2
 67
     7
 79
     5
170
     0
171
     0
290
     0
174
     0
 93
        1
 44
0.0
173
     0
291
     0
 45
0.0
1001
ACAD
1000
AcDbSavedByObjectVersion
1070
     0
  0
VISUALSTYLE
  5
32
102
{ACAD_XDICTIONARY
360
3B7
102
}
102
{ACAD_REACTORS
330
2A
102
}
330
2A
100
AcDbVisualStyle
  2

 70
     7
 71
     1
 72
     0
 73
     1
 90
        0
 40
-0.6
 41
-30.0
 62
     5
 63
     7
421
 16777215
 74
     0
 91
        4
 64
     7
 65
   257
 75
     1
175
     1
 42
1.0
 92
        8
 66
     7
 43
1.0
 76
     1
 77
     6
 78
     2
 67
     7
 79
     5
170
     0
171
     0
290
     0
174
     0
 93
        1
 44
0.0
173
     0
291
     1
 45
0.0
1001
ACAD
1000
AcDbSavedByObjectVersion
1070
     0
  0
VISUALSTYLE
  5
36
102
{ACAD_XDICTIONARY
360
3BF
102
}
102
{ACAD_REACTORS
330
2A
102
}
330
2A
100
AcDbVisualStyle
  2

 70
    12
 71
     2
 72
     2
 73
     0
 90
        0
 40
-0.6
 41
-30.0
 62
     5
 63
     7
421
 16777215
 74
     1
 91
        4
 64
     7
 65
   257
 75
     1
175
     1
 42
1.0
 92
        8
 66
     7
 43
1.0
 76
     1
 77
     6
 78
     2
 67
     7
 79
     5
170
     0
171
     0
290
     0
174
     0
 93
        1
 44
50.0
173
     0
291
     1
 45
0.0
1001
ACAD
1000
AcDbSavedByObjectVersion
1070
     0
  0
VISUALSTYLE
  5
3A
102
{ACAD_XDICTIONARY
360
3C7
102
}
102
{ACAD_REACTORS
330
2A
102
}
330
2A
100
AcDbVisualStyle
  2

 70
    16
 71
     2
 72
     2
 73
     3
 90
        0
 40
-0.6
 41
-30.0
 62
     5
 63
     8
421
  8421504
 74
     1
 91
        4
 64
     7
 65
   257
 75
     1
175
     1
 42
1.0
 92
        8
 66
     8
424
  8421504
 43
1.0
 76
     1
 77
     6
 78
     2
 67
     7
 79
     5
170
     0
171
     0
290
     0
174
     0
 93
        1
 44
0.0
173
     0
291
     1
 45
0.0
1001
ACAD
1000
AcDbSavedByObjectVersion
1070
     0
  0
VISUALSTYLE
  5
34
102
{ACAD_XDICTIONARY
360
3BB
102
}
102
{ACAD_REACTORS
330
2A
102
}
330
2A
100
AcDbVisualStyle
  2

 70
     9
 71
     3
 72
     2
 73
     0
 90
        0
 40
-0.6
 41
-30.0
 62
     5
 63
     7
421
 16777215
 74
     2
 91
        2
 64
     7
 65
   257
 75
     1
175
     1
 42
179.0
 92
        8
 66
     7
 43
1.0
 76
     1
 77
     6
 78
     2
 67
     7
 79
     3
170
     0
171
     0
290
     0
174
     0
 93
        1
 44
0.0
173
     0
291
     0
 45
0.0
1001
ACAD
1000
AcDbSavedByObjectVersion
1070
     0
  0
VISUALSTYLE
  5
35
102
{ACAD_XDICTIONARY
360
3BD
102
}
102
{ACAD_REACTORS
330
2A
102
}
330
2A
100
AcDbVisualStyle
  2

 70
    11
 71
     2
 72
     2
 73
     0
 90
        0
 40
-0.6
 41
-30.0
 62
     5
 63
     7
421
 16777215
 74
     1
 91
        4
 64
     7
 65
   257
 75
     1
175
     1
 42
1.0
 92
        8
 66
     7
 43
1.0
 76
     1
 77
     6
 78
     2
 67
     7
 79
     5
170
     0
171
     0
290
     0
174
     0
 93
        1
 44
-50.0
173
     0
291
     1
 45
0.0
1001
ACAD
1000
AcDbSavedByObjectVersion
1070
     0
  0
VISUALSTYLE
  5
3D
102
{ACAD_XDICTIONARY
360
3CD
102
}
102
{ACAD_REACTORS
330
2A
102
}
330
2A
100
AcDbVisualStyle
  2

 70
    22
 71
     2
 72
     2
 73
     0
 90
        0
 40
-0.6
 41
-30.0
 62
     5
 63
     7
421
 16777215
 74
     1
 91
        4
 64
     7
 65
   257
 75
     1
175
     1
 42
1.0
 92
        8
 66
     7
 43
1.0
 76
     1
 77
     6
 78
     2
 67
     7
 79
     5
170
     0
171
     0
290
     0
174
     0
 93
        1
 44
0.0
173
     0
291
     1
 45
0.0
1001
ACAD
1000
AcDbSavedByObjectVersion
1070
     0
  0
VISUALSTYLE
  5
39
102
{ACAD_XDICTIONARY
360
3C5
102
}
102
{ACAD_REACTORS
330
2A
102
}
330
2A
100
AcDbVisualStyle
  2

 70
    15
 71
     2
 72
     2
 73
     0
 90
        0
 40
-0.6
 41
-30.0
 62
     5
 63
     7
421
 16777215
 74
     1
 91
        4
 64
     7
 65
   257
 75
     1
175
     1
 42
1.0
 92
        8
 66
     7
 43
1.0
 76
     1
 77
     6
 78
     2
 67
     7
 79
     5
170
     0
171
     0
290
     0
174
     0
 93
        1
 44
0.0
173
     0
291
     1
 45
0.0
1001
ACAD
1000
AcDbSavedByObjectVersion
1070
     0
  0
VISUALSTYLE
  5
2B
102
{ACAD_XDICTIONARY
360
3A9
102
}
102
{ACAD_REACTORS
330
2A
102
}
330
2A
100
AcDbVisualStyle
  2

 70
     0
 71
     2
 72
     1
 73
     1
 90
        2
 40
-0.6
 41
30.0
 62
     5
 63
     7
421
 16777215
 74
     0
 91
        0
 64
     7
 65
   257
 75
     1
175
     1
 42
1.0
 92
        8
 66
     7
 43
1.0
 76
     1
 77
     6
 78
     2
 67
     7
 79
     5
170
     0
171
     0
290
     0
174
     0
 93
       13
 44
0.0
173
     0
291
     1
 45
0.0
1001
ACAD
1000
AcDbSavedByObjectVersion
1070
     0
  0
VISUALSTYLE
  5
2C
102
{ACAD_XDICTIONARY
360
3AB
102
}
102
{ACAD_REACTORS
330
2A
102
}
330
2A
100
AcDbVisualStyle
  2

 70
     1
 71
     2
 72
     1
 73
     1
 90
        2
 40
-0.6
 41
30.0
 62
     5
 63
     7
421
 16777215
 74
     1
 91
        0
 64
     7
 65
   257
 75
     1
175
     1
 42
1.0
 92
        0
 66
   257
 43
1.0
 76
     1
 77
     6
 78
     2
 67
     7
 79
     5
170
     0
171
     0
290
     0
174
     0
 93
       13
 44
0.0
173
     0
291
     1
 45
0.0
1001
ACAD
1000
AcDbSavedByObjectVersion
1070
     0
  0
VISUALSTYLE
  5
2D
102
{ACAD_XDICTIONARY
360
3AD
102
}
102
{ACAD_REACTORS
330
2A
102
}
330
2A
100
AcDbVisualStyle
  2

 70
     2
 71
     2
 72
     2
 73
     1
 90
        2
 40
-0.6
 41
30.0
 62
     5
 63
     7
421
 16777215
 74
     0
 91
        0
 64
     7
 65
   257
 75
     1
175
     1
 42
1.0
 92
        0
 66
     7
 43
1.0
 76
     1
 77
     6
 78
     2
 67
     7
 79
     5
170
     0
171
     0
290
     0
174
     0
 93
       13
 44
0.0
173
     0
291
     1
 45
0.0
1001
ACAD
1000
AcDbSavedByObjectVersion
1070
     0
  0
VISUALSTYLE
  5
2E
102
{ACAD_XDICTIONARY
360
3AF
102
}
102
{ACAD_REACTORS
330
2A
102
}
330
2A
100
AcDbVisualStyle
  2

 70
     3
 71
     2
 72
     2
 73
     1
 90
        2
 40
-0.6
 41
30.0
 62
     5
 63
     7
421
 16777215
 74
     1
 91
        0
 64
     7
 65
   257
 75
     1
175
     1
 42
1.0
 92
        0
 66
   257
 43
1.0
 76
     1
 77
     6
 78
     2
 67
     7
 79
     5
170
     0
171
     0
290
     0
174
     0
 93
       13
 44
0.0
173
     0
291
     1
 45
0.0
1001
ACAD
1000
AcDbSavedByObjectVersion
1070
     0
  0
VISUALSTYLE
  5
31
102
{ACAD_XDICTIONARY
360
3B5
102
}
102
{ACAD_REACTORS
330
2A
102
}
330
2A
100
AcDbVisualStyle
  2

 70
     6
 71
     1
 72
     2
 73
     2
 90
        0
 40
-0.6
 41
-30.0
 62
     5
 63
     7
421
 16777215
 74
     2
 91
        2
 64
     7
 65
   257
 75
     2
175
     1
 42
40.0
 92
        0
 66
   257
 43
1.0
 76
     1
 77
     6
 78
     2
 67
     7
 79
     3
170
     0
171
     0
290
     0
174
     0
 93
        1
 44
0.0
173
     0
291
     0
 45
0.0
1001
ACAD
1000
AcDbSavedByObjectVersion
1070
     0
  0
VISUALSTYLE
  5
3B
102
{ACAD_XDICTIONARY
360
3C9
102
}
102
{ACAD_REACTORS
330
2A
102
}
330
2A
100
AcDbVisualStyle
  2

 70
    20
 71
     2
 72
     2
 73
     0
 90
        0
 40
-0.6
 41
-30.0
 62
     5
 63
     7
421
 16777215
 74
     1
 91
        4
 64
     7
 65
   257
 75
     1
175
     1
 42
1.0
 92
       10
 66
     7
 43
1.0
 76
     1
 77
     6
 78
     2
 67
     7
 79
     5
170
     0
171
     0
290
     0
174
     0
 93
        1
 44
0.0
173
     0
291
     1
 45
0.0
1001
ACAD
1000
AcDbSavedByObjectVersion
1070
     0
  0
VISUALSTYLE
  5
38
102
{ACAD_XDICTIONARY
360
3C3
102
}
102
{ACAD_REACTORS
330
2A
102
}
330
2A
100
AcDbVisualStyle
  2

 70
    14
 71
     2
 72
     2
 73
     0
 90
        0
 40
-0.6
 41
-30.0
 62
     5
 63
     7
421
 16777215
 74
     1
 91
        4
 64
     7
 65
   257
 75
     7
175
     7
 42
1.0
 92
        8
 66
     7
 43
1.0
 76
     1
 77
     6
 78
     2
 67
     7
 79
     5
170
     0
171
     0
290
     0
174
     0
 93
        1
 44
0.0
173
     0
291
     1
 45
0.0
1001
ACAD
1000
AcDbSavedByObjectVersion
1070
     0
  0
VISUALSTYLE
  5
3C
102
{ACAD_XDICTIONARY
360
3CB
102
}
102
{ACAD_REACTORS
330
2A
102
}
330
2A
100
AcDbVisualStyle
  2

 70
    21
 71
     2
 72
     2
 73
     0
 90
        0
 40
-0.6
 41
-30.0
 62
     5
 63
     7
421
 16777215
 74
     1
 91
        4
 64
     7
 65
   257
 75
     1
175
     1
 42
1.0
 92
        9
 66
     7
 43
1.0
 76
     1
 77
     6
 78
     2
 67
     7
 79
     5
170
     0
171
     0
290
     0
174
     0
 93
        1
 44
0.0
173
     0
291
     1
 45
0.0
1001
ACAD
1000
AcDbSavedByObjectVersion
1070
     0
  0
VISUALSTYLE
  5
33
102
{ACAD_XDICTIONARY
360
3B9
102
}
102
{ACAD_REACTORS
330
2A
102
}
330
2A
100
AcDbVisualStyle
  2

 70
     8
 71
     2
 72
     3
 73
     0
 90
        2
 40
-0.6
 41
30.0
 62
     5
 63
     7
421
 16777215
 74
     0
 91
        0
 64
     7
 65
   257
 75
     1
175
     1
 42
1.0
 92
        8
 66
   257
 43
1.0
 76
     1
 77
     6
 78
     2
 67
     7
 79
     3
170
     0
171
     0
290
     0
174
     0
 93
       13
 44
0.0
173
     0
291
     0
 45
0.0
1001
ACAD
1000
AcDbSavedByObjectVersion
1070
     0
  0
VISUALSTYLE
  5
42
102
{ACAD_XDICTIONARY
360
3D7
102
}
102
{ACAD_REACTORS
330
2A
102
}
330
2A
100
AcDbVisualStyle
  2

 70
    27
 71
     2
 72
     2
 73
     1
 90
        2
 40
-0.6
 41
30.0
 62
     5
 63
     7
421
 16777215
 74
     0
 91
        4
 64
     7
 65
   257
 75
     1
175
     1
 42
1.0
 92
        8
 66
   257
 43
1.0
 76
     1
 77
     6
 78
     2
 67
     8
425
  7895160
 79
     3
170
     0
171
     0
290
     0
174
     0
 93
        5
 44
0.0
173
     0
291
     0
 45
0.0
1001
ACAD
1000
AcDbSavedByObjectVersion
1070
     0
  0
VISUALSTYLE
  5
41
102
{ACAD_XDICTIONARY
360
3D5
102
}
102
{ACAD_REACTORS
330
2A
102
}
330
2A
100
AcDbVisualStyle
  2

 70
    26
 71
     2
 72
     2
 73
     1
 90
        2
 40
-0.6
 41
30.0
 62
     5
 63
     7
421
 16777215
 74
     1
 91
       10
 64
     7
 65
   257
 75
     2
175
     1
 42
1.0
 92
        8
 66
   257
 43
1.0
 76
     1
 77
     6
 78
     2
 67
     7
 79
     3
170
     0
171
     0
290
     0
174
     0
 93
        5
 44
0.0
173
     0
291
     0
 45
0.0
1001
ACAD
1000
AcDbSavedByObjectVersion
1070
     0
  0
VISUALSTYLE
  5
3E
102
{ACAD_XDICTIONARY
360
3CF
102
}
102
{ACAD_REACTORS
330
2A
102
}
330
2A
100
AcDbVisualStyle
  2

 70
    23
 71
     2
 72
     2
 73
     3
 90
        0
 40
-0.6
 41
-30.0
 62
     5
 63
     7
421
 16777215
 74
     2
 91
        2
 64
     7
 65
     7
 75
     1
175
     1
 42
40.0
 92
        8
 66
     7
 43
1.0
 76
     1
 77
     6
 78
     2
 67
     7
 79
     3
170
     0
171
     0
290
     0
174
     0
 93
        1
 44
0.0
173
     0
291
     0
 45
0.0
1001
ACAD
1000
AcDbSavedByObjectVersion
1070
     0
  0
VISUALSTYLE
  5
3F
102
{ACAD_XDICTIONARY
360
3D1
102
}
102
{ACAD_REACTORS
330
2A
102
}
330
2A
100
AcDbVisualStyle
  2

 70
    24
 71
     1
 72
     2
 73
     2
 90
        0
 40
-0.6
 41
-30.0
 62
     5
 63
     7
421
 16777215
 74
     2
 91
        2
 64
     7
 65
     7
 75
     1
175
     1
 42
40.0
 92
       11
 66
     7
 43
1.0
 76
     1
 77
     6
 78
     2
 67
     7
 79
     6
170
     0
171
     0
290
     0
174
     0
 93
        1
 44
0.0
173
     0
291
     0
 45
0.0
1001
ACAD
1000
AcDbSavedByObjectVersion
1070
     0
  0
VISUALSTYLE
  5
37
102
{ACAD_XDICTIONARY
360
3C1
102
}
102
{ACAD_REACTORS
330
2A
102
}
330
2A
100
AcDbVisualStyle
  2

 70
    13
 71
     2
 72
     2
 73
     0
 90
        0
 40
-0.6
 41
-30.0
 62
     5
 63
     7
421
 16777215
 74
     1
 91
        4
 64
     7
 65
   257
 75
     1
175
     1
 42
1.0
 92
       12
 66
     7
 43
1.0
 76
     1
 77
     6
 78
     2
 67
     7
 79
     5
170
     0
171
     0
290
     0
174
     0
 93
        1
 44
0.0
173
     0
291
     1
 45
0.0
1001
ACAD
1000
AcDbSavedByObjectVersion
1070
     0
  0
VISUALSTYLE
  5
30
102
{ACAD_XDICTIONARY
360
3B3
102
}
102
{ACAD_REACTORS
330
2A
102
}
330
2A
100
AcDbVisualStyle
  2

 70
     5
 71
     0
 72
     2
 73
     0
 90
        0
 40
-0.6
 41
-30.0
 62
     5
 63
     7
421
 16777215
 74
     1
 91
        4
 64
     7
 65
   257
 75
     1
175
     1
 42
1.0
 92
        0
 66
   257
 43
1.0
 76
     1
 77
     6
 78
     2
 67
     7
 79
     3
170
     0
171
     0
290
     0
174
     0
 93
        1
 44
0.0
173
     0
291
     0
 45
0.0
1001
ACAD
1000
AcDbSavedByObjectVersion
1070
     0
  0
VISUALSTYLE
  5
40
102
{ACAD_XDICTIONARY
360
3D3
102
}
102
{ACAD_REACTORS
330
2A
102
}
330
2A
100
AcDbVisualStyle
  2

 70
    25
 71
     2
 72
     2
 73
     1
 90
        1
 40
0.5
 41
-30.0
 62
     5
 63
     7
421
 16777215
 74
     1
 91
        0
 64
     7
 65
   257
 75
     1
175
     1
 42
1.0
 92
        8
 66
     7
 43
1.0
 76
     1
 77
     6
 78
     2
 67
     7
 79
     3
170
     0
171
     0
290
     0
174
     0
 93
       13
 44
0.0
173
     0
291
     0
 45
0.0
1001
ACAD
1000
AcDbSavedByObjectVersion
1070
     0
  0
DICTIONARYVAR
  5
263
102
{ACAD_REACTORS
330
262
102
}
330
262
100
DictionaryVariables
280
     0
  1
1:1
  0
DICTIONARYVAR
  5
2A4
102
{ACAD_REACTORS
330
262
102
}
330
262
100
DictionaryVariables
280
     0
  1
STANDARD
  0
DICTIONARYVAR
  5
2A3
102
{ACAD_REACTORS
330
262
102
}
330
262
100
DictionaryVariables
280
     0
  1
STANDARD
  0
DICTIONARYVAR
  5
3A4
102
{ACAD_REACTORS
330
262
102
}
330
262
100
DictionaryVariables
280
     0
  1
Metric50
  0
DICTIONARYVAR
  5
3A5
102
{ACAD_REACTORS
330
262
102
}
330
262
100
DictionaryVariables
280
     0
  1
Metric50
  0
DICTIONARYVAR
  5
264
102
{ACAD_REACTORS
330
262
102
}
330
262
100
DictionaryVariables
280
     0
  1
1
  0
DICTIONARYVAR
  5
3A6
102
{ACAD_REACTORS
330
262
102
}
330
262
100
DictionaryVariables
280
     0
  1
2
  0
DICTIONARY
  5
2E2
102
{ACAD_REACTORS
330
2DB
102
}
330
2DB
100
AcDbDictionary
281
     1
  0
DICTIONARY
  5
3DC
330
2AB
100
AcDbDictionary
280
     1
281
     1
  3
ACAD_XREC_ROUNDTRIP
360
3DD
  0
DICTIONARY
  5
298
330
45
100
AcDbDictionary
280
     1
281
     1
  3
ACAD_XREC_ROUNDTRIP
360
299
  0
DICTIONARY
  5
296
330
44
100
AcDbDictionary
280
     1
281
     1
  3
ACAD_XREC_ROUNDTRIP
360
297
  0
DICTIONARY
  5
29A
330
46
100
AcDbDictionary
280
     1
281
     1
  3
ACAD_XREC_ROUNDTRIP
360
29B
  0
DICTIONARY
  5
3DA
330
2AA
100
AcDbDictionary
280
     1
281
     1
  3
ACAD_XREC_ROUNDTRIP
360
3DB
  0
DICTIONARY
  5
29C
330
6A
100
AcDbDictionary
280
     1
281
     1
  3
ACAD_ROUNDTRIP_2008_TABLESTYLE_CELLSTYLEMAP
360
3A7
  3
ACAD_XREC_ROUNDTRIP
360
3D9
  0
DICTIONARY
  5
3B1
330
2F
100
AcDbDictionary
280
     1
281
     1
  3
ACAD_XREC_ROUNDTRIP
360
3B2
  0
DICTIONARY
  5
3B7
330
32
100
AcDbDictionary
280
     1
281
     1
  3
ACAD_XREC_ROUNDTRIP
360
3B8
  0
DICTIONARY
  5
3BF
330
36
100
AcDbDictionary
280
     1
281
     1
  3
ACAD_XREC_ROUNDTRIP
360
3C0
  0
DICTIONARY
  5
3C7
330
3A
100
AcDbDictionary
280
     1
281
     1
  3
ACAD_XREC_ROUNDTRIP
360
3C8
  0
DICTIONARY
  5
3BB
330
34
100
AcDbDictionary
280
     1
281
     1
  3
ACAD_XREC_ROUNDTRIP
360
3BC
  0
DICTIONARY
  5
3BD
330
35
100
AcDbDictionary
280
     1
281
     1
  3
ACAD_XREC_ROUNDTRIP
360
3BE
  0
DICTIONARY
  5
3CD
330
3D
100
AcDbDictionary
280
     1
281
     1
  3
ACAD_XREC_ROUNDTRIP
360
3CE
  0
DICTIONARY
  5
3C5
330
39
100
AcDbDictionary
280
     1
281
     1
  3
ACAD_XREC_ROUNDTRIP
360
3C6
  0
DICTIONARY
  5
3A9
330
2B
100
AcDbDictionary
280
     1
281
     1
  3
ACAD_XREC_ROUNDTRIP
360
3AA
  0
DICTIONARY
  5
3AB
330
2C
100
AcDbDictionary
280
     1
281
     1
  3
ACAD_XREC_ROUNDTRIP
360
3AC
  0
DICTIONARY
  5
3AD
330
2D
100
AcDbDictionary
280
     1
281
     1
  3
ACAD_XREC_ROUNDTRIP
360
3AE
  0
DICTIONARY
  5
3AF
330
2E
100
AcDbDictionary
280
     1
281
     1
  3
ACAD_XREC_ROUNDTRIP
360
3B0
  0
DICTIONARY
  5
3B5
330
31
100
AcDbDictionary
280
     1
281
     1
  3
ACAD_XREC_ROUNDTRIP
360
3B6
  0
DICTIONARY
  5
3C9
330
3B
100
AcDbDictionary
280
     1
281
     1
  3
ACAD_XREC_ROUNDTRIP
360
3CA
  0
DICTIONARY
  5
3C3
330
38
100
AcDbDictionary
280
     1
281
     1
  3
ACAD_XREC_ROUNDTRIP
360
3C4
  0
DICTIONARY
  5
3CB
330
3C
100
AcDbDictionary
280
     1
281
     1
  3
ACAD_XREC_ROUNDTRIP
360
3CC
  0
DICTIONARY
  5
3B9
330
33
100
AcDbDictionary
280
     1
281
     1
  3
ACAD_XREC_ROUNDTRIP
360
3BA
  0
DICTIONARY
  5
3D7
330
42
100
AcDbDictionary
280
     1
281
     1
  3
ACAD_XREC_ROUNDTRIP
360
3D8
  0
DICTIONARY
  5
3D5
330
41
100
AcDbDictionary
280
     1
281
     1
  3
ACAD_XREC_ROUNDTRIP
360
3D6
  0
DICTIONARY
  5
3CF
330
3E
100
AcDbDictionary
280
     1
281
     1
  3
ACAD_XREC_ROUNDTRIP
360
3D0
  0
DICTIONARY
  5
3D1
330
3F
100
AcDbDictionary
280
     1
281
     1
  3
ACAD_XREC_ROUNDTRIP
360
3D2
  0
DICTIONARY
  5
3C1
330
37
100
AcDbDictionary
280
     1
281
     1
  3
ACAD_XREC_ROUNDTRIP
360
3C2
  0
DICTIONARY
  5
3B3
330
30
100
AcDbDictionary
280
     1
281
     1
  3
ACAD_XREC_ROUNDTRIP
360
3B4
  0
DICTIONARY
  5
3D3
330
40
100
AcDbDictionary
280
     1
281
     1
  3
ACAD_XREC_ROUNDTRIP
360
3D4
  0
XRECORD
  5
3DD
102
{ACAD_REACTORS
330
3DC
102
}
330
3DC
100
AcDbXrecord
280
     1
102
DISPLAYNAME
  1
Metric50
102
FLAGS
 90
        0
  0
XRECORD
  5
299
102
{ACAD_REACTORS
330
298
102
}
330
298
100
AcDbXrecord
280
     1
102
MATERIAL
148
0.0
149
0.0
149
0.0
 93
        0
 94
      127
282
     0
 72
     1
 77
     1
171
     1
175
     1
179
     1
273
     0
  0
XRECORD
  5
297
102
{ACAD_REACTORS
330
296
102
}
330
296
100
AcDbXrecord
280
     1
102
MATERIAL
148
0.0
149
0.0
149
0.0
 93
        0
 94
      127
282
     0
 72
     1
 77
     1
171
     1
175
     1
179
     1
273
     0
  0
XRECORD
  5
29B
102
{ACAD_REACTORS
330
29A
102
}
330
29A
100
AcDbXrecord
280
     1
102
MATERIAL
148
0.0
149
0.0
149
0.0
 93
        0
 94
      127
282
     0
 72
     1
 77
     1
171
     1
175
     1
179
     1
273
     0
  0
XRECORD
  5
3DB
102
{ACAD_REACTORS
330
3DA
102
}
330
3DA
100
AcDbXrecord
280
     1
102
DISPLAYNAME
  1
Metric50
102
FLAGS
 90
        0
  0
CELLSTYLEMAP
  5
3A7
102
{ACAD_REACTORS
330
29C
102
}
330
29C
100
AcDbCellStyleMap
 90
        3
300
CELLSTYLE
  1
TABLEFORMAT_BEGIN
 90
        5
170
     1
 91
        0
 92
    32768
 62
   257
 93
        1
300
CONTENTFORMAT
  1
CONTENTFORMAT_BEGIN
 90
        0
 91
        0
 92
        4
 93
        0
300

 40
0.0
140
1.0
 94
        5
 62
     0
340
11
144
0.25
309
CONTENTFORMAT_END
171
     1
301
MARGIN
  1
CELLMARGIN_BEGIN
 40
0.06
 40
0.06
 40
0.06
 40
0.06
 40
0.18
 40
0.18
309
CELLMARGIN_END
 94
        6
 95
        1
302
GRIDFORMAT
  1
GRIDFORMAT_BEGIN
 90
        0
 91
        1
 62
     0
 92
       -2
340
14
 93
        0
 40
0.045
309
GRIDFORMAT_END
 95
        2
302
GRIDFORMAT
  1
GRIDFORMAT_BEGIN
 90
        0
 91
        1
 62
     0
 92
       -2
340
14
 93
        0
 40
0.045
309
GRIDFORMAT_END
 95
        4
302
GRIDFORMAT
  1
GRIDFORMAT_BEGIN
 90
        0
 91
        1
 62
     0
 92
       -2
340
14
 93
        0
 40
0.045
309
GRIDFORMAT_END
 95
        8
302
GRIDFORMAT
  1
GRIDFORMAT_BEGIN
 90
        0
 91
        1
 62
     0
 92
       -2
340
14
 93
        0
 40
0.045
309
GRIDFORMAT_END
 95
       16
302
GRIDFORMAT
  1
GRIDFORMAT_BEGIN
 90
        0
 91
        1
 62
     0
 92
       -2
340
14
 93
        0
 40
0.045
309
GRIDFORMAT_END
 95
       32
302
GRIDFORMAT
  1
GRIDFORMAT_BEGIN
 90
        0
 91
        1
 62
     0
 92
       -2
340
14
 93
        0
 40
0.045
309
GRIDFORMAT_END
309
TABLEFORMAT_END
  1
CELLSTYLE_BEGIN
 90
        1
 91
        1
300
_TITLE
309
CELLSTYLE_END
300
CELLSTYLE
  1
TABLEFORMAT_BEGIN
 90
        5
170
     1
 91
        0
 92
        0
 62
   257
 93
        1
300
CONTENTFORMAT
  1
CONTENTFORMAT_BEGIN
 90
        0
 91
        0
 92
        4
 93
        0
300

 40
0.0
140
1.0
 94
        5
 62
     0
340
11
144
0.18
309
CONTENTFORMAT_END
171
     1
301
MARGIN
  1
CELLMARGIN_BEGIN
 40
0.06
 40
0.06
 40
0.06
 40
0.06
 40
0.18
 40
0.18
309
CELLMARGIN_END
 94
        6
 95
        1
302
GRIDFORMAT
  1
GRIDFORMAT_BEGIN
 90
        0
 91
        1
 62
     0
 92
       -2
340
14
 93
        0
 40
0.045
309
GRIDFORMAT_END
 95
        2
302
GRIDFORMAT
  1
GRIDFORMAT_BEGIN
 90
        0
 91
        1
 62
     0
 92
       -2
340
14
 93
        0
 40
0.045
309
GRIDFORMAT_END
 95
        4
302
GRIDFORMAT
  1
GRIDFORMAT_BEGIN
 90
        0
 91
        1
 62
     0
 92
       -2
340
14
 93
        0
 40
0.045
309
GRIDFORMAT_END
 95
        8
302
GRIDFORMAT
  1
GRIDFORMAT_BEGIN
 90
        0
 91
        1
 62
     0
 92
       -2
340
14
 93
        0
 40
0.045
309
GRIDFORMAT_END
 95
       16
302
GRIDFORMAT
  1
GRIDFORMAT_BEGIN
 90
        0
 91
        1
 62
     0
 92
       -2
340
14
 93
        0
 40
0.045
309
GRIDFORMAT_END
 95
       32
302
GRIDFORMAT
  1
GRIDFORMAT_BEGIN
 90
        0
 91
        1
 62
     0
 92
       -2
340
14
 93
        0
 40
0.045
309
GRIDFORMAT_END
309
TABLEFORMAT_END
  1
CELLSTYLE_BEGIN
 90
        2
 91
        1
300
_HEADER
309
CELLSTYLE_END
300
CELLSTYLE
  1
TABLEFORMAT_BEGIN
 90
        5
170
     1
 91
        0
 92
        0
 62
   257
 93
        1
300
CONTENTFORMAT
  1
CONTENTFORMAT_BEGIN
 90
        0
 91
        0
 92
        4
 93
        0
300

 40
0.0
140
1.0
 94
        2
 62
     0
340
11
144
0.18
309
CONTENTFORMAT_END
171
     1
301
MARGIN
  1
CELLMARGIN_BEGIN
 40
0.06
 40
0.06
 40
0.06
 40
0.06
 40
0.18
 40
0.18
309
CELLMARGIN_END
 94
        6
 95
        1
302
GRIDFORMAT
  1
GRIDFORMAT_BEGIN
 90
        0
 91
        1
 62
     0
 92
       -2
340
14
 93
        0
 40
0.045
309
GRIDFORMAT_END
 95
        2
302
GRIDFORMAT
  1
GRIDFORMAT_BEGIN
 90
        0
 91
        1
 62
     0
 92
       -2
340
14
 93
        0
 40
0.045
309
GRIDFORMAT_END
 95
        4
302
GRIDFORMAT
  1
GRIDFORMAT_BEGIN
 90
        0
 91
        1
 62
     0
 92
       -2
340
14
 93
        0
 40
0.045
309
GRIDFORMAT_END
 95
        8
302
GRIDFORMAT
  1
GRIDFORMAT_BEGIN
 90
        0
 91
        1
 62
     0
 92
       -2
340
14
 93
        0
 40
0.045
309
GRIDFORMAT_END
 95
       16
302
GRIDFORMAT
  1
GRIDFORMAT_BEGIN
 90
        0
 91
        1
 62
     0
 92
       -2
340
14
 93
        0
 40
0.045
309
GRIDFORMAT_END
 95
       32
302
GRIDFORMAT
  1
GRIDFORMAT_BEGIN
 90
        0
 91
        1
 62
     0
 92
       -2
340
14
 93
        0
 40
0.045
309
GRIDFORMAT_END
309
TABLEFORMAT_END
  1
CELLSTYLE_BEGIN
 90
        3
 91
        2
300
_DATA
309
CELLSTYLE_END
  0
XRECORD
  5
3D9
102
{ACAD_REACTORS
330
29C
102
}
330
29C
100
AcDbXrecord
280
     1
102
ACAD_ROUNDTRIP_PRE2007_TABLESTYLE
 90
        4
 91
        0
  1

 92
        4
 93
        0
  2

 94
        4
 95
        0
  3

  0
XRECORD
  5
3B2
102
{ACAD_REACTORS
330
3B1
102
}
330
3B1
100
AcDbXrecord
280
     1
102
RTVSPost2010Prop28
280
     1
102
RTVSPost2010PropOp28
 70
     1
102
RTVSPost2010Prop29
280
     1
102
RTVSPost2010PropOp29
 70
     1
102
RTVSPost2010Prop30
280
     0
102
RTVSPost2010PropOp30
 70
     1
102
RTVSPost2010Prop31
280
     0
102
RTVSPost2010PropOp31
 70
     1
102
RTVSPost2010Prop32
280
     0
102
RTVSPost2010PropOp32
 70
     1
102
RTVSPost2010Prop33
280
     0
102
RTVSPost2010PropOp33
 70
     1
102
RTVSPost2010Prop34
280
     0
102
RTVSPost2010PropOp34
 70
     1
102
RTVSPost2010Prop35
280
     0
102
RTVSPost2010PropOp35
 70
     1
102
RTVSPost2010Prop36
280
     0
102
RTVSPost2010PropOp36
 70
     1
102
RTVSPost2010Prop37
 90
       50
102
RTVSPost2010PropOp37
 70
     1
102
RTVSPost2010Prop38
140
0.0
102
RTVSPost2010PropOp38
 70
     1
102
RTVSPost2010Prop39
140
1.0
102
RTVSPost2010PropOp39
 70
     1
102
RTVSPost2010Prop40
 90
        0
102
RTVSPost2010PropOp40
 70
     1
102
RTVSPost2010Prop41ColorIndex
 90
       18
102
RTVSPost2010Prop41ColorRGB
 90
        0
102
RTVSPost2010PropOp41
 70
     1
102
RTVSPost2010Prop42
 90
       50
102
RTVSPost2010PropOp42
 70
     1
102
RTVSPost2010Prop43
 90
        3
102
RTVSPost2010PropOp43
 70
     1
102
RTVSPost2010Prop44ColorIndex
 90
        5
102
RTVSPost2010Prop44ColorRGB
 90
      255
102
RTVSPost2010PropOp44
 70
     1
102
RTVSPost2010Prop45
280
     0
102
RTVSPost2010PropOp45
 70
     1
102
RTVSPost2010Prop46
 90
       50
102
RTVSPost2010PropOp46
 70
     1
102
RTVSPost2010Prop47
 90
       50
102
RTVSPost2010PropOp47
 70
     1
102
RTVSPost2010Prop48
 90
       50
102
RTVSPost2010PropOp48
 70
     1
102
RTVSPost2010Prop49
280
     0
102
RTVSPost2010PropOp49
 70
     1
102
RTVSPost2010Prop50
 90
       50
102
RTVSPost2010PropOp50
 70
     1
102
RTVSPost2010Prop51ColorIndex
 90
      256
102
RTVSPost2010Prop51ColorRGB
 90
-16777216
102
RTVSPost2010PropOp51
 70
     0
102
RTVSPost2010Prop52
140
1.0
102
RTVSPost2010PropOp52
 70
     0
102
RTVSPost2010Prop53
 90
        2
102
RTVSPost2010PropOp53
 70
     1
102
RTVSPost2010Prop54
  1
strokes_ogs.tif
102
RTVSPost2010PropOp54
 70
     1
102
RTVSPost2010Prop55
280
     0
102
RTVSPost2010PropOp55
 70
     1
102
RTVSPost2010Prop56
140
1.0
102
RTVSPost2010PropOp56
 70
     1
102
RTVSPost2010Prop57
140
1.0
102
RTVSPost2010PropOp57
 70
     1
102
RTVSPropertyOp0
 70
     1
102
RTVSPropertyOp1
 70
     1
102
RTVSPropertyOp2
 70
     1
102
RTVSPropertyOp3
 70
     1
102
RTVSPropertyOp4
 70
     1
102
RTVSPropertyOp5
 70
     1
102
RTVSPropertyOp6
 70
     1
102
RTVSPropertyOp7
 70
     1
102
RTVSPropertyOp8
 70
     1
102
RTVSPropertyOp9
 70
     1
102
RTVSPropertyOp10
 70
     1
102
RTVSPropertyOp11
 70
     1
102
RTVSPropertyOp12
 70
     1
102
RTVSPropertyOp13
 70
     1
102
RTVSPropertyOp14
 70
     1
102
RTVSPropertyOp15
 70
     1
102
RTVSPropertyOp16
 70
     1
102
RTVSPropertyOp17
 70
     1
102
RTVSPropertyOp18
 70
     1
102
RTVSPropertyOp19
 70
     1
102
RTVSPropertyOp20
 70
     1
102
RTVSPropertyOp21
 70
     1
102
RTVSPropertyOp22
 70
     1
102
RTVSPropertyOp23
 70
     1
102
RTVSPropertyOp24
 70
     1
102
RTVSPropertyOp25
 70
     1
102
RTVSPropertyOp26
 70
     1
102
RTVSPropertyOp27
 70
     1
102
RTVSPropertyOp28
 70
     1
102
RTVSPropertyOp29
 70
     1
102
RTVSPropertyOp30
 70
     1
102
RTVSPropertyOp31
 70
     1
102
RTVSPropertyOp32
 70
     1
102
RTVSPropertyOp33
 70
     1
102
RTVSPropertyOp34
 70
     1
102
RTVSPropertyOp35
 70
     1
102
RTVSPropertyOp36
 70
     1
102
RTVSPropertyOp37
 70
     1
102
RTVSPropertyOp38
 70
     1
102
RTVSPropertyOp39
 70
     1
102
RTVSPropertyOp40
 70
     1
102
RTVSPropertyOp41
 70
     1
102
RTVSPropertyOp42
 70
     1
102
RTVSPropertyOp43
 70
     1
102
RTVSPropertyOp44
 70
     1
102
RTVSPropertyOp45
 70
     1
102
RTVSPropertyOp46
 70
     1
102
RTVSPropertyOp47
 70
     1
102
RTVSPropertyOp48
 70
     1
102
RTVSPropertyOp49
 70
     1
102
RTVSPropertyOp50
 70
     1
102
RTVSPropertyOp51
 70
     0
102
RTVSPropertyOp52
 70
     0
102
RTVSPropertyOp53
 70
     1
102
RTVSPropertyOp54
 70
     1
102
RTVSPropertyOp55
 70
     1
102
RTVSPropertyOp56
 70
     1
102
RTVSPropertyOp57
 70
     1
102
RTVSPropertyOp58
 70
     1
102
RTVSPropertyOp59
 70
     1
102
RTVSPropertyOp60
 70
     1
102
RTVSPropertyOp61
 70
     1
102
RTVSPropertyOp62
 70
     1
  0
XRECORD
  5
3B8
102
{ACAD_REACTORS
330
3B7
102
}
330
3B7
100
AcDbXrecord
280
     1
102
RTVSPost2010Prop28
280
     0
102
RTVSPost2010PropOp28
 70
     1
102
RTVSPost2010Prop29
280
     1
102
RTVSPost2010PropOp29
 70
     1
102
RTVSPost2010Prop30
280
     1
102
RTVSPost2010PropOp30
 70
     1
102
RTVSPost2010Prop31
280
     0
102
RTVSPost2010PropOp31
 70
     1
102
RTVSPost2010Prop32
280
     0
102
RTVSPost2010PropOp32
 70
     1
102
RTVSPost2010Prop33
280
     0
102
RTVSPost2010PropOp33
 70
     1
102
RTVSPost2010Prop34
280
     0
102
RTVSPost2010PropOp34
 70
     1
102
RTVSPost2010Prop35
280
     0
102
RTVSPost2010PropOp35
 70
     1
102
RTVSPost2010Prop36
280
     0
102
RTVSPost2010PropOp36
 70
     1
102
RTVSPost2010Prop37
 90
       50
102
RTVSPost2010PropOp37
 70
     1
102
RTVSPost2010Prop38
140
0.0
102
RTVSPost2010PropOp38
 70
     1
102
RTVSPost2010Prop39
140
1.0
102
RTVSPost2010PropOp39
 70
     1
102
RTVSPost2010Prop40
 90
        0
102
RTVSPost2010PropOp40
 70
     1
102
RTVSPost2010Prop41ColorIndex
 90
       18
102
RTVSPost2010Prop41ColorRGB
 90
        0
102
RTVSPost2010PropOp41
 70
     1
102
RTVSPost2010Prop42
 90
       50
102
RTVSPost2010PropOp42
 70
     1
102
RTVSPost2010Prop43
 90
        3
102
RTVSPost2010PropOp43
 70
     1
102
RTVSPost2010Prop44ColorIndex
 90
        5
102
RTVSPost2010Prop44ColorRGB
 90
      255
102
RTVSPost2010PropOp44
 70
     1
102
RTVSPost2010Prop45
280
     0
102
RTVSPost2010PropOp45
 70
     1
102
RTVSPost2010Prop46
 90
       50
102
RTVSPost2010PropOp46
 70
     1
102
RTVSPost2010Prop47
 90
       50
102
RTVSPost2010PropOp47
 70
     1
102
RTVSPost2010Prop48
 90
       50
102
RTVSPost2010PropOp48
 70
     1
102
RTVSPost2010Prop49
280
     0
102
RTVSPost2010PropOp49
 70
     1
102
RTVSPost2010Prop50
 90
       50
102
RTVSPost2010PropOp50
 70
     1
102
RTVSPost2010Prop51ColorIndex
 90
      256
102
RTVSPost2010Prop51ColorRGB
 90
-16777216
102
RTVSPost2010PropOp51
 70
     0
102
RTVSPost2010Prop52
140
1.0
102
RTVSPost2010PropOp52
 70
     0
102
RTVSPost2010Prop53
 90
        2
102
RTVSPost2010PropOp53
 70
     1
102
RTVSPost2010Prop54
  1
strokes_ogs.tif
102
RTVSPost2010PropOp54
 70
     1
102
RTVSPost2010Prop55
280
     0
102
RTVSPost2010PropOp55
 70
     1
102
RTVSPost2010Prop56
140
1.0
102
RTVSPost2010PropOp56
 70
     1
102
RTVSPost2010Prop57
140
1.0
102
RTVSPost2010PropOp57
 70
     1
102
RTVSPropertyOp0
 70
     1
102
RTVSPropertyOp1
 70
     1
102
RTVSPropertyOp2
 70
     1
102
RTVSPropertyOp3
 70
     1
102
RTVSPropertyOp4
 70
     1
102
RTVSPropertyOp5
 70
     1
102
RTVSPropertyOp6
 70
     1
102
RTVSPropertyOp7
 70
     1
102
RTVSPropertyOp8
 70
     1
102
RTVSPropertyOp9
 70
     1
102
RTVSPropertyOp10
 70
     1
102
RTVSPropertyOp11
 70
     1
102
RTVSPropertyOp12
 70
     1
102
RTVSPropertyOp13
 70
     1
102
RTVSPropertyOp14
 70
     1
102
RTVSPropertyOp15
 70
     1
102
RTVSPropertyOp16
 70
     1
102
RTVSPropertyOp17
 70
     1
102
RTVSPropertyOp18
 70
     1
102
RTVSPropertyOp19
 70
     1
102
RTVSPropertyOp20
 70
     1
102
RTVSPropertyOp21
 70
     1
102
RTVSPropertyOp22
 70
     1
102
RTVSPropertyOp23
 70
     1
102
RTVSPropertyOp24
 70
     1
102
RTVSPropertyOp25
 70
     1
102
RTVSPropertyOp26
 70
     1
102
RTVSPropertyOp27
 70
     1
102
RTVSPropertyOp28
 70
     1
102
RTVSPropertyOp29
 70
     1
102
RTVSPropertyOp30
 70
     1
102
RTVSPropertyOp31
 70
     1
102
RTVSPropertyOp32
 70
     1
102
RTVSPropertyOp33
 70
     1
102
RTVSPropertyOp34
 70
     1
102
RTVSPropertyOp35
 70
     1
102
RTVSPropertyOp36
 70
     1
102
RTVSPropertyOp37
 70
     1
102
RTVSPropertyOp38
 70
     1
102
RTVSPropertyOp39
 70
     1
102
RTVSPropertyOp40
 70
     1
102
RTVSPropertyOp41
 70
     1
102
RTVSPropertyOp42
 70
     1
102
RTVSPropertyOp43
 70
     1
102
RTVSPropertyOp44
 70
     1
102
RTVSPropertyOp45
 70
     1
102
RTVSPropertyOp46
 70
     1
102
RTVSPropertyOp47
 70
     1
102
RTVSPropertyOp48
 70
     1
102
RTVSPropertyOp49
 70
     1
102
RTVSPropertyOp50
 70
     1
102
RTVSPropertyOp51
 70
     0
102
RTVSPropertyOp52
 70
     0
102
RTVSPropertyOp53
 70
     1
102
RTVSPropertyOp54
 70
     1
102
RTVSPropertyOp55
 70
     1
102
RTVSPropertyOp56
 70
     1
102
RTVSPropertyOp57
 70
     1
102
RTVSPropertyOp58
 70
     1
102
RTVSPropertyOp59
 70
     1
102
RTVSPropertyOp60
 70
     1
102
RTVSPropertyOp61
 70
     1
102
RTVSPropertyOp62
 70
     1
  0
XRECORD
  5
3C0
102
{ACAD_REACTORS
330
3BF
102
}
330
3BF
100
AcDbXrecord
280
     1
102
RTVSPost2010Prop28
280
     0
102
RTVSPost2010PropOp28
 70
     1
102
RTVSPost2010Prop29
280
     1
102
RTVSPost2010PropOp29
 70
     1
102
RTVSPost2010Prop30
280
     1
102
RTVSPost2010PropOp30
 70
     1
102
RTVSPost2010Prop31
280
     0
102
RTVSPost2010PropOp31
 70
     1
102
RTVSPost2010Prop32
280
     0
102
RTVSPost2010PropOp32
 70
     1
102
RTVSPost2010Prop33
280
     0
102
RTVSPost2010PropOp33
 70
     1
102
RTVSPost2010Prop34
280
     0
102
RTVSPost2010PropOp34
 70
     1
102
RTVSPost2010Prop35
280
     0
102
RTVSPost2010PropOp35
 70
     1
102
RTVSPost2010Prop36
280
     0
102
RTVSPost2010PropOp36
 70
     1
102
RTVSPost2010Prop37
 90
       50
102
RTVSPost2010PropOp37
 70
     1
102
RTVSPost2010Prop38
140
0.0
102
RTVSPost2010PropOp38
 70
     1
102
RTVSPost2010Prop39
140
1.0
102
RTVSPost2010PropOp39
 70
     1
102
RTVSPost2010Prop40
 90
        0
102
RTVSPost2010PropOp40
 70
     1
102
RTVSPost2010Prop41ColorIndex
 90
       18
102
RTVSPost2010Prop41ColorRGB
 90
        0
102
RTVSPost2010PropOp41
 70
     1
102
RTVSPost2010Prop42
 90
       50
102
RTVSPost2010PropOp42
 70
     1
102
RTVSPost2010Prop43
 90
        3
102
RTVSPost2010PropOp43
 70
     1
102
RTVSPost2010Prop44ColorIndex
 90
        5
102
RTVSPost2010Prop44ColorRGB
 90
      255
102
RTVSPost2010PropOp44
 70
     1
102
RTVSPost2010Prop45
280
     0
102
RTVSPost2010PropOp45
 70
     1
102
RTVSPost2010Prop46
 90
       50
102
RTVSPost2010PropOp46
 70
     1
102
RTVSPost2010Prop47
 90
       50
102
RTVSPost2010PropOp47
 70
     1
102
RTVSPost2010Prop48
 90
       50
102
RTVSPost2010PropOp48
 70
     1
102
RTVSPost2010Prop49
280
     0
102
RTVSPost2010PropOp49
 70
     1
102
RTVSPost2010Prop50
 90
       50
102
RTVSPost2010PropOp50
 70
     1
102
RTVSPost2010Prop51ColorIndex
 90
      256
102
RTVSPost2010Prop51ColorRGB
 90
-16777216
102
RTVSPost2010PropOp51
 70
     0
102
RTVSPost2010Prop52
140
1.0
102
RTVSPost2010PropOp52
 70
     0
102
RTVSPost2010Prop53
 90
        2
102
RTVSPost2010PropOp53
 70
     1
102
RTVSPost2010Prop54
  1
strokes_ogs.tif
102
RTVSPost2010PropOp54
 70
     1
102
RTVSPost2010Prop55
280
     0
102
RTVSPost2010PropOp55
 70
     1
102
RTVSPost2010Prop56
140
1.0
102
RTVSPost2010PropOp56
 70
     1
102
RTVSPost2010Prop57
140
1.0
102
RTVSPost2010PropOp57
 70
     1
102
RTVSPropertyOp0
 70
     1
102
RTVSPropertyOp1
 70
     1
102
RTVSPropertyOp2
 70
     1
102
RTVSPropertyOp3
 70
     1
102
RTVSPropertyOp4
 70
     1
102
RTVSPropertyOp5
 70
     1
102
RTVSPropertyOp6
 70
     1
102
RTVSPropertyOp7
 70
     1
102
RTVSPropertyOp8
 70
     1
102
RTVSPropertyOp9
 70
     1
102
RTVSPropertyOp10
 70
     1
102
RTVSPropertyOp11
 70
     1
102
RTVSPropertyOp12
 70
     1
102
RTVSPropertyOp13
 70
     1
102
RTVSPropertyOp14
 70
     1
102
RTVSPropertyOp15
 70
     1
102
RTVSPropertyOp16
 70
     1
102
RTVSPropertyOp17
 70
     1
102
RTVSPropertyOp18
 70
     1
102
RTVSPropertyOp19
 70
     1
102
RTVSPropertyOp20
 70
     1
102
RTVSPropertyOp21
 70
     1
102
RTVSPropertyOp22
 70
     1
102
RTVSPropertyOp23
 70
     1
102
RTVSPropertyOp24
 70
     1
102
RTVSPropertyOp25
 70
     1
102
RTVSPropertyOp26
 70
     1
102
RTVSPropertyOp27
 70
     1
102
RTVSPropertyOp28
 70
     1
102
RTVSPropertyOp29
 70
     1
102
RTVSPropertyOp30
 70
     1
102
RTVSPropertyOp31
 70
     1
102
RTVSPropertyOp32
 70
     1
102
RTVSPropertyOp33
 70
     1
102
RTVSPropertyOp34
 70
     1
102
RTVSPropertyOp35
 70
     1
102
RTVSPropertyOp36
 70
     1
102
RTVSPropertyOp37
 70
     1
102
RTVSPropertyOp38
 70
     1
102
RTVSPropertyOp39
 70
     1
102
RTVSPropertyOp40
 70
     1
102
RTVSPropertyOp41
 70
     1
102
RTVSPropertyOp42
 70
     1
102
RTVSPropertyOp43
 70
     1
102
RTVSPropertyOp44
 70
     1
102
RTVSPropertyOp45
 70
     1
102
RTVSPropertyOp46
 70
     1
102
RTVSPropertyOp47
 70
     1
102
RTVSPropertyOp48
 70
     1
102
RTVSPropertyOp49
 70
     1
102
RTVSPropertyOp50
 70
     1
102
RTVSPropertyOp51
 70
     0
102
RTVSPropertyOp52
 70
     0
102
RTVSPropertyOp53
 70
     1
102
RTVSPropertyOp54
 70
     1
102
RTVSPropertyOp55
 70
     1
102
RTVSPropertyOp56
 70
     1
102
RTVSPropertyOp57
 70
     1
102
RTVSPropertyOp58
 70
     1
102
RTVSPropertyOp59
 70
     1
102
RTVSPropertyOp60
 70
     1
102
RTVSPropertyOp61
 70
     1
102
RTVSPropertyOp62
 70
     1
  0
XRECORD
  5
3C8
102
{ACAD_REACTORS
330
3C7
102
}
330
3C7
100
AcDbXrecord
280
     1
102
RTVSPost2010Prop28
280
     0
102
RTVSPost2010PropOp28
 70
     1
102
RTVSPost2010Prop29
280
     1
102
RTVSPost2010PropOp29
 70
     1
102
RTVSPost2010Prop30
280
     1
102
RTVSPost2010PropOp30
 70
     1
102
RTVSPost2010Prop31
280
     0
102
RTVSPost2010PropOp31
 70
     1
102
RTVSPost2010Prop32
280
     0
102
RTVSPost2010PropOp32
 70
     1
102
RTVSPost2010Prop33
280
     0
102
RTVSPost2010PropOp33
 70
     1
102
RTVSPost2010Prop34
280
     0
102
RTVSPost2010PropOp34
 70
     1
102
RTVSPost2010Prop35
280
     0
102
RTVSPost2010PropOp35
 70
     1
102
RTVSPost2010Prop36
280
     0
102
RTVSPost2010PropOp36
 70
     1
102
RTVSPost2010Prop37
 90
       50
102
RTVSPost2010PropOp37
 70
     1
102
RTVSPost2010Prop38
140
0.0
102
RTVSPost2010PropOp38
 70
     1
102
RTVSPost2010Prop39
140
1.0
102
RTVSPost2010PropOp39
 70
     1
102
RTVSPost2010Prop40
 90
        0
102
RTVSPost2010PropOp40
 70
     1
102
RTVSPost2010Prop41ColorIndex
 90
       18
102
RTVSPost2010Prop41ColorRGB
 90
        0
102
RTVSPost2010PropOp41
 70
     1
102
RTVSPost2010Prop42
 90
       50
102
RTVSPost2010PropOp42
 70
     1
102
RTVSPost2010Prop43
 90
        3
102
RTVSPost2010PropOp43
 70
     1
102
RTVSPost2010Prop44ColorIndex
 90
        5
102
RTVSPost2010Prop44ColorRGB
 90
      255
102
RTVSPost2010PropOp44
 70
     1
102
RTVSPost2010Prop45
280
     0
102
RTVSPost2010PropOp45
 70
     1
102
RTVSPost2010Prop46
 90
       50
102
RTVSPost2010PropOp46
 70
     1
102
RTVSPost2010Prop47
 90
       50
102
RTVSPost2010PropOp47
 70
     1
102
RTVSPost2010Prop48
 90
       50
102
RTVSPost2010PropOp48
 70
     1
102
RTVSPost2010Prop49
280
     0
102
RTVSPost2010PropOp49
 70
     1
102
RTVSPost2010Prop50
 90
       50
102
RTVSPost2010PropOp50
 70
     1
102
RTVSPost2010Prop51ColorIndex
 90
      256
102
RTVSPost2010Prop51ColorRGB
 90
-16777216
102
RTVSPost2010PropOp51
 70
     0
102
RTVSPost2010Prop52
140
1.0
102
RTVSPost2010PropOp52
 70
     0
102
RTVSPost2010Prop53
 90
        2
102
RTVSPost2010PropOp53
 70
     1
102
RTVSPost2010Prop54
  1
strokes_ogs.tif
102
RTVSPost2010PropOp54
 70
     1
102
RTVSPost2010Prop55
280
     0
102
RTVSPost2010PropOp55
 70
     1
102
RTVSPost2010Prop56
140
1.0
102
RTVSPost2010PropOp56
 70
     1
102
RTVSPost2010Prop57
140
1.0
102
RTVSPost2010PropOp57
 70
     1
102
RTVSPropertyOp0
 70
     1
102
RTVSPropertyOp1
 70
     1
102
RTVSPropertyOp2
 70
     1
102
RTVSPropertyOp3
 70
     1
102
RTVSPropertyOp4
 70
     1
102
RTVSPropertyOp5
 70
     1
102
RTVSPropertyOp6
 70
     1
102
RTVSPropertyOp7
 70
     1
102
RTVSPropertyOp8
 70
     1
102
RTVSPropertyOp9
 70
     1
102
RTVSPropertyOp10
 70
     1
102
RTVSPropertyOp11
 70
     1
102
RTVSPropertyOp12
 70
     1
102
RTVSPropertyOp13
 70
     1
102
RTVSPropertyOp14
 70
     1
102
RTVSPropertyOp15
 70
     1
102
RTVSPropertyOp16
 70
     1
102
RTVSPropertyOp17
 70
     1
102
RTVSPropertyOp18
 70
     1
102
RTVSPropertyOp19
 70
     1
102
RTVSPropertyOp20
 70
     1
102
RTVSPropertyOp21
 70
     1
102
RTVSPropertyOp22
 70
     1
102
RTVSPropertyOp23
 70
     1
102
RTVSPropertyOp24
 70
     1
102
RTVSPropertyOp25
 70
     1
102
RTVSPropertyOp26
 70
     1
102
RTVSPropertyOp27
 70
     1
102
RTVSPropertyOp28
 70
     1
102
RTVSPropertyOp29
 70
     1
102
RTVSPropertyOp30
 70
     1
102
RTVSPropertyOp31
 70
     1
102
RTVSPropertyOp32
 70
     1
102
RTVSPropertyOp33
 70
     1
102
RTVSPropertyOp34
 70
     1
102
RTVSPropertyOp35
 70
     1
102
RTVSPropertyOp36
 70
     1
102
RTVSPropertyOp37
 70
     1
102
RTVSPropertyOp38
 70
     1
102
RTVSPropertyOp39
 70
     1
102
RTVSPropertyOp40
 70
     1
102
RTVSPropertyOp41
 70
     1
102
RTVSPropertyOp42
 70
     1
102
RTVSPropertyOp43
 70
     1
102
RTVSPropertyOp44
 70
     1
102
RTVSPropertyOp45
 70
     1
102
RTVSPropertyOp46
 70
     1
102
RTVSPropertyOp47
 70
     1
102
RTVSPropertyOp48
 70
     1
102
RTVSPropertyOp49
 70
     1
102
RTVSPropertyOp50
 70
     1
102
RTVSPropertyOp51
 70
     0
102
RTVSPropertyOp52
 70
     0
102
RTVSPropertyOp53
 70
     1
102
RTVSPropertyOp54
 70
     1
102
RTVSPropertyOp55
 70
     1
102
RTVSPropertyOp56
 70
     1
102
RTVSPropertyOp57
 70
     1
102
RTVSPropertyOp58
 70
     1
102
RTVSPropertyOp59
 70
     1
102
RTVSPropertyOp60
 70
     1
102
RTVSPropertyOp61
 70
     1
102
RTVSPropertyOp62
 70
     1
  0
XRECORD
  5
3BC
102
{ACAD_REACTORS
330
3BB
102
}
330
3BB
100
AcDbXrecord
280
     1
102
RTVSPost2010Prop28
280
     0
102
RTVSPost2010PropOp28
 70
     1
102
RTVSPost2010Prop29
280
     1
102
RTVSPost2010PropOp29
 70
     1
102
RTVSPost2010Prop30
280
     1
102
RTVSPost2010PropOp30
 70
     1
102
RTVSPost2010Prop31
280
     0
102
RTVSPost2010PropOp31
 70
     1
102
RTVSPost2010Prop32
280
     0
102
RTVSPost2010PropOp32
 70
     1
102
RTVSPost2010Prop33
280
     0
102
RTVSPost2010PropOp33
 70
     1
102
RTVSPost2010Prop34
280
     0
102
RTVSPost2010PropOp34
 70
     1
102
RTVSPost2010Prop35
280
     0
102
RTVSPost2010PropOp35
 70
     1
102
RTVSPost2010Prop36
280
     0
102
RTVSPost2010PropOp36
 70
     1
102
RTVSPost2010Prop37
 90
       50
102
RTVSPost2010PropOp37
 70
     1
102
RTVSPost2010Prop38
140
0.0
102
RTVSPost2010PropOp38
 70
     1
102
RTVSPost2010Prop39
140
1.0
102
RTVSPost2010PropOp39
 70
     1
102
RTVSPost2010Prop40
 90
        0
102
RTVSPost2010PropOp40
 70
     1
102
RTVSPost2010Prop41ColorIndex
 90
       18
102
RTVSPost2010Prop41ColorRGB
 90
        0
102
RTVSPost2010PropOp41
 70
     1
102
RTVSPost2010Prop42
 90
       50
102
RTVSPost2010PropOp42
 70
     1
102
RTVSPost2010Prop43
 90
        3
102
RTVSPost2010PropOp43
 70
     1
102
RTVSPost2010Prop44ColorIndex
 90
        5
102
RTVSPost2010Prop44ColorRGB
 90
      255
102
RTVSPost2010PropOp44
 70
     1
102
RTVSPost2010Prop45
280
     0
102
RTVSPost2010PropOp45
 70
     1
102
RTVSPost2010Prop46
 90
       50
102
RTVSPost2010PropOp46
 70
     1
102
RTVSPost2010Prop47
 90
       50
102
RTVSPost2010PropOp47
 70
     1
102
RTVSPost2010Prop48
 90
       50
102
RTVSPost2010PropOp48
 70
     1
102
RTVSPost2010Prop49
280
     0
102
RTVSPost2010PropOp49
 70
     1
102
RTVSPost2010Prop50
 90
       50
102
RTVSPost2010PropOp50
 70
     1
102
RTVSPost2010Prop51ColorIndex
 90
      256
102
RTVSPost2010Prop51ColorRGB
 90
-16777216
102
RTVSPost2010PropOp51
 70
     0
102
RTVSPost2010Prop52
140
1.0
102
RTVSPost2010PropOp52
 70
     0
102
RTVSPost2010Prop53
 90
        2
102
RTVSPost2010PropOp53
 70
     1
102
RTVSPost2010Prop54
  1
strokes_ogs.tif
102
RTVSPost2010PropOp54
 70
     1
102
RTVSPost2010Prop55
280
     0
102
RTVSPost2010PropOp55
 70
     1
102
RTVSPost2010Prop56
140
1.0
102
RTVSPost2010PropOp56
 70
     1
102
RTVSPost2010Prop57
140
1.0
102
RTVSPost2010PropOp57
 70
     1
102
RTVSPropertyOp0
 70
     1
102
RTVSPropertyOp1
 70
     1
102
RTVSPropertyOp2
 70
     1
102
RTVSPropertyOp3
 70
     1
102
RTVSPropertyOp4
 70
     1
102
RTVSPropertyOp5
 70
     1
102
RTVSPropertyOp6
 70
     1
102
RTVSPropertyOp7
 70
     1
102
RTVSPropertyOp8
 70
     1
102
RTVSPropertyOp9
 70
     1
102
RTVSPropertyOp10
 70
     1
102
RTVSPropertyOp11
 70
     1
102
RTVSPropertyOp12
 70
     1
102
RTVSPropertyOp13
 70
     1
102
RTVSPropertyOp14
 70
     1
102
RTVSPropertyOp15
 70
     1
102
RTVSPropertyOp16
 70
     1
102
RTVSPropertyOp17
 70
     1
102
RTVSPropertyOp18
 70
     1
102
RTVSPropertyOp19
 70
     1
102
RTVSPropertyOp20
 70
     1
102
RTVSPropertyOp21
 70
     1
102
RTVSPropertyOp22
 70
     1
102
RTVSPropertyOp23
 70
     1
102
RTVSPropertyOp24
 70
     1
102
RTVSPropertyOp25
 70
     1
102
RTVSPropertyOp26
 70
     1
102
RTVSPropertyOp27
 70
     1
102
RTVSPropertyOp28
 70
     1
102
RTVSPropertyOp29
 70
     1
102
RTVSPropertyOp30
 70
     1
102
RTVSPropertyOp31
 70
     1
102
RTVSPropertyOp32
 70
     1
102
RTVSPropertyOp33
 70
     1
102
RTVSPropertyOp34
 70
     1
102
RTVSPropertyOp35
 70
     1
102
RTVSPropertyOp36
 70
     1
102
RTVSPropertyOp37
 70
     1
102
RTVSPropertyOp38
 70
     1
102
RTVSPropertyOp39
 70
     1
102
RTVSPropertyOp40
 70
     1
102
RTVSPropertyOp41
 70
     1
102
RTVSPropertyOp42
 70
     1
102
RTVSPropertyOp43
 70
     1
102
RTVSPropertyOp44
 70
     1
102
RTVSPropertyOp45
 70
     1
102
RTVSPropertyOp46
 70
     1
102
RTVSPropertyOp47
 70
     1
102
RTVSPropertyOp48
 70
     1
102
RTVSPropertyOp49
 70
     1
102
RTVSPropertyOp50
 70
     1
102
RTVSPropertyOp51
 70
     0
102
RTVSPropertyOp52
 70
     0
102
RTVSPropertyOp53
 70
     1
102
RTVSPropertyOp54
 70
     1
102
RTVSPropertyOp55
 70
     1
102
RTVSPropertyOp56
 70
     1
102
RTVSPropertyOp57
 70
     1
102
RTVSPropertyOp58
 70
     1
102
RTVSPropertyOp59
 70
     1
102
RTVSPropertyOp60
 70
     1
102
RTVSPropertyOp61
 70
     1
102
RTVSPropertyOp62
 70
     1
  0
XRECORD
  5
3BE
102
{ACAD_REACTORS
330
3BD
102
}
330
3BD
100
AcDbXrecord
280
     1
102
RTVSPost2010Prop28
280
     0
102
RTVSPost2010PropOp28
 70
     1
102
RTVSPost2010Prop29
280
     1
102
RTVSPost2010PropOp29
 70
     1
102
RTVSPost2010Prop30
280
     1
102
RTVSPost2010PropOp30
 70
     1
102
RTVSPost2010Prop31
280
     0
102
RTVSPost2010PropOp31
 70
     1
102
RTVSPost2010Prop32
280
     0
102
RTVSPost2010PropOp32
 70
     1
102
RTVSPost2010Prop33
280
     0
102
RTVSPost2010PropOp33
 70
     1
102
RTVSPost2010Prop34
280
     0
102
RTVSPost2010PropOp34
 70
     1
102
RTVSPost2010Prop35
280
     0
102
RTVSPost2010PropOp35
 70
     1
102
RTVSPost2010Prop36
280
     0
102
RTVSPost2010PropOp36
 70
     1
102
RTVSPost2010Prop37
 90
       50
102
RTVSPost2010PropOp37
 70
     1
102
RTVSPost2010Prop38
140
0.0
102
RTVSPost2010PropOp38
 70
     1
102
RTVSPost2010Prop39
140
1.0
102
RTVSPost2010PropOp39
 70
     1
102
RTVSPost2010Prop40
 90
        0
102
RTVSPost2010PropOp40
 70
     1
102
RTVSPost2010Prop41ColorIndex
 90
       18
102
RTVSPost2010Prop41ColorRGB
 90
        0
102
RTVSPost2010PropOp41
 70
     1
102
RTVSPost2010Prop42
 90
       50
102
RTVSPost2010PropOp42
 70
     1
102
RTVSPost2010Prop43
 90
        3
102
RTVSPost2010PropOp43
 70
     1
102
RTVSPost2010Prop44ColorIndex
 90
        5
102
RTVSPost2010Prop44ColorRGB
 90
      255
102
RTVSPost2010PropOp44
 70
     1
102
RTVSPost2010Prop45
280
     0
102
RTVSPost2010PropOp45
 70
     1
102
RTVSPost2010Prop46
 90
       50
102
RTVSPost2010PropOp46
 70
     1
102
RTVSPost2010Prop47
 90
       50
102
RTVSPost2010PropOp47
 70
     1
102
RTVSPost2010Prop48
 90
       50
102
RTVSPost2010PropOp48
 70
     1
102
RTVSPost2010Prop49
280
     0
102
RTVSPost2010PropOp49
 70
     1
102
RTVSPost2010Prop50
 90
       50
102
RTVSPost2010PropOp50
 70
     1
102
RTVSPost2010Prop51ColorIndex
 90
      256
102
RTVSPost2010Prop51ColorRGB
 90
-16777216
102
RTVSPost2010PropOp51
 70
     0
102
RTVSPost2010Prop52
140
1.0
102
RTVSPost2010PropOp52
 70
     0
102
RTVSPost2010Prop53
 90
        2
102
RTVSPost2010PropOp53
 70
     1
102
RTVSPost2010Prop54
  1
strokes_ogs.tif
102
RTVSPost2010PropOp54
 70
     1
102
RTVSPost2010Prop55
280
     0
102
RTVSPost2010PropOp55
 70
     1
102
RTVSPost2010Prop56
140
1.0
102
RTVSPost2010PropOp56
 70
     1
102
RTVSPost2010Prop57
140
1.0
102
RTVSPost2010PropOp57
 70
     1
102
RTVSPropertyOp0
 70
     1
102
RTVSPropertyOp1
 70
     1
102
RTVSPropertyOp2
 70
     1
102
RTVSPropertyOp3
 70
     1
102
RTVSPropertyOp4
 70
     1
102
RTVSPropertyOp5
 70
     1
102
RTVSPropertyOp6
 70
     1
102
RTVSPropertyOp7
 70
     1
102
RTVSPropertyOp8
 70
     1
102
RTVSPropertyOp9
 70
     1
102
RTVSPropertyOp10
 70
     1
102
RTVSPropertyOp11
 70
     1
102
RTVSPropertyOp12
 70
     1
102
RTVSPropertyOp13
 70
     1
102
RTVSPropertyOp14
 70
     1
102
RTVSPropertyOp15
 70
     1
102
RTVSPropertyOp16
 70
     1
102
RTVSPropertyOp17
 70
     1
102
RTVSPropertyOp18
 70
     1
102
RTVSPropertyOp19
 70
     1
102
RTVSPropertyOp20
 70
     1
102
RTVSPropertyOp21
 70
     1
102
RTVSPropertyOp22
 70
     1
102
RTVSPropertyOp23
 70
     1
102
RTVSPropertyOp24
 70
     1
102
RTVSPropertyOp25
 70
     1
102
RTVSPropertyOp26
 70
     1
102
RTVSPropertyOp27
 70
     1
102
RTVSPropertyOp28
 70
     1
102
RTVSPropertyOp29
 70
     1
102
RTVSPropertyOp30
 70
     1
102
RTVSPropertyOp31
 70
     1
102
RTVSPropertyOp32
 70
     1
102
RTVSPropertyOp33
 70
     1
102
RTVSPropertyOp34
 70
     1
102
RTVSPropertyOp35
 70
     1
102
RTVSPropertyOp36
 70
     1
102
RTVSPropertyOp37
 70
     1
102
RTVSPropertyOp38
 70
     1
102
RTVSPropertyOp39
 70
     1
102
RTVSPropertyOp40
 70
     1
102
RTVSPropertyOp41
 70
     1
102
RTVSPropertyOp42
 70
     1
102
RTVSPropertyOp43
 70
     1
102
RTVSPropertyOp44
 70
     1
102
RTVSPropertyOp45
 70
     1
102
RTVSPropertyOp46
 70
     1
102
RTVSPropertyOp47
 70
     1
102
RTVSPropertyOp48
 70
     1
102
RTVSPropertyOp49
 70
     1
102
RTVSPropertyOp50
 70
     1
102
RTVSPropertyOp51
 70
     0
102
RTVSPropertyOp52
 70
     0
102
RTVSPropertyOp53
 70
     1
102
RTVSPropertyOp54
 70
     1
102
RTVSPropertyOp55
 70
     1
102
RTVSPropertyOp56
 70
     1
102
RTVSPropertyOp57
 70
     1
102
RTVSPropertyOp58
 70
     1
102
RTVSPropertyOp59
 70
     1
102
RTVSPropertyOp60
 70
     1
102
RTVSPropertyOp61
 70
     1
102
RTVSPropertyOp62
 70
     1
  0
XRECORD
  5
3CE
102
{ACAD_REACTORS
330
3CD
102
}
330
3CD
100
AcDbXrecord
280
     1
102
RTVSPost2010Prop28
280
     0
102
RTVSPost2010PropOp28
 70
     0
102
RTVSPost2010Prop29
280
     1
102
RTVSPost2010PropOp29
 70
     0
102
RTVSPost2010Prop30
280
     1
102
RTVSPost2010PropOp30
 70
     0
102
RTVSPost2010Prop31
280
     0
102
RTVSPost2010PropOp31
 70
     0
102
RTVSPost2010Prop32
280
     0
102
RTVSPost2010PropOp32
 70
     0
102
RTVSPost2010Prop33
280
     0
102
RTVSPost2010PropOp33
 70
     0
102
RTVSPost2010Prop34
280
     0
102
RTVSPost2010PropOp34
 70
     0
102
RTVSPost2010Prop35
280
     0
102
RTVSPost2010PropOp35
 70
     0
102
RTVSPost2010Prop36
280
     0
102
RTVSPost2010PropOp36
 70
     0
102
RTVSPost2010Prop37
 90
       50
102
RTVSPost2010PropOp37
 70
     0
102
RTVSPost2010Prop38
140
0.0
102
RTVSPost2010PropOp38
 70
     0
102
RTVSPost2010Prop39
140
1.0
102
RTVSPost2010PropOp39
 70
     0
102
RTVSPost2010Prop40
 90
        0
102
RTVSPost2010PropOp40
 70
     0
102
RTVSPost2010Prop41ColorIndex
 90
       18
102
RTVSPost2010Prop41ColorRGB
 90
        0
102
RTVSPost2010PropOp41
 70
     0
102
RTVSPost2010Prop42
 90
       50
102
RTVSPost2010PropOp42
 70
     0
102
RTVSPost2010Prop43
 90
        3
102
RTVSPost2010PropOp43
 70
     0
102
RTVSPost2010Prop44ColorIndex
 90
        5
102
RTVSPost2010Prop44ColorRGB
 90
      255
102
RTVSPost2010PropOp44
 70
     0
102
RTVSPost2010Prop45
280
     0
102
RTVSPost2010PropOp45
 70
     0
102
RTVSPost2010Prop46
 90
       50
102
RTVSPost2010PropOp46
 70
     0
102
RTVSPost2010Prop47
 90
       50
102
RTVSPost2010PropOp47
 70
     0
102
RTVSPost2010Prop48
 90
       50
102
RTVSPost2010PropOp48
 70
     0
102
RTVSPost2010Prop49
280
     0
102
RTVSPost2010PropOp49
 70
     0
102
RTVSPost2010Prop50
 90
       50
102
RTVSPost2010PropOp50
 70
     0
102
RTVSPost2010Prop51ColorIndex
 90
      256
102
RTVSPost2010Prop51ColorRGB
 90
-16777216
102
RTVSPost2010PropOp51
 70
     0
102
RTVSPost2010Prop52
140
1.0
102
RTVSPost2010PropOp52
 70
     0
102
RTVSPost2010Prop53
 90
        2
102
RTVSPost2010PropOp53
 70
     0
102
RTVSPost2010Prop54
  1
strokes_ogs.tif
102
RTVSPost2010PropOp54
 70
     0
102
RTVSPost2010Prop55
280
     0
102
RTVSPost2010PropOp55
 70
     0
102
RTVSPost2010Prop56
140
1.0
102
RTVSPost2010PropOp56
 70
     0
102
RTVSPost2010Prop57
140
1.0
102
RTVSPost2010PropOp57
 70
     0
102
RTVSPropertyOp0
 70
     0
102
RTVSPropertyOp1
 70
     0
102
RTVSPropertyOp2
 70
     0
102
RTVSPropertyOp3
 70
     0
102
RTVSPropertyOp4
 70
     0
102
RTVSPropertyOp5
 70
     0
102
RTVSPropertyOp6
 70
     0
102
RTVSPropertyOp7
 70
     0
102
RTVSPropertyOp8
 70
     0
102
RTVSPropertyOp9
 70
     0
102
RTVSPropertyOp10
 70
     0
102
RTVSPropertyOp11
 70
     0
102
RTVSPropertyOp12
 70
     0
102
RTVSPropertyOp13
 70
     0
102
RTVSPropertyOp14
 70
     2
102
RTVSPropertyOp15
 70
     0
102
RTVSPropertyOp16
 70
     0
102
RTVSPropertyOp17
 70
     0
102
RTVSPropertyOp18
 70
     0
102
RTVSPropertyOp19
 70
     0
102
RTVSPropertyOp20
 70
     0
102
RTVSPropertyOp21
 70
     0
102
RTVSPropertyOp22
 70
     0
102
RTVSPropertyOp23
 70
     0
102
RTVSPropertyOp24
 70
     0
102
RTVSPropertyOp25
 70
     0
102
RTVSPropertyOp26
 70
     0
102
RTVSPropertyOp27
 70
     0
102
RTVSPropertyOp28
 70
     0
102
RTVSPropertyOp29
 70
     0
102
RTVSPropertyOp30
 70
     0
102
RTVSPropertyOp31
 70
     0
102
RTVSPropertyOp32
 70
     0
102
RTVSPropertyOp33
 70
     0
102
RTVSPropertyOp34
 70
     0
102
RTVSPropertyOp35
 70
     0
102
RTVSPropertyOp36
 70
     0
102
RTVSPropertyOp37
 70
     0
102
RTVSPropertyOp38
 70
     0
102
RTVSPropertyOp39
 70
     0
102
RTVSPropertyOp40
 70
     0
102
RTVSPropertyOp41
 70
     0
102
RTVSPropertyOp42
 70
     0
102
RTVSPropertyOp43
 70
     0
102
RTVSPropertyOp44
 70
     0
102
RTVSPropertyOp45
 70
     0
102
RTVSPropertyOp46
 70
     0
102
RTVSPropertyOp47
 70
     0
102
RTVSPropertyOp48
 70
     0
102
RTVSPropertyOp49
 70
     0
102
RTVSPropertyOp50
 70
     0
102
RTVSPropertyOp51
 70
     0
102
RTVSPropertyOp52
 70
     0
102
RTVSPropertyOp53
 70
     0
102
RTVSPropertyOp54
 70
     0
102
RTVSPropertyOp55
 70
     0
102
RTVSPropertyOp56
 70
     0
102
RTVSPropertyOp57
 70
     0
102
RTVSPropertyOp58
 70
     1
102
RTVSPropertyOp59
 70
     1
102
RTVSPropertyOp60
 70
     1
102
RTVSPropertyOp61
 70
     1
102
RTVSPropertyOp62
 70
     1
  0
XRECORD
  5
3C6
102
{ACAD_REACTORS
330
3C5
102
}
330
3C5
100
AcDbXrecord
280
     1
102
RTVSPost2010Prop28
280
     0
102
RTVSPost2010PropOp28
 70
     1
102
RTVSPost2010Prop29
280
     1
102
RTVSPost2010PropOp29
 70
     1
102
RTVSPost2010Prop30
280
     1
102
RTVSPost2010PropOp30
 70
     1
102
RTVSPost2010Prop31
280
     0
102
RTVSPost2010PropOp31
 70
     1
102
RTVSPost2010Prop32
280
     0
102
RTVSPost2010PropOp32
 70
     1
102
RTVSPost2010Prop33
280
     0
102
RTVSPost2010PropOp33
 70
     1
102
RTVSPost2010Prop34
280
     0
102
RTVSPost2010PropOp34
 70
     1
102
RTVSPost2010Prop35
280
     0
102
RTVSPost2010PropOp35
 70
     1
102
RTVSPost2010Prop36
280
     0
102
RTVSPost2010PropOp36
 70
     1
102
RTVSPost2010Prop37
 90
       50
102
RTVSPost2010PropOp37
 70
     1
102
RTVSPost2010Prop38
140
0.0
102
RTVSPost2010PropOp38
 70
     1
102
RTVSPost2010Prop39
140
1.0
102
RTVSPost2010PropOp39
 70
     1
102
RTVSPost2010Prop40
 90
        0
102
RTVSPost2010PropOp40
 70
     1
102
RTVSPost2010Prop41ColorIndex
 90
       18
102
RTVSPost2010Prop41ColorRGB
 90
        0
102
RTVSPost2010PropOp41
 70
     1
102
RTVSPost2010Prop42
 90
       50
102
RTVSPost2010PropOp42
 70
     1
102
RTVSPost2010Prop43
 90
        3
102
RTVSPost2010PropOp43
 70
     1
102
RTVSPost2010Prop44ColorIndex
 90
        5
102
RTVSPost2010Prop44ColorRGB
 90
      255
102
RTVSPost2010PropOp44
 70
     1
102
RTVSPost2010Prop45
280
     0
102
RTVSPost2010PropOp45
 70
     1
102
RTVSPost2010Prop46
 90
       50
102
RTVSPost2010PropOp46
 70
     1
102
RTVSPost2010Prop47
 90
       50
102
RTVSPost2010PropOp47
 70
     1
102
RTVSPost2010Prop48
 90
       50
102
RTVSPost2010PropOp48
 70
     1
102
RTVSPost2010Prop49
280
     0
102
RTVSPost2010PropOp49
 70
     1
102
RTVSPost2010Prop50
 90
       50
102
RTVSPost2010PropOp50
 70
     1
102
RTVSPost2010Prop51ColorIndex
 90
      256
102
RTVSPost2010Prop51ColorRGB
 90
-16777216
102
RTVSPost2010PropOp51
 70
     0
102
RTVSPost2010Prop52
140
1.0
102
RTVSPost2010PropOp52
 70
     0
102
RTVSPost2010Prop53
 90
        2
102
RTVSPost2010PropOp53
 70
     1
102
RTVSPost2010Prop54
  1
strokes_ogs.tif
102
RTVSPost2010PropOp54
 70
     1
102
RTVSPost2010Prop55
280
     0
102
RTVSPost2010PropOp55
 70
     1
102
RTVSPost2010Prop56
140
1.0
102
RTVSPost2010PropOp56
 70
     1
102
RTVSPost2010Prop57
140
1.0
102
RTVSPost2010PropOp57
 70
     1
102
RTVSPropertyOp0
 70
     1
102
RTVSPropertyOp1
 70
     1
102
RTVSPropertyOp2
 70
     1
102
RTVSPropertyOp3
 70
     1
102
RTVSPropertyOp4
 70
     1
102
RTVSPropertyOp5
 70
     1
102
RTVSPropertyOp6
 70
     1
102
RTVSPropertyOp7
 70
     1
102
RTVSPropertyOp8
 70
     1
102
RTVSPropertyOp9
 70
     1
102
RTVSPropertyOp10
 70
     1
102
RTVSPropertyOp11
 70
     1
102
RTVSPropertyOp12
 70
     1
102
RTVSPropertyOp13
 70
     1
102
RTVSPropertyOp14
 70
     1
102
RTVSPropertyOp15
 70
     1
102
RTVSPropertyOp16
 70
     1
102
RTVSPropertyOp17
 70
     1
102
RTVSPropertyOp18
 70
     1
102
RTVSPropertyOp19
 70
     1
102
RTVSPropertyOp20
 70
     1
102
RTVSPropertyOp21
 70
     1
102
RTVSPropertyOp22
 70
     1
102
RTVSPropertyOp23
 70
     1
102
RTVSPropertyOp24
 70
     1
102
RTVSPropertyOp25
 70
     1
102
RTVSPropertyOp26
 70
     1
102
RTVSPropertyOp27
 70
     1
102
RTVSPropertyOp28
 70
     1
102
RTVSPropertyOp29
 70
     1
102
RTVSPropertyOp30
 70
     1
102
RTVSPropertyOp31
 70
     1
102
RTVSPropertyOp32
 70
     1
102
RTVSPropertyOp33
 70
     1
102
RTVSPropertyOp34
 70
     1
102
RTVSPropertyOp35
 70
     1
102
RTVSPropertyOp36
 70
     1
102
RTVSPropertyOp37
 70
     1
102
RTVSPropertyOp38
 70
     1
102
RTVSPropertyOp39
 70
     1
102
RTVSPropertyOp40
 70
     1
102
RTVSPropertyOp41
 70
     1
102
RTVSPropertyOp42
 70
     1
102
RTVSPropertyOp43
 70
     1
102
RTVSPropertyOp44
 70
     1
102
RTVSPropertyOp45
 70
     1
102
RTVSPropertyOp46
 70
     1
102
RTVSPropertyOp47
 70
     1
102
RTVSPropertyOp48
 70
     1
102
RTVSPropertyOp49
 70
     1
102
RTVSPropertyOp50
 70
     1
102
RTVSPropertyOp51
 70
     0
102
RTVSPropertyOp52
 70
     0
102
RTVSPropertyOp53
 70
     1
102
RTVSPropertyOp54
 70
     1
102
RTVSPropertyOp55
 70
     1
102
RTVSPropertyOp56
 70
     1
102
RTVSPropertyOp57
 70
     1
102
RTVSPropertyOp58
 70
     1
102
RTVSPropertyOp59
 70
     1
102
RTVSPropertyOp60
 70
     1
102
RTVSPropertyOp61
 70
     1
102
RTVSPropertyOp62
 70
     1
  0
XRECORD
  5
3AA
102
{ACAD_REACTORS
330
3A9
102
}
330
3A9
100
AcDbXrecord
280
     1
102
RTVSPost2010Prop28
280
     0
102
RTVSPost2010PropOp28
 70
     1
102
RTVSPost2010Prop29
280
     1
102
RTVSPost2010PropOp29
 70
     1
102
RTVSPost2010Prop30
280
     1
102
RTVSPost2010PropOp30
 70
     1
102
RTVSPost2010Prop31
280
     0
102
RTVSPost2010PropOp31
 70
     1
102
RTVSPost2010Prop32
280
     0
102
RTVSPost2010PropOp32
 70
     1
102
RTVSPost2010Prop33
280
     0
102
RTVSPost2010PropOp33
 70
     1
102
RTVSPost2010Prop34
280
     0
102
RTVSPost2010PropOp34
 70
     1
102
RTVSPost2010Prop35
280
     0
102
RTVSPost2010PropOp35
 70
     1
102
RTVSPost2010Prop36
280
     0
102
RTVSPost2010PropOp36
 70
     1
102
RTVSPost2010Prop37
 90
       50
102
RTVSPost2010PropOp37
 70
     1
102
RTVSPost2010Prop38
140
0.0
102
RTVSPost2010PropOp38
 70
     1
102
RTVSPost2010Prop39
140
1.0
102
RTVSPost2010PropOp39
 70
     1
102
RTVSPost2010Prop40
 90
        0
102
RTVSPost2010PropOp40
 70
     1
102
RTVSPost2010Prop41ColorIndex
 90
       18
102
RTVSPost2010Prop41ColorRGB
 90
        0
102
RTVSPost2010PropOp41
 70
     1
102
RTVSPost2010Prop42
 90
       50
102
RTVSPost2010PropOp42
 70
     1
102
RTVSPost2010Prop43
 90
        3
102
RTVSPost2010PropOp43
 70
     1
102
RTVSPost2010Prop44ColorIndex
 90
        5
102
RTVSPost2010Prop44ColorRGB
 90
      255
102
RTVSPost2010PropOp44
 70
     1
102
RTVSPost2010Prop45
280
     0
102
RTVSPost2010PropOp45
 70
     1
102
RTVSPost2010Prop46
 90
       50
102
RTVSPost2010PropOp46
 70
     1
102
RTVSPost2010Prop47
 90
       50
102
RTVSPost2010PropOp47
 70
     1
102
RTVSPost2010Prop48
 90
       50
102
RTVSPost2010PropOp48
 70
     1
102
RTVSPost2010Prop49
280
     0
102
RTVSPost2010PropOp49
 70
     1
102
RTVSPost2010Prop50
 90
       50
102
RTVSPost2010PropOp50
 70
     1
102
RTVSPost2010Prop51ColorIndex
 90
      256
102
RTVSPost2010Prop51ColorRGB
 90
-16777216
102
RTVSPost2010PropOp51
 70
     0
102
RTVSPost2010Prop52
140
1.0
102
RTVSPost2010PropOp52
 70
     0
102
RTVSPost2010Prop53
 90
        2
102
RTVSPost2010PropOp53
 70
     1
102
RTVSPost2010Prop54
  1
strokes_ogs.tif
102
RTVSPost2010PropOp54
 70
     1
102
RTVSPost2010Prop55
280
     0
102
RTVSPost2010PropOp55
 70
     1
102
RTVSPost2010Prop56
140
1.0
102
RTVSPost2010PropOp56
 70
     1
102
RTVSPost2010Prop57
140
1.0
102
RTVSPost2010PropOp57
 70
     1
102
RTVSPropertyOp0
 70
     1
102
RTVSPropertyOp1
 70
     1
102
RTVSPropertyOp2
 70
     1
102
RTVSPropertyOp3
 70
     1
102
RTVSPropertyOp4
 70
     1
102
RTVSPropertyOp5
 70
     1
102
RTVSPropertyOp6
 70
     1
102
RTVSPropertyOp7
 70
     1
102
RTVSPropertyOp8
 70
     1
102
RTVSPropertyOp9
 70
     1
102
RTVSPropertyOp10
 70
     1
102
RTVSPropertyOp11
 70
     1
102
RTVSPropertyOp12
 70
     1
102
RTVSPropertyOp13
 70
     1
102
RTVSPropertyOp14
 70
     1
102
RTVSPropertyOp15
 70
     1
102
RTVSPropertyOp16
 70
     1
102
RTVSPropertyOp17
 70
     1
102
RTVSPropertyOp18
 70
     1
102
RTVSPropertyOp19
 70
     1
102
RTVSPropertyOp20
 70
     1
102
RTVSPropertyOp21
 70
     1
102
RTVSPropertyOp22
 70
     1
102
RTVSPropertyOp23
 70
     1
102
RTVSPropertyOp24
 70
     1
102
RTVSPropertyOp25
 70
     1
102
RTVSPropertyOp26
 70
     1
102
RTVSPropertyOp27
 70
     1
102
RTVSPropertyOp28
 70
     1
102
RTVSPropertyOp29
 70
     1
102
RTVSPropertyOp30
 70
     1
102
RTVSPropertyOp31
 70
     1
102
RTVSPropertyOp32
 70
     1
102
RTVSPropertyOp33
 70
     1
102
RTVSPropertyOp34
 70
     1
102
RTVSPropertyOp35
 70
     1
102
RTVSPropertyOp36
 70
     1
102
RTVSPropertyOp37
 70
     1
102
RTVSPropertyOp38
 70
     1
102
RTVSPropertyOp39
 70
     1
102
RTVSPropertyOp40
 70
     1
102
RTVSPropertyOp41
 70
     1
102
RTVSPropertyOp42
 70
     1
102
RTVSPropertyOp43
 70
     1
102
RTVSPropertyOp44
 70
     1
102
RTVSPropertyOp45
 70
     1
102
RTVSPropertyOp46
 70
     1
102
RTVSPropertyOp47
 70
     1
102
RTVSPropertyOp48
 70
     1
102
RTVSPropertyOp49
 70
     1
102
RTVSPropertyOp50
 70
     1
102
RTVSPropertyOp51
 70
     0
102
RTVSPropertyOp52
 70
     0
102
RTVSPropertyOp53
 70
     1
102
RTVSPropertyOp54
 70
     1
102
RTVSPropertyOp55
 70
     1
102
RTVSPropertyOp56
 70
     1
102
RTVSPropertyOp57
 70
     1
102
RTVSPropertyOp58
 70
     1
102
RTVSPropertyOp59
 70
     1
102
RTVSPropertyOp60
 70
     1
102
RTVSPropertyOp61
 70
     1
102
RTVSPropertyOp62
 70
     1
  0
XRECORD
  5
3AC
102
{ACAD_REACTORS
330
3AB
102
}
330
3AB
100
AcDbXrecord
280
     1
102
RTVSPost2010Prop28
280
     0
102
RTVSPost2010PropOp28
 70
     1
102
RTVSPost2010Prop29
280
     1
102
RTVSPost2010PropOp29
 70
     1
102
RTVSPost2010Prop30
280
     1
102
RTVSPost2010PropOp30
 70
     1
102
RTVSPost2010Prop31
280
     0
102
RTVSPost2010PropOp31
 70
     1
102
RTVSPost2010Prop32
280
     0
102
RTVSPost2010PropOp32
 70
     1
102
RTVSPost2010Prop33
280
     0
102
RTVSPost2010PropOp33
 70
     1
102
RTVSPost2010Prop34
280
     0
102
RTVSPost2010PropOp34
 70
     1
102
RTVSPost2010Prop35
280
     0
102
RTVSPost2010PropOp35
 70
     1
102
RTVSPost2010Prop36
280
     0
102
RTVSPost2010PropOp36
 70
     1
102
RTVSPost2010Prop37
 90
       50
102
RTVSPost2010PropOp37
 70
     1
102
RTVSPost2010Prop38
140
0.0
102
RTVSPost2010PropOp38
 70
     1
102
RTVSPost2010Prop39
140
1.0
102
RTVSPost2010PropOp39
 70
     1
102
RTVSPost2010Prop40
 90
        0
102
RTVSPost2010PropOp40
 70
     1
102
RTVSPost2010Prop41ColorIndex
 90
       18
102
RTVSPost2010Prop41ColorRGB
 90
        0
102
RTVSPost2010PropOp41
 70
     1
102
RTVSPost2010Prop42
 90
       50
102
RTVSPost2010PropOp42
 70
     1
102
RTVSPost2010Prop43
 90
        3
102
RTVSPost2010PropOp43
 70
     1
102
RTVSPost2010Prop44ColorIndex
 90
        5
102
RTVSPost2010Prop44ColorRGB
 90
      255
102
RTVSPost2010PropOp44
 70
     1
102
RTVSPost2010Prop45
280
     0
102
RTVSPost2010PropOp45
 70
     1
102
RTVSPost2010Prop46
 90
       50
102
RTVSPost2010PropOp46
 70
     1
102
RTVSPost2010Prop47
 90
       50
102
RTVSPost2010PropOp47
 70
     1
102
RTVSPost2010Prop48
 90
       50
102
RTVSPost2010PropOp48
 70
     1
102
RTVSPost2010Prop49
280
     0
102
RTVSPost2010PropOp49
 70
     1
102
RTVSPost2010Prop50
 90
       50
102
RTVSPost2010PropOp50
 70
     1
102
RTVSPost2010Prop51ColorIndex
 90
      256
102
RTVSPost2010Prop51ColorRGB
 90
-16777216
102
RTVSPost2010PropOp51
 70
     0
102
RTVSPost2010Prop52
140
1.0
102
RTVSPost2010PropOp52
 70
     0
102
RTVSPost2010Prop53
 90
        2
102
RTVSPost2010PropOp53
 70
     1
102
RTVSPost2010Prop54
  1
strokes_ogs.tif
102
RTVSPost2010PropOp54
 70
     1
102
RTVSPost2010Prop55
280
     0
102
RTVSPost2010PropOp55
 70
     1
102
RTVSPost2010Prop56
140
1.0
102
RTVSPost2010PropOp56
 70
     1
102
RTVSPost2010Prop57
140
1.0
102
RTVSPost2010PropOp57
 70
     1
102
RTVSPropertyOp0
 70
     1
102
RTVSPropertyOp1
 70
     1
102
RTVSPropertyOp2
 70
     1
102
RTVSPropertyOp3
 70
     1
102
RTVSPropertyOp4
 70
     1
102
RTVSPropertyOp5
 70
     1
102
RTVSPropertyOp6
 70
     1
102
RTVSPropertyOp7
 70
     1
102
RTVSPropertyOp8
 70
     1
102
RTVSPropertyOp9
 70
     1
102
RTVSPropertyOp10
 70
     1
102
RTVSPropertyOp11
 70
     1
102
RTVSPropertyOp12
 70
     1
102
RTVSPropertyOp13
 70
     1
102
RTVSPropertyOp14
 70
     1
102
RTVSPropertyOp15
 70
     1
102
RTVSPropertyOp16
 70
     1
102
RTVSPropertyOp17
 70
     1
102
RTVSPropertyOp18
 70
     1
102
RTVSPropertyOp19
 70
     1
102
RTVSPropertyOp20
 70
     1
102
RTVSPropertyOp21
 70
     1
102
RTVSPropertyOp22
 70
     1
102
RTVSPropertyOp23
 70
     1
102
RTVSPropertyOp24
 70
     1
102
RTVSPropertyOp25
 70
     1
102
RTVSPropertyOp26
 70
     1
102
RTVSPropertyOp27
 70
     1
102
RTVSPropertyOp28
 70
     1
102
RTVSPropertyOp29
 70
     1
102
RTVSPropertyOp30
 70
     1
102
RTVSPropertyOp31
 70
     1
102
RTVSPropertyOp32
 70
     1
102
RTVSPropertyOp33
 70
     1
102
RTVSPropertyOp34
 70
     1
102
RTVSPropertyOp35
 70
     1
102
RTVSPropertyOp36
 70
     1
102
RTVSPropertyOp37
 70
     1
102
RTVSPropertyOp38
 70
     1
102
RTVSPropertyOp39
 70
     1
102
RTVSPropertyOp40
 70
     1
102
RTVSPropertyOp41
 70
     1
102
RTVSPropertyOp42
 70
     1
102
RTVSPropertyOp43
 70
     1
102
RTVSPropertyOp44
 70
     1
102
RTVSPropertyOp45
 70
     1
102
RTVSPropertyOp46
 70
     1
102
RTVSPropertyOp47
 70
     1
102
RTVSPropertyOp48
 70
     1
102
RTVSPropertyOp49
 70
     1
102
RTVSPropertyOp50
 70
     1
102
RTVSPropertyOp51
 70
     0
102
RTVSPropertyOp52
 70
     0
102
RTVSPropertyOp53
 70
     1
102
RTVSPropertyOp54
 70
     1
102
RTVSPropertyOp55
 70
     1
102
RTVSPropertyOp56
 70
     1
102
RTVSPropertyOp57
 70
     1
102
RTVSPropertyOp58
 70
     1
102
RTVSPropertyOp59
 70
     1
102
RTVSPropertyOp60
 70
     1
102
RTVSPropertyOp61
 70
     1
102
RTVSPropertyOp62
 70
     1
  0
XRECORD
  5
3AE
102
{ACAD_REACTORS
330
3AD
102
}
330
3AD
100
AcDbXrecord
280
     1
102
RTVSPost2010Prop28
280
     0
102
RTVSPost2010PropOp28
 70
     1
102
RTVSPost2010Prop29
280
     1
102
RTVSPost2010PropOp29
 70
     1
102
RTVSPost2010Prop30
280
     1
102
RTVSPost2010PropOp30
 70
     1
102
RTVSPost2010Prop31
280
     0
102
RTVSPost2010PropOp31
 70
     1
102
RTVSPost2010Prop32
280
     0
102
RTVSPost2010PropOp32
 70
     1
102
RTVSPost2010Prop33
280
     0
102
RTVSPost2010PropOp33
 70
     1
102
RTVSPost2010Prop34
280
     0
102
RTVSPost2010PropOp34
 70
     1
102
RTVSPost2010Prop35
280
     0
102
RTVSPost2010PropOp35
 70
     1
102
RTVSPost2010Prop36
280
     0
102
RTVSPost2010PropOp36
 70
     1
102
RTVSPost2010Prop37
 90
       50
102
RTVSPost2010PropOp37
 70
     1
102
RTVSPost2010Prop38
140
0.0
102
RTVSPost2010PropOp38
 70
     1
102
RTVSPost2010Prop39
140
1.0
102
RTVSPost2010PropOp39
 70
     1
102
RTVSPost2010Prop40
 90
        0
102
RTVSPost2010PropOp40
 70
     1
102
RTVSPost2010Prop41ColorIndex
 90
       18
102
RTVSPost2010Prop41ColorRGB
 90
        0
102
RTVSPost2010PropOp41
 70
     1
102
RTVSPost2010Prop42
 90
       50
102
RTVSPost2010PropOp42
 70
     1
102
RTVSPost2010Prop43
 90
        3
102
RTVSPost2010PropOp43
 70
     1
102
RTVSPost2010Prop44ColorIndex
 90
        5
102
RTVSPost2010Prop44ColorRGB
 90
      255
102
RTVSPost2010PropOp44
 70
     1
102
RTVSPost2010Prop45
280
     0
102
RTVSPost2010PropOp45
 70
     1
102
RTVSPost2010Prop46
 90
       50
102
RTVSPost2010PropOp46
 70
     1
102
RTVSPost2010Prop47
 90
       50
102
RTVSPost2010PropOp47
 70
     1
102
RTVSPost2010Prop48
 90
       50
102
RTVSPost2010PropOp48
 70
     1
102
RTVSPost2010Prop49
280
     0
102
RTVSPost2010PropOp49
 70
     1
102
RTVSPost2010Prop50
 90
       50
102
RTVSPost2010PropOp50
 70
     1
102
RTVSPost2010Prop51ColorIndex
 90
      256
102
RTVSPost2010Prop51ColorRGB
 90
-16777216
102
RTVSPost2010PropOp51
 70
     0
102
RTVSPost2010Prop52
140
1.0
102
RTVSPost2010PropOp52
 70
     0
102
RTVSPost2010Prop53
 90
        2
102
RTVSPost2010PropOp53
 70
     1
102
RTVSPost2010Prop54
  1
strokes_ogs.tif
102
RTVSPost2010PropOp54
 70
     1
102
RTVSPost2010Prop55
280
     0
102
RTVSPost2010PropOp55
 70
     1
102
RTVSPost2010Prop56
140
1.0
102
RTVSPost2010PropOp56
 70
     1
102
RTVSPost2010Prop57
140
1.0
102
RTVSPost2010PropOp57
 70
     1
102
RTVSPropertyOp0
 70
     1
102
RTVSPropertyOp1
 70
     1
102
RTVSPropertyOp2
 70
     1
102
RTVSPropertyOp3
 70
     1
102
RTVSPropertyOp4
 70
     1
102
RTVSPropertyOp5
 70
     1
102
RTVSPropertyOp6
 70
     1
102
RTVSPropertyOp7
 70
     1
102
RTVSPropertyOp8
 70
     1
102
RTVSPropertyOp9
 70
     1
102
RTVSPropertyOp10
 70
     1
102
RTVSPropertyOp11
 70
     1
102
RTVSPropertyOp12
 70
     1
102
RTVSPropertyOp13
 70
     1
102
RTVSPropertyOp14
 70
     1
102
RTVSPropertyOp15
 70
     1
102
RTVSPropertyOp16
 70
     1
102
RTVSPropertyOp17
 70
     1
102
RTVSPropertyOp18
 70
     1
102
RTVSPropertyOp19
 70
     1
102
RTVSPropertyOp20
 70
     1
102
RTVSPropertyOp21
 70
     1
102
RTVSPropertyOp22
 70
     1
102
RTVSPropertyOp23
 70
     1
102
RTVSPropertyOp24
 70
     1
102
RTVSPropertyOp25
 70
     1
102
RTVSPropertyOp26
 70
     1
102
RTVSPropertyOp27
 70
     1
102
RTVSPropertyOp28
 70
     1
102
RTVSPropertyOp29
 70
     1
102
RTVSPropertyOp30
 70
     1
102
RTVSPropertyOp31
 70
     1
102
RTVSPropertyOp32
 70
     1
102
RTVSPropertyOp33
 70
     1
102
RTVSPropertyOp34
 70
     1
102
RTVSPropertyOp35
 70
     1
102
RTVSPropertyOp36
 70
     1
102
RTVSPropertyOp37
 70
     1
102
RTVSPropertyOp38
 70
     1
102
RTVSPropertyOp39
 70
     1
102
RTVSPropertyOp40
 70
     1
102
RTVSPropertyOp41
 70
     1
102
RTVSPropertyOp42
 70
     1
102
RTVSPropertyOp43
 70
     1
102
RTVSPropertyOp44
 70
     1
102
RTVSPropertyOp45
 70
     1
102
RTVSPropertyOp46
 70
     1
102
RTVSPropertyOp47
 70
     1
102
RTVSPropertyOp48
 70
     1
102
RTVSPropertyOp49
 70
     1
102
RTVSPropertyOp50
 70
     1
102
RTVSPropertyOp51
 70
     0
102
RTVSPropertyOp52
 70
     0
102
RTVSPropertyOp53
 70
     1
102
RTVSPropertyOp54
 70
     1
102
RTVSPropertyOp55
 70
     1
102
RTVSPropertyOp56
 70
     1
102
RTVSPropertyOp57
 70
     1
102
RTVSPropertyOp58
 70
     1
102
RTVSPropertyOp59
 70
     1
102
RTVSPropertyOp60
 70
     1
102
RTVSPropertyOp61
 70
     1
102
RTVSPropertyOp62
 70
     1
  0
XRECORD
  5
3B0
102
{ACAD_REACTORS
330
3AF
102
}
330
3AF
100
AcDbXrecord
280
     1
102
RTVSPost2010Prop28
280
     0
102
RTVSPost2010PropOp28
 70
     1
102
RTVSPost2010Prop29
280
     1
102
RTVSPost2010PropOp29
 70
     1
102
RTVSPost2010Prop30
280
     1
102
RTVSPost2010PropOp30
 70
     1
102
RTVSPost2010Prop31
280
     0
102
RTVSPost2010PropOp31
 70
     1
102
RTVSPost2010Prop32
280
     0
102
RTVSPost2010PropOp32
 70
     1
102
RTVSPost2010Prop33
280
     0
102
RTVSPost2010PropOp33
 70
     1
102
RTVSPost2010Prop34
280
     0
102
RTVSPost2010PropOp34
 70
     1
102
RTVSPost2010Prop35
280
     0
102
RTVSPost2010PropOp35
 70
     1
102
RTVSPost2010Prop36
280
     0
102
RTVSPost2010PropOp36
 70
     1
102
RTVSPost2010Prop37
 90
       50
102
RTVSPost2010PropOp37
 70
     1
102
RTVSPost2010Prop38
140
0.0
102
RTVSPost2010PropOp38
 70
     1
102
RTVSPost2010Prop39
140
1.0
102
RTVSPost2010PropOp39
 70
     1
102
RTVSPost2010Prop40
 90
        0
102
RTVSPost2010PropOp40
 70
     1
102
RTVSPost2010Prop41ColorIndex
 90
       18
102
RTVSPost2010Prop41ColorRGB
 90
        0
102
RTVSPost2010PropOp41
 70
     1
102
RTVSPost2010Prop42
 90
       50
102
RTVSPost2010PropOp42
 70
     1
102
RTVSPost2010Prop43
 90
        3
102
RTVSPost2010PropOp43
 70
     1
102
RTVSPost2010Prop44ColorIndex
 90
        5
102
RTVSPost2010Prop44ColorRGB
 90
      255
102
RTVSPost2010PropOp44
 70
     1
102
RTVSPost2010Prop45
280
     0
102
RTVSPost2010PropOp45
 70
     1
102
RTVSPost2010Prop46
 90
       50
102
RTVSPost2010PropOp46
 70
     1
102
RTVSPost2010Prop47
 90
       50
102
RTVSPost2010PropOp47
 70
     1
102
RTVSPost2010Prop48
 90
       50
102
RTVSPost2010PropOp48
 70
     1
102
RTVSPost2010Prop49
280
     0
102
RTVSPost2010PropOp49
 70
     1
102
RTVSPost2010Prop50
 90
       50
102
RTVSPost2010PropOp50
 70
     1
102
RTVSPost2010Prop51ColorIndex
 90
      256
102
RTVSPost2010Prop51ColorRGB
 90
-16777216
102
RTVSPost2010PropOp51
 70
     0
102
RTVSPost2010Prop52
140
1.0
102
RTVSPost2010PropOp52
 70
     0
102
RTVSPost2010Prop53
 90
        2
102
RTVSPost2010PropOp53
 70
     1
102
RTVSPost2010Prop54
  1
strokes_ogs.tif
102
RTVSPost2010PropOp54
 70
     1
102
RTVSPost2010Prop55
280
     0
102
RTVSPost2010PropOp55
 70
     1
102
RTVSPost2010Prop56
140
1.0
102
RTVSPost2010PropOp56
 70
     1
102
RTVSPost2010Prop57
140
1.0
102
RTVSPost2010PropOp57
 70
     1
102
RTVSPropertyOp0
 70
     1
102
RTVSPropertyOp1
 70
     1
102
RTVSPropertyOp2
 70
     1
102
RTVSPropertyOp3
 70
     1
102
RTVSPropertyOp4
 70
     1
102
RTVSPropertyOp5
 70
     1
102
RTVSPropertyOp6
 70
     1
102
RTVSPropertyOp7
 70
     1
102
RTVSPropertyOp8
 70
     1
102
RTVSPropertyOp9
 70
     1
102
RTVSPropertyOp10
 70
     1
102
RTVSPropertyOp11
 70
     1
102
RTVSPropertyOp12
 70
     1
102
RTVSPropertyOp13
 70
     1
102
RTVSPropertyOp14
 70
     1
102
RTVSPropertyOp15
 70
     1
102
RTVSPropertyOp16
 70
     1
102
RTVSPropertyOp17
 70
     1
102
RTVSPropertyOp18
 70
     1
102
RTVSPropertyOp19
 70
     1
102
RTVSPropertyOp20
 70
     1
102
RTVSPropertyOp21
 70
     1
102
RTVSPropertyOp22
 70
     1
102
RTVSPropertyOp23
 70
     1
102
RTVSPropertyOp24
 70
     1
102
RTVSPropertyOp25
 70
     1
102
RTVSPropertyOp26
 70
     1
102
RTVSPropertyOp27
 70
     1
102
RTVSPropertyOp28
 70
     1
102
RTVSPropertyOp29
 70
     1
102
RTVSPropertyOp30
 70
     1
102
RTVSPropertyOp31
 70
     1
102
RTVSPropertyOp32
 70
     1
102
RTVSPropertyOp33
 70
     1
102
RTVSPropertyOp34
 70
     1
102
RTVSPropertyOp35
 70
     1
102
RTVSPropertyOp36
 70
     1
102
RTVSPropertyOp37
 70
     1
102
RTVSPropertyOp38
 70
     1
102
RTVSPropertyOp39
 70
     1
102
RTVSPropertyOp40
 70
     1
102
RTVSPropertyOp41
 70
     1
102
RTVSPropertyOp42
 70
     1
102
RTVSPropertyOp43
 70
     1
102
RTVSPropertyOp44
 70
     1
102
RTVSPropertyOp45
 70
     1
102
RTVSPropertyOp46
 70
     1
102
RTVSPropertyOp47
 70
     1
102
RTVSPropertyOp48
 70
     1
102
RTVSPropertyOp49
 70
     1
102
RTVSPropertyOp50
 70
     1
102
RTVSPropertyOp51
 70
     0
102
RTVSPropertyOp52
 70
     0
102
RTVSPropertyOp53
 70
     1
102
RTVSPropertyOp54
 70
     1
102
RTVSPropertyOp55
 70
     1
102
RTVSPropertyOp56
 70
     1
102
RTVSPropertyOp57
 70
     1
102
RTVSPropertyOp58
 70
     1
102
RTVSPropertyOp59
 70
     1
102
RTVSPropertyOp60
 70
     1
102
RTVSPropertyOp61
 70
     1
102
RTVSPropertyOp62
 70
     1
  0
XRECORD
  5
3B6
102
{ACAD_REACTORS
330
3B5
102
}
330
3B5
100
AcDbXrecord
280
     1
102
RTVSPost2010Prop28
280
     0
102
RTVSPost2010PropOp28
 70
     1
102
RTVSPost2010Prop29
280
     1
102
RTVSPost2010PropOp29
 70
     1
102
RTVSPost2010Prop30
280
     1
102
RTVSPost2010PropOp30
 70
     1
102
RTVSPost2010Prop31
280
     0
102
RTVSPost2010PropOp31
 70
     1
102
RTVSPost2010Prop32
280
     0
102
RTVSPost2010PropOp32
 70
     1
102
RTVSPost2010Prop33
280
     0
102
RTVSPost2010PropOp33
 70
     1
102
RTVSPost2010Prop34
280
     0
102
RTVSPost2010PropOp34
 70
     1
102
RTVSPost2010Prop35
280
     0
102
RTVSPost2010PropOp35
 70
     1
102
RTVSPost2010Prop36
280
     0
102
RTVSPost2010PropOp36
 70
     1
102
RTVSPost2010Prop37
 90
       50
102
RTVSPost2010PropOp37
 70
     1
102
RTVSPost2010Prop38
140
0.0
102
RTVSPost2010PropOp38
 70
     1
102
RTVSPost2010Prop39
140
1.0
102
RTVSPost2010PropOp39
 70
     1
102
RTVSPost2010Prop40
 90
        0
102
RTVSPost2010PropOp40
 70
     1
102
RTVSPost2010Prop41ColorIndex
 90
       18
102
RTVSPost2010Prop41ColorRGB
 90
        0
102
RTVSPost2010PropOp41
 70
     1
102
RTVSPost2010Prop42
 90
       50
102
RTVSPost2010PropOp42
 70
     1
102
RTVSPost2010Prop43
 90
        3
102
RTVSPost2010PropOp43
 70
     1
102
RTVSPost2010Prop44ColorIndex
 90
        5
102
RTVSPost2010Prop44ColorRGB
 90
      255
102
RTVSPost2010PropOp44
 70
     1
102
RTVSPost2010Prop45
280
     0
102
RTVSPost2010PropOp45
 70
     1
102
RTVSPost2010Prop46
 90
       50
102
RTVSPost2010PropOp46
 70
     1
102
RTVSPost2010Prop47
 90
       50
102
RTVSPost2010PropOp47
 70
     1
102
RTVSPost2010Prop48
 90
       50
102
RTVSPost2010PropOp48
 70
     1
102
RTVSPost2010Prop49
280
     0
102
RTVSPost2010PropOp49
 70
     1
102
RTVSPost2010Prop50
 90
       50
102
RTVSPost2010PropOp50
 70
     1
102
RTVSPost2010Prop51ColorIndex
 90
      256
102
RTVSPost2010Prop51ColorRGB
 90
-16777216
102
RTVSPost2010PropOp51
 70
     0
102
RTVSPost2010Prop52
140
1.0
102
RTVSPost2010PropOp52
 70
     0
102
RTVSPost2010Prop53
 90
        2
102
RTVSPost2010PropOp53
 70
     1
102
RTVSPost2010Prop54
  1
strokes_ogs.tif
102
RTVSPost2010PropOp54
 70
     1
102
RTVSPost2010Prop55
280
     0
102
RTVSPost2010PropOp55
 70
     1
102
RTVSPost2010Prop56
140
1.0
102
RTVSPost2010PropOp56
 70
     1
102
RTVSPost2010Prop57
140
1.0
102
RTVSPost2010PropOp57
 70
     1
102
RTVSPropertyOp0
 70
     1
102
RTVSPropertyOp1
 70
     1
102
RTVSPropertyOp2
 70
     1
102
RTVSPropertyOp3
 70
     1
102
RTVSPropertyOp4
 70
     1
102
RTVSPropertyOp5
 70
     1
102
RTVSPropertyOp6
 70
     1
102
RTVSPropertyOp7
 70
     1
102
RTVSPropertyOp8
 70
     1
102
RTVSPropertyOp9
 70
     1
102
RTVSPropertyOp10
 70
     1
102
RTVSPropertyOp11
 70
     1
102
RTVSPropertyOp12
 70
     1
102
RTVSPropertyOp13
 70
     1
102
RTVSPropertyOp14
 70
     1
102
RTVSPropertyOp15
 70
     1
102
RTVSPropertyOp16
 70
     1
102
RTVSPropertyOp17
 70
     1
102
RTVSPropertyOp18
 70
     1
102
RTVSPropertyOp19
 70
     1
102
RTVSPropertyOp20
 70
     1
102
RTVSPropertyOp21
 70
     1
102
RTVSPropertyOp22
 70
     1
102
RTVSPropertyOp23
 70
     1
102
RTVSPropertyOp24
 70
     1
102
RTVSPropertyOp25
 70
     1
102
RTVSPropertyOp26
 70
     1
102
RTVSPropertyOp27
 70
     1
102
RTVSPropertyOp28
 70
     1
102
RTVSPropertyOp29
 70
     1
102
RTVSPropertyOp30
 70
     1
102
RTVSPropertyOp31
 70
     1
102
RTVSPropertyOp32
 70
     1
102
RTVSPropertyOp33
 70
     1
102
RTVSPropertyOp34
 70
     1
102
RTVSPropertyOp35
 70
     1
102
RTVSPropertyOp36
 70
     1
102
RTVSPropertyOp37
 70
     1
102
RTVSPropertyOp38
 70
     1
102
RTVSPropertyOp39
 70
     1
102
RTVSPropertyOp40
 70
     1
102
RTVSPropertyOp41
 70
     1
102
RTVSPropertyOp42
 70
     1
102
RTVSPropertyOp43
 70
     1
102
RTVSPropertyOp44
 70
     1
102
RTVSPropertyOp45
 70
     1
102
RTVSPropertyOp46
 70
     1
102
RTVSPropertyOp47
 70
     1
102
RTVSPropertyOp48
 70
     1
102
RTVSPropertyOp49
 70
     1
102
RTVSPropertyOp50
 70
     1
102
RTVSPropertyOp51
 70
     0
102
RTVSPropertyOp52
 70
     0
102
RTVSPropertyOp53
 70
     1
102
RTVSPropertyOp54
 70
     1
102
RTVSPropertyOp55
 70
     1
102
RTVSPropertyOp56
 70
     1
102
RTVSPropertyOp57
 70
     1
102
RTVSPropertyOp58
 70
     1
102
RTVSPropertyOp59
 70
     1
102
RTVSPropertyOp60
 70
     1
102
RTVSPropertyOp61
 70
     1
102
RTVSPropertyOp62
 70
     1
  0
XRECORD
  5
3CA
102
{ACAD_REACTORS
330
3C9
102
}
330
3C9
100
AcDbXrecord
280
     1
102
RTVSPost2010Prop28
280
     0
102
RTVSPost2010PropOp28
 70
     0
102
RTVSPost2010Prop29
280
     1
102
RTVSPost2010PropOp29
 70
     0
102
RTVSPost2010Prop30
280
     1
102
RTVSPost2010PropOp30
 70
     0
102
RTVSPost2010Prop31
280
     0
102
RTVSPost2010PropOp31
 70
     0
102
RTVSPost2010Prop32
280
     0
102
RTVSPost2010PropOp32
 70
     0
102
RTVSPost2010Prop33
280
     0
102
RTVSPost2010PropOp33
 70
     0
102
RTVSPost2010Prop34
280
     0
102
RTVSPost2010PropOp34
 70
     0
102
RTVSPost2010Prop35
280
     0
102
RTVSPost2010PropOp35
 70
     0
102
RTVSPost2010Prop36
280
     0
102
RTVSPost2010PropOp36
 70
     0
102
RTVSPost2010Prop37
 90
       50
102
RTVSPost2010PropOp37
 70
     0
102
RTVSPost2010Prop38
140
0.0
102
RTVSPost2010PropOp38
 70
     0
102
RTVSPost2010Prop39
140
1.0
102
RTVSPost2010PropOp39
 70
     0
102
RTVSPost2010Prop40
 90
        0
102
RTVSPost2010PropOp40
 70
     0
102
RTVSPost2010Prop41ColorIndex
 90
       18
102
RTVSPost2010Prop41ColorRGB
 90
        0
102
RTVSPost2010PropOp41
 70
     0
102
RTVSPost2010Prop42
 90
       50
102
RTVSPost2010PropOp42
 70
     0
102
RTVSPost2010Prop43
 90
        3
102
RTVSPost2010PropOp43
 70
     0
102
RTVSPost2010Prop44ColorIndex
 90
        5
102
RTVSPost2010Prop44ColorRGB
 90
      255
102
RTVSPost2010PropOp44
 70
     0
102
RTVSPost2010Prop45
280
     0
102
RTVSPost2010PropOp45
 70
     0
102
RTVSPost2010Prop46
 90
       50
102
RTVSPost2010PropOp46
 70
     0
102
RTVSPost2010Prop47
 90
       50
102
RTVSPost2010PropOp47
 70
     0
102
RTVSPost2010Prop48
 90
       50
102
RTVSPost2010PropOp48
 70
     0
102
RTVSPost2010Prop49
280
     0
102
RTVSPost2010PropOp49
 70
     0
102
RTVSPost2010Prop50
 90
       50
102
RTVSPost2010PropOp50
 70
     0
102
RTVSPost2010Prop51ColorIndex
 90
      256
102
RTVSPost2010Prop51ColorRGB
 90
-16777216
102
RTVSPost2010PropOp51
 70
     0
102
RTVSPost2010Prop52
140
1.0
102
RTVSPost2010PropOp52
 70
     0
102
RTVSPost2010Prop53
 90
        2
102
RTVSPost2010PropOp53
 70
     0
102
RTVSPost2010Prop54
  1
strokes_ogs.tif
102
RTVSPost2010PropOp54
 70
     0
102
RTVSPost2010Prop55
280
     0
102
RTVSPost2010PropOp55
 70
     0
102
RTVSPost2010Prop56
140
1.0
102
RTVSPost2010PropOp56
 70
     0
102
RTVSPost2010Prop57
140
1.0
102
RTVSPost2010PropOp57
 70
     0
102
RTVSPropertyOp0
 70
     0
102
RTVSPropertyOp1
 70
     0
102
RTVSPropertyOp2
 70
     0
102
RTVSPropertyOp3
 70
     0
102
RTVSPropertyOp4
 70
     0
102
RTVSPropertyOp5
 70
     0
102
RTVSPropertyOp6
 70
     0
102
RTVSPropertyOp7
 70
     0
102
RTVSPropertyOp8
 70
     0
102
RTVSPropertyOp9
 70
     0
102
RTVSPropertyOp10
 70
     0
102
RTVSPropertyOp11
 70
     0
102
RTVSPropertyOp12
 70
     0
102
RTVSPropertyOp13
 70
     0
102
RTVSPropertyOp14
 70
     2
102
RTVSPropertyOp15
 70
     0
102
RTVSPropertyOp16
 70
     0
102
RTVSPropertyOp17
 70
     0
102
RTVSPropertyOp18
 70
     0
102
RTVSPropertyOp19
 70
     0
102
RTVSPropertyOp20
 70
     0
102
RTVSPropertyOp21
 70
     0
102
RTVSPropertyOp22
 70
     0
102
RTVSPropertyOp23
 70
     0
102
RTVSPropertyOp24
 70
     0
102
RTVSPropertyOp25
 70
     0
102
RTVSPropertyOp26
 70
     0
102
RTVSPropertyOp27
 70
     0
102
RTVSPropertyOp28
 70
     0
102
RTVSPropertyOp29
 70
     0
102
RTVSPropertyOp30
 70
     0
102
RTVSPropertyOp31
 70
     0
102
RTVSPropertyOp32
 70
     0
102
RTVSPropertyOp33
 70
     0
102
RTVSPropertyOp34
 70
     0
102
RTVSPropertyOp35
 70
     0
102
RTVSPropertyOp36
 70
     0
102
RTVSPropertyOp37
 70
     0
102
RTVSPropertyOp38
 70
     0
102
RTVSPropertyOp39
 70
     0
102
RTVSPropertyOp40
 70
     0
102
RTVSPropertyOp41
 70
     0
102
RTVSPropertyOp42
 70
     0
102
RTVSPropertyOp43
 70
     0
102
RTVSPropertyOp44
 70
     0
102
RTVSPropertyOp45
 70
     0
102
RTVSPropertyOp46
 70
     0
102
RTVSPropertyOp47
 70
     0
102
RTVSPropertyOp48
 70
     0
102
RTVSPropertyOp49
 70
     0
102
RTVSPropertyOp50
 70
     0
102
RTVSPropertyOp51
 70
     0
102
RTVSPropertyOp52
 70
     0
102
RTVSPropertyOp53
 70
     0
102
RTVSPropertyOp54
 70
     0
102
RTVSPropertyOp55
 70
     0
102
RTVSPropertyOp56
 70
     0
102
RTVSPropertyOp57
 70
     0
102
RTVSPropertyOp58
 70
     1
102
RTVSPropertyOp59
 70
     1
102
RTVSPropertyOp60
 70
     1
102
RTVSPropertyOp61
 70
     1
102
RTVSPropertyOp62
 70
     1
  0
XRECORD
  5
3C4
102
{ACAD_REACTORS
330
3C3
102
}
330
3C3
100
AcDbXrecord
280
     1
102
RTVSPost2010Prop28
280
     0
102
RTVSPost2010PropOp28
 70
     1
102
RTVSPost2010Prop29
280
     1
102
RTVSPost2010PropOp29
 70
     1
102
RTVSPost2010Prop30
280
     1
102
RTVSPost2010PropOp30
 70
     1
102
RTVSPost2010Prop31
280
     0
102
RTVSPost2010PropOp31
 70
     1
102
RTVSPost2010Prop32
280
     0
102
RTVSPost2010PropOp32
 70
     1
102
RTVSPost2010Prop33
280
     0
102
RTVSPost2010PropOp33
 70
     1
102
RTVSPost2010Prop34
280
     0
102
RTVSPost2010PropOp34
 70
     1
102
RTVSPost2010Prop35
280
     0
102
RTVSPost2010PropOp35
 70
     1
102
RTVSPost2010Prop36
280
     0
102
RTVSPost2010PropOp36
 70
     1
102
RTVSPost2010Prop37
 90
       50
102
RTVSPost2010PropOp37
 70
     1
102
RTVSPost2010Prop38
140
0.0
102
RTVSPost2010PropOp38
 70
     1
102
RTVSPost2010Prop39
140
1.0
102
RTVSPost2010PropOp39
 70
     1
102
RTVSPost2010Prop40
 90
        0
102
RTVSPost2010PropOp40
 70
     1
102
RTVSPost2010Prop41ColorIndex
 90
       18
102
RTVSPost2010Prop41ColorRGB
 90
        0
102
RTVSPost2010PropOp41
 70
     1
102
RTVSPost2010Prop42
 90
       50
102
RTVSPost2010PropOp42
 70
     1
102
RTVSPost2010Prop43
 90
        3
102
RTVSPost2010PropOp43
 70
     1
102
RTVSPost2010Prop44ColorIndex
 90
        5
102
RTVSPost2010Prop44ColorRGB
 90
      255
102
RTVSPost2010PropOp44
 70
     1
102
RTVSPost2010Prop45
280
     0
102
RTVSPost2010PropOp45
 70
     1
102
RTVSPost2010Prop46
 90
       50
102
RTVSPost2010PropOp46
 70
     1
102
RTVSPost2010Prop47
 90
       50
102
RTVSPost2010PropOp47
 70
     1
102
RTVSPost2010Prop48
 90
       50
102
RTVSPost2010PropOp48
 70
     1
102
RTVSPost2010Prop49
280
     0
102
RTVSPost2010PropOp49
 70
     1
102
RTVSPost2010Prop50
 90
       50
102
RTVSPost2010PropOp50
 70
     1
102
RTVSPost2010Prop51ColorIndex
 90
      256
102
RTVSPost2010Prop51ColorRGB
 90
-16777216
102
RTVSPost2010PropOp51
 70
     0
102
RTVSPost2010Prop52
140
1.0
102
RTVSPost2010PropOp52
 70
     0
102
RTVSPost2010Prop53
 90
        2
102
RTVSPost2010PropOp53
 70
     1
102
RTVSPost2010Prop54
  1
strokes_ogs.tif
102
RTVSPost2010PropOp54
 70
     1
102
RTVSPost2010Prop55
280
     0
102
RTVSPost2010PropOp55
 70
     1
102
RTVSPost2010Prop56
140
1.0
102
RTVSPost2010PropOp56
 70
     1
102
RTVSPost2010Prop57
140
1.0
102
RTVSPost2010PropOp57
 70
     1
102
RTVSPropertyOp0
 70
     1
102
RTVSPropertyOp1
 70
     1
102
RTVSPropertyOp2
 70
     1
102
RTVSPropertyOp3
 70
     1
102
RTVSPropertyOp4
 70
     1
102
RTVSPropertyOp5
 70
     1
102
RTVSPropertyOp6
 70
     1
102
RTVSPropertyOp7
 70
     1
102
RTVSPropertyOp8
 70
     1
102
RTVSPropertyOp9
 70
     1
102
RTVSPropertyOp10
 70
     1
102
RTVSPropertyOp11
 70
     1
102
RTVSPropertyOp12
 70
     1
102
RTVSPropertyOp13
 70
     1
102
RTVSPropertyOp14
 70
     1
102
RTVSPropertyOp15
 70
     1
102
RTVSPropertyOp16
 70
     1
102
RTVSPropertyOp17
 70
     1
102
RTVSPropertyOp18
 70
     1
102
RTVSPropertyOp19
 70
     1
102
RTVSPropertyOp20
 70
     1
102
RTVSPropertyOp21
 70
     1
102
RTVSPropertyOp22
 70
     1
102
RTVSPropertyOp23
 70
     1
102
RTVSPropertyOp24
 70
     1
102
RTVSPropertyOp25
 70
     1
102
RTVSPropertyOp26
 70
     1
102
RTVSPropertyOp27
 70
     1
102
RTVSPropertyOp28
 70
     1
102
RTVSPropertyOp29
 70
     1
102
RTVSPropertyOp30
 70
     1
102
RTVSPropertyOp31
 70
     1
102
RTVSPropertyOp32
 70
     1
102
RTVSPropertyOp33
 70
     1
102
RTVSPropertyOp34
 70
     1
102
RTVSPropertyOp35
 70
     1
102
RTVSPropertyOp36
 70
     1
102
RTVSPropertyOp37
 70
     1
102
RTVSPropertyOp38
 70
     1
102
RTVSPropertyOp39
 70
     1
102
RTVSPropertyOp40
 70
     1
102
RTVSPropertyOp41
 70
     1
102
RTVSPropertyOp42
 70
     1
102
RTVSPropertyOp43
 70
     1
102
RTVSPropertyOp44
 70
     1
102
RTVSPropertyOp45
 70
     1
102
RTVSPropertyOp46
 70
     1
102
RTVSPropertyOp47
 70
     1
102
RTVSPropertyOp48
 70
     1
102
RTVSPropertyOp49
 70
     1
102
RTVSPropertyOp50
 70
     1
102
RTVSPropertyOp51
 70
     0
102
RTVSPropertyOp52
 70
     0
102
RTVSPropertyOp53
 70
     1
102
RTVSPropertyOp54
 70
     1
102
RTVSPropertyOp55
 70
     1
102
RTVSPropertyOp56
 70
     1
102
RTVSPropertyOp57
 70
     1
102
RTVSPropertyOp58
 70
     1
102
RTVSPropertyOp59
 70
     1
102
RTVSPropertyOp60
 70
     1
102
RTVSPropertyOp61
 70
     1
102
RTVSPropertyOp62
 70
     1
  0
XRECORD
  5
3CC
102
{ACAD_REACTORS
330
3CB
102
}
330
3CB
100
AcDbXrecord
280
     1
102
RTVSPost2010Prop28
280
     0
102
RTVSPost2010PropOp28
 70
     0
102
RTVSPost2010Prop29
280
     1
102
RTVSPost2010PropOp29
 70
     0
102
RTVSPost2010Prop30
280
     1
102
RTVSPost2010PropOp30
 70
     0
102
RTVSPost2010Prop31
280
     0
102
RTVSPost2010PropOp31
 70
     0
102
RTVSPost2010Prop32
280
     0
102
RTVSPost2010PropOp32
 70
     0
102
RTVSPost2010Prop33
280
     0
102
RTVSPost2010PropOp33
 70
     0
102
RTVSPost2010Prop34
280
     0
102
RTVSPost2010PropOp34
 70
     0
102
RTVSPost2010Prop35
280
     0
102
RTVSPost2010PropOp35
 70
     0
102
RTVSPost2010Prop36
280
     0
102
RTVSPost2010PropOp36
 70
     0
102
RTVSPost2010Prop37
 90
       50
102
RTVSPost2010PropOp37
 70
     0
102
RTVSPost2010Prop38
140
0.0
102
RTVSPost2010PropOp38
 70
     0
102
RTVSPost2010Prop39
140
1.0
102
RTVSPost2010PropOp39
 70
     0
102
RTVSPost2010Prop40
 90
        0
102
RTVSPost2010PropOp40
 70
     0
102
RTVSPost2010Prop41ColorIndex
 90
       18
102
RTVSPost2010Prop41ColorRGB
 90
        0
102
RTVSPost2010PropOp41
 70
     0
102
RTVSPost2010Prop42
 90
       50
102
RTVSPost2010PropOp42
 70
     0
102
RTVSPost2010Prop43
 90
        3
102
RTVSPost2010PropOp43
 70
     0
102
RTVSPost2010Prop44ColorIndex
 90
        5
102
RTVSPost2010Prop44ColorRGB
 90
      255
102
RTVSPost2010PropOp44
 70
     0
102
RTVSPost2010Prop45
280
     0
102
RTVSPost2010PropOp45
 70
     0
102
RTVSPost2010Prop46
 90
       50
102
RTVSPost2010PropOp46
 70
     0
102
RTVSPost2010Prop47
 90
       50
102
RTVSPost2010PropOp47
 70
     0
102
RTVSPost2010Prop48
 90
       50
102
RTVSPost2010PropOp48
 70
     0
102
RTVSPost2010Prop49
280
     0
102
RTVSPost2010PropOp49
 70
     0
102
RTVSPost2010Prop50
 90
       50
102
RTVSPost2010PropOp50
 70
     0
102
RTVSPost2010Prop51ColorIndex
 90
      256
102
RTVSPost2010Prop51ColorRGB
 90
-16777216
102
RTVSPost2010PropOp51
 70
     0
102
RTVSPost2010Prop52
140
1.0
102
RTVSPost2010PropOp52
 70
     0
102
RTVSPost2010Prop53
 90
        2
102
RTVSPost2010PropOp53
 70
     0
102
RTVSPost2010Prop54
  1
strokes_ogs.tif
102
RTVSPost2010PropOp54
 70
     0
102
RTVSPost2010Prop55
280
     0
102
RTVSPost2010PropOp55
 70
     0
102
RTVSPost2010Prop56
140
1.0
102
RTVSPost2010PropOp56
 70
     0
102
RTVSPost2010Prop57
140
1.0
102
RTVSPost2010PropOp57
 70
     0
102
RTVSPropertyOp0
 70
     0
102
RTVSPropertyOp1
 70
     0
102
RTVSPropertyOp2
 70
     0
102
RTVSPropertyOp3
 70
     0
102
RTVSPropertyOp4
 70
     0
102
RTVSPropertyOp5
 70
     0
102
RTVSPropertyOp6
 70
     0
102
RTVSPropertyOp7
 70
     0
102
RTVSPropertyOp8
 70
     0
102
RTVSPropertyOp9
 70
     0
102
RTVSPropertyOp10
 70
     0
102
RTVSPropertyOp11
 70
     0
102
RTVSPropertyOp12
 70
     0
102
RTVSPropertyOp13
 70
     0
102
RTVSPropertyOp14
 70
     2
102
RTVSPropertyOp15
 70
     0
102
RTVSPropertyOp16
 70
     0
102
RTVSPropertyOp17
 70
     0
102
RTVSPropertyOp18
 70
     0
102
RTVSPropertyOp19
 70
     0
102
RTVSPropertyOp20
 70
     0
102
RTVSPropertyOp21
 70
     0
102
RTVSPropertyOp22
 70
     0
102
RTVSPropertyOp23
 70
     0
102
RTVSPropertyOp24
 70
     0
102
RTVSPropertyOp25
 70
     0
102
RTVSPropertyOp26
 70
     0
102
RTVSPropertyOp27
 70
     0
102
RTVSPropertyOp28
 70
     0
102
RTVSPropertyOp29
 70
     0
102
RTVSPropertyOp30
 70
     0
102
RTVSPropertyOp31
 70
     0
102
RTVSPropertyOp32
 70
     0
102
RTVSPropertyOp33
 70
     0
102
RTVSPropertyOp34
 70
     0
102
RTVSPropertyOp35
 70
     0
102
RTVSPropertyOp36
 70
     0
102
RTVSPropertyOp37
 70
     0
102
RTVSPropertyOp38
 70
     0
102
RTVSPropertyOp39
 70
     0
102
RTVSPropertyOp40
 70
     0
102
RTVSPropertyOp41
 70
     0
102
RTVSPropertyOp42
 70
     0
102
RTVSPropertyOp43
 70
     0
102
RTVSPropertyOp44
 70
     0
102
RTVSPropertyOp45
 70
     0
102
RTVSPropertyOp46
 70
     0
102
RTVSPropertyOp47
 70
     0
102
RTVSPropertyOp48
 70
     0
102
RTVSPropertyOp49
 70
     0
102
RTVSPropertyOp50
 70
     0
102
RTVSPropertyOp51
 70
     0
102
RTVSPropertyOp52
 70
     0
102
RTVSPropertyOp53
 70
     0
102
RTVSPropertyOp54
 70
     0
102
RTVSPropertyOp55
 70
     0
102
RTVSPropertyOp56
 70
     0
102
RTVSPropertyOp57
 70
     0
102
RTVSPropertyOp58
 70
     1
102
RTVSPropertyOp59
 70
     1
102
RTVSPropertyOp60
 70
     1
102
RTVSPropertyOp61
 70
     1
102
RTVSPropertyOp62
 70
     1
  0
XRECORD
  5
3BA
102
{ACAD_REACTORS
330
3B9
102
}
330
3B9
100
AcDbXrecord
280
     1
102
RTVSPost2010Prop28
280
     0
102
RTVSPost2010PropOp28
 70
     1
102
RTVSPost2010Prop29
280
     1
102
RTVSPost2010PropOp29
 70
     1
102
RTVSPost2010Prop30
280
     1
102
RTVSPost2010PropOp30
 70
     1
102
RTVSPost2010Prop31
280
     0
102
RTVSPost2010PropOp31
 70
     1
102
RTVSPost2010Prop32
280
     0
102
RTVSPost2010PropOp32
 70
     1
102
RTVSPost2010Prop33
280
     0
102
RTVSPost2010PropOp33
 70
     1
102
RTVSPost2010Prop34
280
     0
102
RTVSPost2010PropOp34
 70
     1
102
RTVSPost2010Prop35
280
     0
102
RTVSPost2010PropOp35
 70
     1
102
RTVSPost2010Prop36
280
     0
102
RTVSPost2010PropOp36
 70
     1
102
RTVSPost2010Prop37
 90
       50
102
RTVSPost2010PropOp37
 70
     1
102
RTVSPost2010Prop38
140
0.0
102
RTVSPost2010PropOp38
 70
     1
102
RTVSPost2010Prop39
140
1.0
102
RTVSPost2010PropOp39
 70
     1
102
RTVSPost2010Prop40
 90
        0
102
RTVSPost2010PropOp40
 70
     1
102
RTVSPost2010Prop41ColorIndex
 90
       18
102
RTVSPost2010Prop41ColorRGB
 90
        0
102
RTVSPost2010PropOp41
 70
     1
102
RTVSPost2010Prop42
 90
       50
102
RTVSPost2010PropOp42
 70
     1
102
RTVSPost2010Prop43
 90
        3
102
RTVSPost2010PropOp43
 70
     1
102
RTVSPost2010Prop44ColorIndex
 90
        5
102
RTVSPost2010Prop44ColorRGB
 90
      255
102
RTVSPost2010PropOp44
 70
     1
102
RTVSPost2010Prop45
280
     0
102
RTVSPost2010PropOp45
 70
     1
102
RTVSPost2010Prop46
 90
       50
102
RTVSPost2010PropOp46
 70
     1
102
RTVSPost2010Prop47
 90
       50
102
RTVSPost2010PropOp47
 70
     1
102
RTVSPost2010Prop48
 90
       50
102
RTVSPost2010PropOp48
 70
     1
102
RTVSPost2010Prop49
280
     0
102
RTVSPost2010PropOp49
 70
     1
102
RTVSPost2010Prop50
 90
       50
102
RTVSPost2010PropOp50
 70
     1
102
RTVSPost2010Prop51ColorIndex
 90
      256
102
RTVSPost2010Prop51ColorRGB
 90
-16777216
102
RTVSPost2010PropOp51
 70
     0
102
RTVSPost2010Prop52
140
1.0
102
RTVSPost2010PropOp52
 70
     0
102
RTVSPost2010Prop53
 90
        2
102
RTVSPost2010PropOp53
 70
     1
102
RTVSPost2010Prop54
  1
strokes_ogs.tif
102
RTVSPost2010PropOp54
 70
     1
102
RTVSPost2010Prop55
280
     0
102
RTVSPost2010PropOp55
 70
     1
102
RTVSPost2010Prop56
140
1.0
102
RTVSPost2010PropOp56
 70
     1
102
RTVSPost2010Prop57
140
1.0
102
RTVSPost2010PropOp57
 70
     1
102
RTVSPropertyOp0
 70
     1
102
RTVSPropertyOp1
 70
     1
102
RTVSPropertyOp2
 70
     1
102
RTVSPropertyOp3
 70
     1
102
RTVSPropertyOp4
 70
     1
102
RTVSPropertyOp5
 70
     1
102
RTVSPropertyOp6
 70
     1
102
RTVSPropertyOp7
 70
     1
102
RTVSPropertyOp8
 70
     1
102
RTVSPropertyOp9
 70
     1
102
RTVSPropertyOp10
 70
     1
102
RTVSPropertyOp11
 70
     1
102
RTVSPropertyOp12
 70
     1
102
RTVSPropertyOp13
 70
     1
102
RTVSPropertyOp14
 70
     1
102
RTVSPropertyOp15
 70
     1
102
RTVSPropertyOp16
 70
     1
102
RTVSPropertyOp17
 70
     1
102
RTVSPropertyOp18
 70
     1
102
RTVSPropertyOp19
 70
     1
102
RTVSPropertyOp20
 70
     1
102
RTVSPropertyOp21
 70
     1
102
RTVSPropertyOp22
 70
     1
102
RTVSPropertyOp23
 70
     1
102
RTVSPropertyOp24
 70
     1
102
RTVSPropertyOp25
 70
     1
102
RTVSPropertyOp26
 70
     1
102
RTVSPropertyOp27
 70
     1
102
RTVSPropertyOp28
 70
     1
102
RTVSPropertyOp29
 70
     1
102
RTVSPropertyOp30
 70
     1
102
RTVSPropertyOp31
 70
     1
102
RTVSPropertyOp32
 70
     1
102
RTVSPropertyOp33
 70
     1
102
RTVSPropertyOp34
 70
     1
102
RTVSPropertyOp35
 70
     1
102
RTVSPropertyOp36
 70
     1
102
RTVSPropertyOp37
 70
     1
102
RTVSPropertyOp38
 70
     1
102
RTVSPropertyOp39
 70
     1
102
RTVSPropertyOp40
 70
     1
102
RTVSPropertyOp41
 70
     1
102
RTVSPropertyOp42
 70
     1
102
RTVSPropertyOp43
 70
     1
102
RTVSPropertyOp44
 70
     1
102
RTVSPropertyOp45
 70
     1
102
RTVSPropertyOp46
 70
     1
102
RTVSPropertyOp47
 70
     1
102
RTVSPropertyOp48
 70
     1
102
RTVSPropertyOp49
 70
     1
102
RTVSPropertyOp50
 70
     1
102
RTVSPropertyOp51
 70
     0
102
RTVSPropertyOp52
 70
     0
102
RTVSPropertyOp53
 70
     1
102
RTVSPropertyOp54
 70
     1
102
RTVSPropertyOp55
 70
     1
102
RTVSPropertyOp56
 70
     1
102
RTVSPropertyOp57
 70
     1
102
RTVSPropertyOp58
 70
     1
102
RTVSPropertyOp59
 70
     1
102
RTVSPropertyOp60
 70
     1
102
RTVSPropertyOp61
 70
     1
102
RTVSPropertyOp62
 70
     1
  0
XRECORD
  5
3D8
102
{ACAD_REACTORS
330
3D7
102
}
330
3D7
100
AcDbXrecord
280
     1
102
RTVSPost2010Prop28
280
     0
102
RTVSPost2010PropOp28
 70
     1
102
RTVSPost2010Prop29
280
     1
102
RTVSPost2010PropOp29
 70
     1
102
RTVSPost2010Prop30
280
     1
102
RTVSPost2010PropOp30
 70
     1
102
RTVSPost2010Prop31
280
     0
102
RTVSPost2010PropOp31
 70
     1
102
RTVSPost2010Prop32
280
     0
102
RTVSPost2010PropOp32
 70
     1
102
RTVSPost2010Prop33
280
     0
102
RTVSPost2010PropOp33
 70
     1
102
RTVSPost2010Prop34
280
     0
102
RTVSPost2010PropOp34
 70
     1
102
RTVSPost2010Prop35
280
     0
102
RTVSPost2010PropOp35
 70
     1
102
RTVSPost2010Prop36
280
     0
102
RTVSPost2010PropOp36
 70
     1
102
RTVSPost2010Prop37
 90
       50
102
RTVSPost2010PropOp37
 70
     1
102
RTVSPost2010Prop38
140
0.0
102
RTVSPost2010PropOp38
 70
     1
102
RTVSPost2010Prop39
140
1.0
102
RTVSPost2010PropOp39
 70
     1
102
RTVSPost2010Prop40
 90
        0
102
RTVSPost2010PropOp40
 70
     1
102
RTVSPost2010Prop41ColorIndex
 90
       18
102
RTVSPost2010Prop41ColorRGB
 90
        0
102
RTVSPost2010PropOp41
 70
     1
102
RTVSPost2010Prop42
 90
       50
102
RTVSPost2010PropOp42
 70
     1
102
RTVSPost2010Prop43
 90
        3
102
RTVSPost2010PropOp43
 70
     1
102
RTVSPost2010Prop44ColorIndex
 90
        5
102
RTVSPost2010Prop44ColorRGB
 90
      255
102
RTVSPost2010PropOp44
 70
     1
102
RTVSPost2010Prop45
280
     0
102
RTVSPost2010PropOp45
 70
     1
102
RTVSPost2010Prop46
 90
       50
102
RTVSPost2010PropOp46
 70
     1
102
RTVSPost2010Prop47
 90
       50
102
RTVSPost2010PropOp47
 70
     1
102
RTVSPost2010Prop48
 90
       50
102
RTVSPost2010PropOp48
 70
     1
102
RTVSPost2010Prop49
280
     0
102
RTVSPost2010PropOp49
 70
     1
102
RTVSPost2010Prop50
 90
       50
102
RTVSPost2010PropOp50
 70
     1
102
RTVSPost2010Prop51ColorIndex
 90
      256
102
RTVSPost2010Prop51ColorRGB
 90
-16777216
102
RTVSPost2010PropOp51
 70
     0
102
RTVSPost2010Prop52
140
1.0
102
RTVSPost2010PropOp52
 70
     0
102
RTVSPost2010Prop53
 90
        2
102
RTVSPost2010PropOp53
 70
     1
102
RTVSPost2010Prop54
  1
strokes_ogs.tif
102
RTVSPost2010PropOp54
 70
     1
102
RTVSPost2010Prop55
280
     0
102
RTVSPost2010PropOp55
 70
     1
102
RTVSPost2010Prop56
140
1.0
102
RTVSPost2010PropOp56
 70
     1
102
RTVSPost2010Prop57
140
1.0
102
RTVSPost2010PropOp57
 70
     1
102
RTVSPropertyOp0
 70
     1
102
RTVSPropertyOp1
 70
     1
102
RTVSPropertyOp2
 70
     1
102
RTVSPropertyOp3
 70
     1
102
RTVSPropertyOp4
 70
     1
102
RTVSPropertyOp5
 70
     1
102
RTVSPropertyOp6
 70
     1
102
RTVSPropertyOp7
 70
     1
102
RTVSPropertyOp8
 70
     1
102
RTVSPropertyOp9
 70
     1
102
RTVSPropertyOp10
 70
     1
102
RTVSPropertyOp11
 70
     1
102
RTVSPropertyOp12
 70
     1
102
RTVSPropertyOp13
 70
     1
102
RTVSPropertyOp14
 70
     1
102
RTVSPropertyOp15
 70
     1
102
RTVSPropertyOp16
 70
     1
102
RTVSPropertyOp17
 70
     1
102
RTVSPropertyOp18
 70
     1
102
RTVSPropertyOp19
 70
     1
102
RTVSPropertyOp20
 70
     1
102
RTVSPropertyOp21
 70
     1
102
RTVSPropertyOp22
 70
     1
102
RTVSPropertyOp23
 70
     1
102
RTVSPropertyOp24
 70
     1
102
RTVSPropertyOp25
 70
     1
102
RTVSPropertyOp26
 70
     1
102
RTVSPropertyOp27
 70
     1
102
RTVSPropertyOp28
 70
     1
102
RTVSPropertyOp29
 70
     1
102
RTVSPropertyOp30
 70
     1
102
RTVSPropertyOp31
 70
     1
102
RTVSPropertyOp32
 70
     1
102
RTVSPropertyOp33
 70
     1
102
RTVSPropertyOp34
 70
     1
102
RTVSPropertyOp35
 70
     1
102
RTVSPropertyOp36
 70
     1
102
RTVSPropertyOp37
 70
     1
102
RTVSPropertyOp38
 70
     1
102
RTVSPropertyOp39
 70
     1
102
RTVSPropertyOp40
 70
     1
102
RTVSPropertyOp41
 70
     1
102
RTVSPropertyOp42
 70
     1
102
RTVSPropertyOp43
 70
     1
102
RTVSPropertyOp44
 70
     1
102
RTVSPropertyOp45
 70
     1
102
RTVSPropertyOp46
 70
     1
102
RTVSPropertyOp47
 70
     1
102
RTVSPropertyOp48
 70
     1
102
RTVSPropertyOp49
 70
     1
102
RTVSPropertyOp50
 70
     1
102
RTVSPropertyOp51
 70
     0
102
RTVSPropertyOp52
 70
     0
102
RTVSPropertyOp53
 70
     1
102
RTVSPropertyOp54
 70
     1
102
RTVSPropertyOp55
 70
     1
102
RTVSPropertyOp56
 70
     1
102
RTVSPropertyOp57
 70
     1
102
RTVSPropertyOp58
 70
     1
102
RTVSPropertyOp59
 70
     1
102
RTVSPropertyOp60
 70
     1
102
RTVSPropertyOp61
 70
     1
102
RTVSPropertyOp62
 70
     1
  0
XRECORD
  5
3D6
102
{ACAD_REACTORS
330
3D5
102
}
330
3D5
100
AcDbXrecord
280
     1
102
RTVSPost2010Prop28
280
     0
102
RTVSPost2010PropOp28
 70
     1
102
RTVSPost2010Prop29
280
     1
102
RTVSPost2010PropOp29
 70
     1
102
RTVSPost2010Prop30
280
     1
102
RTVSPost2010PropOp30
 70
     1
102
RTVSPost2010Prop31
280
     0
102
RTVSPost2010PropOp31
 70
     1
102
RTVSPost2010Prop32
280
     0
102
RTVSPost2010PropOp32
 70
     1
102
RTVSPost2010Prop33
280
     0
102
RTVSPost2010PropOp33
 70
     1
102
RTVSPost2010Prop34
280
     0
102
RTVSPost2010PropOp34
 70
     1
102
RTVSPost2010Prop35
280
     0
102
RTVSPost2010PropOp35
 70
     1
102
RTVSPost2010Prop36
280
     0
102
RTVSPost2010PropOp36
 70
     1
102
RTVSPost2010Prop37
 90
       50
102
RTVSPost2010PropOp37
 70
     1
102
RTVSPost2010Prop38
140
0.0
102
RTVSPost2010PropOp38
 70
     1
102
RTVSPost2010Prop39
140
1.0
102
RTVSPost2010PropOp39
 70
     1
102
RTVSPost2010Prop40
 90
        0
102
RTVSPost2010PropOp40
 70
     1
102
RTVSPost2010Prop41ColorIndex
 90
       18
102
RTVSPost2010Prop41ColorRGB
 90
        0
102
RTVSPost2010PropOp41
 70
     1
102
RTVSPost2010Prop42
 90
       50
102
RTVSPost2010PropOp42
 70
     1
102
RTVSPost2010Prop43
 90
        3
102
RTVSPost2010PropOp43
 70
     1
102
RTVSPost2010Prop44ColorIndex
 90
        5
102
RTVSPost2010Prop44ColorRGB
 90
      255
102
RTVSPost2010PropOp44
 70
     1
102
RTVSPost2010Prop45
280
     0
102
RTVSPost2010PropOp45
 70
     1
102
RTVSPost2010Prop46
 90
       50
102
RTVSPost2010PropOp46
 70
     1
102
RTVSPost2010Prop47
 90
       50
102
RTVSPost2010PropOp47
 70
     1
102
RTVSPost2010Prop48
 90
       50
102
RTVSPost2010PropOp48
 70
     1
102
RTVSPost2010Prop49
280
     0
102
RTVSPost2010PropOp49
 70
     1
102
RTVSPost2010Prop50
 90
       50
102
RTVSPost2010PropOp50
 70
     1
102
RTVSPost2010Prop51ColorIndex
 90
      256
102
RTVSPost2010Prop51ColorRGB
 90
-16777216
102
RTVSPost2010PropOp51
 70
     0
102
RTVSPost2010Prop52
140
1.0
102
RTVSPost2010PropOp52
 70
     0
102
RTVSPost2010Prop53
 90
        2
102
RTVSPost2010PropOp53
 70
     1
102
RTVSPost2010Prop54
  1
strokes_ogs.tif
102
RTVSPost2010PropOp54
 70
     1
102
RTVSPost2010Prop55
280
     0
102
RTVSPost2010PropOp55
 70
     1
102
RTVSPost2010Prop56
140
1.0
102
RTVSPost2010PropOp56
 70
     1
102
RTVSPost2010Prop57
140
1.0
102
RTVSPost2010PropOp57
 70
     1
102
RTVSPropertyOp0
 70
     1
102
RTVSPropertyOp1
 70
     1
102
RTVSPropertyOp2
 70
     1
102
RTVSPropertyOp3
 70
     1
102
RTVSPropertyOp4
 70
     1
102
RTVSPropertyOp5
 70
     1
102
RTVSPropertyOp6
 70
     1
102
RTVSPropertyOp7
 70
     1
102
RTVSPropertyOp8
 70
     1
102
RTVSPropertyOp9
 70
     1
102
RTVSPropertyOp10
 70
     1
102
RTVSPropertyOp11
 70
     1
102
RTVSPropertyOp12
 70
     1
102
RTVSPropertyOp13
 70
     1
102
RTVSPropertyOp14
 70
     1
102
RTVSPropertyOp15
 70
     1
102
RTVSPropertyOp16
 70
     1
102
RTVSPropertyOp17
 70
     1
102
RTVSPropertyOp18
 70
     1
102
RTVSPropertyOp19
 70
     1
102
RTVSPropertyOp20
 70
     1
102
RTVSPropertyOp21
 70
     1
102
RTVSPropertyOp22
 70
     1
102
RTVSPropertyOp23
 70
     1
102
RTVSPropertyOp24
 70
     1
102
RTVSPropertyOp25
 70
     1
102
RTVSPropertyOp26
 70
     1
102
RTVSPropertyOp27
 70
     1
102
RTVSPropertyOp28
 70
     1
102
RTVSPropertyOp29
 70
     1
102
RTVSPropertyOp30
 70
     1
102
RTVSPropertyOp31
 70
     1
102
RTVSPropertyOp32
 70
     1
102
RTVSPropertyOp33
 70
     1
102
RTVSPropertyOp34
 70
     1
102
RTVSPropertyOp35
 70
     1
102
RTVSPropertyOp36
 70
     1
102
RTVSPropertyOp37
 70
     1
102
RTVSPropertyOp38
 70
     1
102
RTVSPropertyOp39
 70
     1
102
RTVSPropertyOp40
 70
     1
102
RTVSPropertyOp41
 70
     1
102
RTVSPropertyOp42
 70
     1
102
RTVSPropertyOp43
 70
     1
102
RTVSPropertyOp44
 70
     1
102
RTVSPropertyOp45
 70
     1
102
RTVSPropertyOp46
 70
     1
102
RTVSPropertyOp47
 70
     1
102
RTVSPropertyOp48
 70
     1
102
RTVSPropertyOp49
 70
     1
102
RTVSPropertyOp50
 70
     1
102
RTVSPropertyOp51
 70
     0
102
RTVSPropertyOp52
 70
     0
102
RTVSPropertyOp53
 70
     1
102
RTVSPropertyOp54
 70
     1
102
RTVSPropertyOp55
 70
     1
102
RTVSPropertyOp56
 70
     1
102
RTVSPropertyOp57
 70
     1
102
RTVSPropertyOp58
 70
     1
102
RTVSPropertyOp59
 70
     1
102
RTVSPropertyOp60
 70
     1
102
RTVSPropertyOp61
 70
     1
102
RTVSPropertyOp62
 70
     1
  0
XRECORD
  5
3D0
102
{ACAD_REACTORS
330
3CF
102
}
330
3CF
100
AcDbXrecord
280
     1
102
RTVSPost2010Prop28
280
     0
102
RTVSPost2010PropOp28
 70
     1
102
RTVSPost2010Prop29
280
     1
102
RTVSPost2010PropOp29
 70
     1
102
RTVSPost2010Prop30
280
     1
102
RTVSPost2010PropOp30
 70
     1
102
RTVSPost2010Prop31
280
     0
102
RTVSPost2010PropOp31
 70
     1
102
RTVSPost2010Prop32
280
     0
102
RTVSPost2010PropOp32
 70
     1
102
RTVSPost2010Prop33
280
     0
102
RTVSPost2010PropOp33
 70
     1
102
RTVSPost2010Prop34
280
     0
102
RTVSPost2010PropOp34
 70
     1
102
RTVSPost2010Prop35
280
     0
102
RTVSPost2010PropOp35
 70
     1
102
RTVSPost2010Prop36
280
     0
102
RTVSPost2010PropOp36
 70
     1
102
RTVSPost2010Prop37
 90
       50
102
RTVSPost2010PropOp37
 70
     1
102
RTVSPost2010Prop38
140
0.0
102
RTVSPost2010PropOp38
 70
     1
102
RTVSPost2010Prop39
140
1.0
102
RTVSPost2010PropOp39
 70
     1
102
RTVSPost2010Prop40
 90
        0
102
RTVSPost2010PropOp40
 70
     1
102
RTVSPost2010Prop41ColorIndex
 90
       18
102
RTVSPost2010Prop41ColorRGB
 90
        0
102
RTVSPost2010PropOp41
 70
     1
102
RTVSPost2010Prop42
 90
       50
102
RTVSPost2010PropOp42
 70
     1
102
RTVSPost2010Prop43
 90
        3
102
RTVSPost2010PropOp43
 70
     1
102
RTVSPost2010Prop44ColorIndex
 90
        5
102
RTVSPost2010Prop44ColorRGB
 90
      255
102
RTVSPost2010PropOp44
 70
     1
102
RTVSPost2010Prop45
280
     0
102
RTVSPost2010PropOp45
 70
     1
102
RTVSPost2010Prop46
 90
       50
102
RTVSPost2010PropOp46
 70
     1
102
RTVSPost2010Prop47
 90
       50
102
RTVSPost2010PropOp47
 70
     1
102
RTVSPost2010Prop48
 90
       50
102
RTVSPost2010PropOp48
 70
     1
102
RTVSPost2010Prop49
280
     0
102
RTVSPost2010PropOp49
 70
     1
102
RTVSPost2010Prop50
 90
       50
102
RTVSPost2010PropOp50
 70
     1
102
RTVSPost2010Prop51ColorIndex
 90
      256
102
RTVSPost2010Prop51ColorRGB
 90
-16777216
102
RTVSPost2010PropOp51
 70
     0
102
RTVSPost2010Prop52
140
1.0
102
RTVSPost2010PropOp52
 70
     0
102
RTVSPost2010Prop53
 90
        2
102
RTVSPost2010PropOp53
 70
     1
102
RTVSPost2010Prop54
  1
strokes_ogs.tif
102
RTVSPost2010PropOp54
 70
     1
102
RTVSPost2010Prop55
280
     0
102
RTVSPost2010PropOp55
 70
     1
102
RTVSPost2010Prop56
140
1.0
102
RTVSPost2010PropOp56
 70
     1
102
RTVSPost2010Prop57
140
1.0
102
RTVSPost2010PropOp57
 70
     1
102
RTVSPropertyOp0
 70
     1
102
RTVSPropertyOp1
 70
     1
102
RTVSPropertyOp2
 70
     1
102
RTVSPropertyOp3
 70
     1
102
RTVSPropertyOp4
 70
     1
102
RTVSPropertyOp5
 70
     1
102
RTVSPropertyOp6
 70
     1
102
RTVSPropertyOp7
 70
     1
102
RTVSPropertyOp8
 70
     1
102
RTVSPropertyOp9
 70
     1
102
RTVSPropertyOp10
 70
     1
102
RTVSPropertyOp11
 70
     1
102
RTVSPropertyOp12
 70
     1
102
RTVSPropertyOp13
 70
     1
102
RTVSPropertyOp14
 70
     1
102
RTVSPropertyOp15
 70
     1
102
RTVSPropertyOp16
 70
     1
102
RTVSPropertyOp17
 70
     1
102
RTVSPropertyOp18
 70
     1
102
RTVSPropertyOp19
 70
     1
102
RTVSPropertyOp20
 70
     1
102
RTVSPropertyOp21
 70
     1
102
RTVSPropertyOp22
 70
     1
102
RTVSPropertyOp23
 70
     1
102
RTVSPropertyOp24
 70
     1
102
RTVSPropertyOp25
 70
     1
102
RTVSPropertyOp26
 70
     1
102
RTVSPropertyOp27
 70
     1
102
RTVSPropertyOp28
 70
     1
102
RTVSPropertyOp29
 70
     1
102
RTVSPropertyOp30
 70
     1
102
RTVSPropertyOp31
 70
     1
102
RTVSPropertyOp32
 70
     1
102
RTVSPropertyOp33
 70
     1
102
RTVSPropertyOp34
 70
     1
102
RTVSPropertyOp35
 70
     1
102
RTVSPropertyOp36
 70
     1
102
RTVSPropertyOp37
 70
     1
102
RTVSPropertyOp38
 70
     1
102
RTVSPropertyOp39
 70
     1
102
RTVSPropertyOp40
 70
     1
102
RTVSPropertyOp41
 70
     1
102
RTVSPropertyOp42
 70
     1
102
RTVSPropertyOp43
 70
     1
102
RTVSPropertyOp44
 70
     1
102
RTVSPropertyOp45
 70
     1
102
RTVSPropertyOp46
 70
     1
102
RTVSPropertyOp47
 70
     1
102
RTVSPropertyOp48
 70
     1
102
RTVSPropertyOp49
 70
     1
102
RTVSPropertyOp50
 70
     1
102
RTVSPropertyOp51
 70
     0
102
RTVSPropertyOp52
 70
     0
102
RTVSPropertyOp53
 70
     1
102
RTVSPropertyOp54
 70
     1
102
RTVSPropertyOp55
 70
     1
102
RTVSPropertyOp56
 70
     1
102
RTVSPropertyOp57
 70
     1
102
RTVSPropertyOp58
 70
     1
102
RTVSPropertyOp59
 70
     1
102
RTVSPropertyOp60
 70
     1
102
RTVSPropertyOp61
 70
     1
102
RTVSPropertyOp62
 70
     1
  0
XRECORD
  5
3D2
102
{ACAD_REACTORS
330
3D1
102
}
330
3D1
100
AcDbXrecord
280
     1
102
RTVSPost2010Prop28
280
     0
102
RTVSPost2010PropOp28
 70
     1
102
RTVSPost2010Prop29
280
     1
102
RTVSPost2010PropOp29
 70
     1
102
RTVSPost2010Prop30
280
     1
102
RTVSPost2010PropOp30
 70
     1
102
RTVSPost2010Prop31
280
     0
102
RTVSPost2010PropOp31
 70
     1
102
RTVSPost2010Prop32
280
     0
102
RTVSPost2010PropOp32
 70
     1
102
RTVSPost2010Prop33
280
     0
102
RTVSPost2010PropOp33
 70
     1
102
RTVSPost2010Prop34
280
     0
102
RTVSPost2010PropOp34
 70
     1
102
RTVSPost2010Prop35
280
     0
102
RTVSPost2010PropOp35
 70
     1
102
RTVSPost2010Prop36
280
     0
102
RTVSPost2010PropOp36
 70
     1
102
RTVSPost2010Prop37
 90
       50
102
RTVSPost2010PropOp37
 70
     1
102
RTVSPost2010Prop38
140
0.0
102
RTVSPost2010PropOp38
 70
     1
102
RTVSPost2010Prop39
140
1.0
102
RTVSPost2010PropOp39
 70
     1
102
RTVSPost2010Prop40
 90
        0
102
RTVSPost2010PropOp40
 70
     1
102
RTVSPost2010Prop41ColorIndex
 90
       18
102
RTVSPost2010Prop41ColorRGB
 90
        0
102
RTVSPost2010PropOp41
 70
     1
102
RTVSPost2010Prop42
 90
       50
102
RTVSPost2010PropOp42
 70
     1
102
RTVSPost2010Prop43
 90
        3
102
RTVSPost2010PropOp43
 70
     1
102
RTVSPost2010Prop44ColorIndex
 90
        5
102
RTVSPost2010Prop44ColorRGB
 90
      255
102
RTVSPost2010PropOp44
 70
     1
102
RTVSPost2010Prop45
280
     0
102
RTVSPost2010PropOp45
 70
     1
102
RTVSPost2010Prop46
 90
       50
102
RTVSPost2010PropOp46
 70
     1
102
RTVSPost2010Prop47
 90
       50
102
RTVSPost2010PropOp47
 70
     1
102
RTVSPost2010Prop48
 90
       50
102
RTVSPost2010PropOp48
 70
     1
102
RTVSPost2010Prop49
280
     0
102
RTVSPost2010PropOp49
 70
     1
102
RTVSPost2010Prop50
 90
       50
102
RTVSPost2010PropOp50
 70
     1
102
RTVSPost2010Prop51ColorIndex
 90
      256
102
RTVSPost2010Prop51ColorRGB
 90
-16777216
102
RTVSPost2010PropOp51
 70
     0
102
RTVSPost2010Prop52
140
1.0
102
RTVSPost2010PropOp52
 70
     0
102
RTVSPost2010Prop53
 90
        2
102
RTVSPost2010PropOp53
 70
     1
102
RTVSPost2010Prop54
  1
strokes_ogs.tif
102
RTVSPost2010PropOp54
 70
     1
102
RTVSPost2010Prop55
280
     0
102
RTVSPost2010PropOp55
 70
     1
102
RTVSPost2010Prop56
140
1.0
102
RTVSPost2010PropOp56
 70
     1
102
RTVSPost2010Prop57
140
1.0
102
RTVSPost2010PropOp57
 70
     1
102
RTVSPropertyOp0
 70
     1
102
RTVSPropertyOp1
 70
     1
102
RTVSPropertyOp2
 70
     1
102
RTVSPropertyOp3
 70
     1
102
RTVSPropertyOp4
 70
     1
102
RTVSPropertyOp5
 70
     1
102
RTVSPropertyOp6
 70
     1
102
RTVSPropertyOp7
 70
     1
102
RTVSPropertyOp8
 70
     1
102
RTVSPropertyOp9
 70
     1
102
RTVSPropertyOp10
 70
     1
102
RTVSPropertyOp11
 70
     1
102
RTVSPropertyOp12
 70
     1
102
RTVSPropertyOp13
 70
     1
102
RTVSPropertyOp14
 70
     1
102
RTVSPropertyOp15
 70
     1
102
RTVSPropertyOp16
 70
     1
102
RTVSPropertyOp17
 70
     1
102
RTVSPropertyOp18
 70
     1
102
RTVSPropertyOp19
 70
     1
102
RTVSPropertyOp20
 70
     1
102
RTVSPropertyOp21
 70
     1
102
RTVSPropertyOp22
 70
     1
102
RTVSPropertyOp23
 70
     1
102
RTVSPropertyOp24
 70
     1
102
RTVSPropertyOp25
 70
     1
102
RTVSPropertyOp26
 70
     1
102
RTVSPropertyOp27
 70
     1
102
RTVSPropertyOp28
 70
     1
102
RTVSPropertyOp29
 70
     1
102
RTVSPropertyOp30
 70
     1
102
RTVSPropertyOp31
 70
     1
102
RTVSPropertyOp32
 70
     1
102
RTVSPropertyOp33
 70
     1
102
RTVSPropertyOp34
 70
     1
102
RTVSPropertyOp35
 70
     1
102
RTVSPropertyOp36
 70
     1
102
RTVSPropertyOp37
 70
     1
102
RTVSPropertyOp38
 70
     1
102
RTVSPropertyOp39
 70
     1
102
RTVSPropertyOp40
 70
     1
102
RTVSPropertyOp41
 70
     1
102
RTVSPropertyOp42
 70
     1
102
RTVSPropertyOp43
 70
     1
102
RTVSPropertyOp44
 70
     1
102
RTVSPropertyOp45
 70
     1
102
RTVSPropertyOp46
 70
     1
102
RTVSPropertyOp47
 70
     1
102
RTVSPropertyOp48
 70
     1
102
RTVSPropertyOp49
 70
     1
102
RTVSPropertyOp50
 70
     1
102
RTVSPropertyOp51
 70
     0
102
RTVSPropertyOp52
 70
     0
102
RTVSPropertyOp53
 70
     1
102
RTVSPropertyOp54
 70
     1
102
RTVSPropertyOp55
 70
     1
102
RTVSPropertyOp56
 70
     1
102
RTVSPropertyOp57
 70
     1
102
RTVSPropertyOp58
 70
     1
102
RTVSPropertyOp59
 70
     1
102
RTVSPropertyOp60
 70
     1
102
RTVSPropertyOp61
 70
     1
102
RTVSPropertyOp62
 70
     1
  0
XRECORD
  5
3C2
102
{ACAD_REACTORS
330
3C1
102
}
330
3C1
100
AcDbXrecord
280
     1
102
RTVSPost2010Prop28
280
     0
102
RTVSPost2010PropOp28
 70
     1
102
RTVSPost2010Prop29
280
     1
102
RTVSPost2010PropOp29
 70
     1
102
RTVSPost2010Prop30
280
     1
102
RTVSPost2010PropOp30
 70
     1
102
RTVSPost2010Prop31
280
     0
102
RTVSPost2010PropOp31
 70
     1
102
RTVSPost2010Prop32
280
     0
102
RTVSPost2010PropOp32
 70
     1
102
RTVSPost2010Prop33
280
     0
102
RTVSPost2010PropOp33
 70
     1
102
RTVSPost2010Prop34
280
     0
102
RTVSPost2010PropOp34
 70
     1
102
RTVSPost2010Prop35
280
     0
102
RTVSPost2010PropOp35
 70
     1
102
RTVSPost2010Prop36
280
     0
102
RTVSPost2010PropOp36
 70
     1
102
RTVSPost2010Prop37
 90
       50
102
RTVSPost2010PropOp37
 70
     1
102
RTVSPost2010Prop38
140
0.0
102
RTVSPost2010PropOp38
 70
     1
102
RTVSPost2010Prop39
140
1.0
102
RTVSPost2010PropOp39
 70
     1
102
RTVSPost2010Prop40
 90
        0
102
RTVSPost2010PropOp40
 70
     1
102
RTVSPost2010Prop41ColorIndex
 90
       18
102
RTVSPost2010Prop41ColorRGB
 90
        0
102
RTVSPost2010PropOp41
 70
     1
102
RTVSPost2010Prop42
 90
       50
102
RTVSPost2010PropOp42
 70
     1
102
RTVSPost2010Prop43
 90
        3
102
RTVSPost2010PropOp43
 70
     1
102
RTVSPost2010Prop44ColorIndex
 90
        5
102
RTVSPost2010Prop44ColorRGB
 90
      255
102
RTVSPost2010PropOp44
 70
     1
102
RTVSPost2010Prop45
280
     0
102
RTVSPost2010PropOp45
 70
     1
102
RTVSPost2010Prop46
 90
       50
102
RTVSPost2010PropOp46
 70
     1
102
RTVSPost2010Prop47
 90
       50
102
RTVSPost2010PropOp47
 70
     1
102
RTVSPost2010Prop48
 90
       50
102
RTVSPost2010PropOp48
 70
     1
102
RTVSPost2010Prop49
280
     0
102
RTVSPost2010PropOp49
 70
     1
102
RTVSPost2010Prop50
 90
       50
102
RTVSPost2010PropOp50
 70
     1
102
RTVSPost2010Prop51ColorIndex
 90
      256
102
RTVSPost2010Prop51ColorRGB
 90
-16777216
102
RTVSPost2010PropOp51
 70
     0
102
RTVSPost2010Prop52
140
1.0
102
RTVSPost2010PropOp52
 70
     0
102
RTVSPost2010Prop53
 90
        2
102
RTVSPost2010PropOp53
 70
     1
102
RTVSPost2010Prop54
  1
strokes_ogs.tif
102
RTVSPost2010PropOp54
 70
     1
102
RTVSPost2010Prop55
280
     0
102
RTVSPost2010PropOp55
 70
     1
102
RTVSPost2010Prop56
140
1.0
102
RTVSPost2010PropOp56
 70
     1
102
RTVSPost2010Prop57
140
1.0
102
RTVSPost2010PropOp57
 70
     1
102
RTVSPropertyOp0
 70
     1
102
RTVSPropertyOp1
 70
     1
102
RTVSPropertyOp2
 70
     1
102
RTVSPropertyOp3
 70
     1
102
RTVSPropertyOp4
 70
     1
102
RTVSPropertyOp5
 70
     1
102
RTVSPropertyOp6
 70
     1
102
RTVSPropertyOp7
 70
     1
102
RTVSPropertyOp8
 70
     1
102
RTVSPropertyOp9
 70
     1
102
RTVSPropertyOp10
 70
     1
102
RTVSPropertyOp11
 70
     1
102
RTVSPropertyOp12
 70
     1
102
RTVSPropertyOp13
 70
     1
102
RTVSPropertyOp14
 70
     1
102
RTVSPropertyOp15
 70
     1
102
RTVSPropertyOp16
 70
     1
102
RTVSPropertyOp17
 70
     1
102
RTVSPropertyOp18
 70
     1
102
RTVSPropertyOp19
 70
     1
102
RTVSPropertyOp20
 70
     1
102
RTVSPropertyOp21
 70
     1
102
RTVSPropertyOp22
 70
     1
102
RTVSPropertyOp23
 70
     1
102
RTVSPropertyOp24
 70
     1
102
RTVSPropertyOp25
 70
     1
102
RTVSPropertyOp26
 70
     1
102
RTVSPropertyOp27
 70
     1
102
RTVSPropertyOp28
 70
     1
102
RTVSPropertyOp29
 70
     1
102
RTVSPropertyOp30
 70
     1
102
RTVSPropertyOp31
 70
     1
102
RTVSPropertyOp32
 70
     1
102
RTVSPropertyOp33
 70
     1
102
RTVSPropertyOp34
 70
     1
102
RTVSPropertyOp35
 70
     1
102
RTVSPropertyOp36
 70
     1
102
RTVSPropertyOp37
 70
     1
102
RTVSPropertyOp38
 70
     1
102
RTVSPropertyOp39
 70
     1
102
RTVSPropertyOp40
 70
     1
102
RTVSPropertyOp41
 70
     1
102
RTVSPropertyOp42
 70
     1
102
RTVSPropertyOp43
 70
     1
102
RTVSPropertyOp44
 70
     1
102
RTVSPropertyOp45
 70
     1
102
RTVSPropertyOp46
 70
     1
102
RTVSPropertyOp47
 70
     1
102
RTVSPropertyOp48
 70
     1
102
RTVSPropertyOp49
 70
     1
102
RTVSPropertyOp50
 70
     1
102
RTVSPropertyOp51
 70
     0
102
RTVSPropertyOp52
 70
     0
102
RTVSPropertyOp53
 70
     1
102
RTVSPropertyOp54
 70
     1
102
RTVSPropertyOp55
 70
     1
102
RTVSPropertyOp56
 70
     1
102
RTVSPropertyOp57
 70
     1
102
RTVSPropertyOp58
 70
     1
102
RTVSPropertyOp59
 70
     1
102
RTVSPropertyOp60
 70
     1
102
RTVSPropertyOp61
 70
     1
102
RTVSPropertyOp62
 70
     1
  0
XRECORD
  5
3B4
102
{ACAD_REACTORS
330
3B3
102
}
330
3B3
100
AcDbXrecord
280
     1
102
RTVSPost2010Prop28
280
     0
102
RTVSPost2010PropOp28
 70
     1
102
RTVSPost2010Prop29
280
     1
102
RTVSPost2010PropOp29
 70
     1
102
RTVSPost2010Prop30
280
     1
102
RTVSPost2010PropOp30
 70
     1
102
RTVSPost2010Prop31
280
     0
102
RTVSPost2010PropOp31
 70
     1
102
RTVSPost2010Prop32
280
     0
102
RTVSPost2010PropOp32
 70
     1
102
RTVSPost2010Prop33
280
     0
102
RTVSPost2010PropOp33
 70
     1
102
RTVSPost2010Prop34
280
     0
102
RTVSPost2010PropOp34
 70
     1
102
RTVSPost2010Prop35
280
     0
102
RTVSPost2010PropOp35
 70
     1
102
RTVSPost2010Prop36
280
     0
102
RTVSPost2010PropOp36
 70
     1
102
RTVSPost2010Prop37
 90
       50
102
RTVSPost2010PropOp37
 70
     1
102
RTVSPost2010Prop38
140
0.0
102
RTVSPost2010PropOp38
 70
     1
102
RTVSPost2010Prop39
140
1.0
102
RTVSPost2010PropOp39
 70
     1
102
RTVSPost2010Prop40
 90
        0
102
RTVSPost2010PropOp40
 70
     1
102
RTVSPost2010Prop41ColorIndex
 90
       18
102
RTVSPost2010Prop41ColorRGB
 90
        0
102
RTVSPost2010PropOp41
 70
     1
102
RTVSPost2010Prop42
 90
       50
102
RTVSPost2010PropOp42
 70
     1
102
RTVSPost2010Prop43
 90
        3
102
RTVSPost2010PropOp43
 70
     1
102
RTVSPost2010Prop44ColorIndex
 90
        5
102
RTVSPost2010Prop44ColorRGB
 90
      255
102
RTVSPost2010PropOp44
 70
     1
102
RTVSPost2010Prop45
280
     0
102
RTVSPost2010PropOp45
 70
     1
102
RTVSPost2010Prop46
 90
       50
102
RTVSPost2010PropOp46
 70
     1
102
RTVSPost2010Prop47
 90
       50
102
RTVSPost2010PropOp47
 70
     1
102
RTVSPost2010Prop48
 90
       50
102
RTVSPost2010PropOp48
 70
     1
102
RTVSPost2010Prop49
280
     0
102
RTVSPost2010PropOp49
 70
     1
102
RTVSPost2010Prop50
 90
       50
102
RTVSPost2010PropOp50
 70
     1
102
RTVSPost2010Prop51ColorIndex
 90
      256
102
RTVSPost2010Prop51ColorRGB
 90
-16777216
102
RTVSPost2010PropOp51
 70
     0
102
RTVSPost2010Prop52
140
1.0
102
RTVSPost2010PropOp52
 70
     0
102
RTVSPost2010Prop53
 90
        2
102
RTVSPost2010PropOp53
 70
     1
102
RTVSPost2010Prop54
  1
strokes_ogs.tif
102
RTVSPost2010PropOp54
 70
     1
102
RTVSPost2010Prop55
280
     0
102
RTVSPost2010PropOp55
 70
     1
102
RTVSPost2010Prop56
140
1.0
102
RTVSPost2010PropOp56
 70
     1
102
RTVSPost2010Prop57
140
1.0
102
RTVSPost2010PropOp57
 70
     1
102
RTVSPropertyOp0
 70
     1
102
RTVSPropertyOp1
 70
     1
102
RTVSPropertyOp2
 70
     1
102
RTVSPropertyOp3
 70
     1
102
RTVSPropertyOp4
 70
     1
102
RTVSPropertyOp5
 70
     1
102
RTVSPropertyOp6
 70
     1
102
RTVSPropertyOp7
 70
     1
102
RTVSPropertyOp8
 70
     1
102
RTVSPropertyOp9
 70
     1
102
RTVSPropertyOp10
 70
     1
102
RTVSPropertyOp11
 70
     1
102
RTVSPropertyOp12
 70
     1
102
RTVSPropertyOp13
 70
     1
102
RTVSPropertyOp14
 70
     1
102
RTVSPropertyOp15
 70
     1
102
RTVSPropertyOp16
 70
     1
102
RTVSPropertyOp17
 70
     1
102
RTVSPropertyOp18
 70
     1
102
RTVSPropertyOp19
 70
     1
102
RTVSPropertyOp20
 70
     1
102
RTVSPropertyOp21
 70
     1
102
RTVSPropertyOp22
 70
     1
102
RTVSPropertyOp23
 70
     1
102
RTVSPropertyOp24
 70
     1
102
RTVSPropertyOp25
 70
     1
102
RTVSPropertyOp26
 70
     1
102
RTVSPropertyOp27
 70
     1
102
RTVSPropertyOp28
 70
     1
102
RTVSPropertyOp29
 70
     1
102
RTVSPropertyOp30
 70
     1
102
RTVSPropertyOp31
 70
     1
102
RTVSPropertyOp32
 70
     1
102
RTVSPropertyOp33
 70
     1
102
RTVSPropertyOp34
 70
     1
102
RTVSPropertyOp35
 70
     1
102
RTVSPropertyOp36
 70
     1
102
RTVSPropertyOp37
 70
     1
102
RTVSPropertyOp38
 70
     1
102
RTVSPropertyOp39
 70
     1
102
RTVSPropertyOp40
 70
     1
102
RTVSPropertyOp41
 70
     1
102
RTVSPropertyOp42
 70
     1
102
RTVSPropertyOp43
 70
     1
102
RTVSPropertyOp44
 70
     1
102
RTVSPropertyOp45
 70
     1
102
RTVSPropertyOp46
 70
     1
102
RTVSPropertyOp47
 70
     1
102
RTVSPropertyOp48
 70
     1
102
RTVSPropertyOp49
 70
     1
102
RTVSPropertyOp50
 70
     1
102
RTVSPropertyOp51
 70
     0
102
RTVSPropertyOp52
 70
     0
102
RTVSPropertyOp53
 70
     1
102
RTVSPropertyOp54
 70
     1
102
RTVSPropertyOp55
 70
     1
102
RTVSPropertyOp56
 70
     1
102
RTVSPropertyOp57
 70
     1
102
RTVSPropertyOp58
 70
     1
102
RTVSPropertyOp59
 70
     1
102
RTVSPropertyOp60
 70
     1
102
RTVSPropertyOp61
 70
     1
102
RTVSPropertyOp62
 70
     1
  0
XRECORD
  5
3D4
102
{ACAD_REACTORS
330
3D3
102
}
330
3D3
100
AcDbXrecord
280
     1
102
RTVSPost2010Prop28
280
     0
102
RTVSPost2010PropOp28
 70
     1
102
RTVSPost2010Prop29
280
     1
102
RTVSPost2010PropOp29
 70
     1
102
RTVSPost2010Prop30
280
     1
102
RTVSPost2010PropOp30
 70
     1
102
RTVSPost2010Prop31
280
     0
102
RTVSPost2010PropOp31
 70
     1
102
RTVSPost2010Prop32
280
     0
102
RTVSPost2010PropOp32
 70
     1
102
RTVSPost2010Prop33
280
     0
102
RTVSPost2010PropOp33
 70
     1
102
RTVSPost2010Prop34
280
     0
102
RTVSPost2010PropOp34
 70
     1
102
RTVSPost2010Prop35
280
     0
102
RTVSPost2010PropOp35
 70
     1
102
RTVSPost2010Prop36
280
     0
102
RTVSPost2010PropOp36
 70
     1
102
RTVSPost2010Prop37
 90
       50
102
RTVSPost2010PropOp37
 70
     1
102
RTVSPost2010Prop38
140
0.0
102
RTVSPost2010PropOp38
 70
     1
102
RTVSPost2010Prop39
140
1.0
102
RTVSPost2010PropOp39
 70
     1
102
RTVSPost2010Prop40
 90
        0
102
RTVSPost2010PropOp40
 70
     1
102
RTVSPost2010Prop41ColorIndex
 90
       18
102
RTVSPost2010Prop41ColorRGB
 90
        0
102
RTVSPost2010PropOp41
 70
     1
102
RTVSPost2010Prop42
 90
       50
102
RTVSPost2010PropOp42
 70
     1
102
RTVSPost2010Prop43
 90
        3
102
RTVSPost2010PropOp43
 70
     1
102
RTVSPost2010Prop44ColorIndex
 90
        5
102
RTVSPost2010Prop44ColorRGB
 90
      255
102
RTVSPost2010PropOp44
 70
     1
102
RTVSPost2010Prop45
280
     0
102
RTVSPost2010PropOp45
 70
     1
102
RTVSPost2010Prop46
 90
       50
102
RTVSPost2010PropOp46
 70
     1
102
RTVSPost2010Prop47
 90
       50
102
RTVSPost2010PropOp47
 70
     1
102
RTVSPost2010Prop48
 90
       50
102
RTVSPost2010PropOp48
 70
     1
102
RTVSPost2010Prop49
280
     0
102
RTVSPost2010PropOp49
 70
     1
102
RTVSPost2010Prop50
 90
       50
102
RTVSPost2010PropOp50
 70
     1
102
RTVSPost2010Prop51ColorIndex
 90
      256
102
RTVSPost2010Prop51ColorRGB
 90
-16777216
102
RTVSPost2010PropOp51
 70
     0
102
RTVSPost2010Prop52
140
1.0
102
RTVSPost2010PropOp52
 70
     0
102
RTVSPost2010Prop53
 90
        2
102
RTVSPost2010PropOp53
 70
     1
102
RTVSPost2010Prop54
  1
strokes_ogs.tif
102
RTVSPost2010PropOp54
 70
     1
102
RTVSPost2010Prop55
280
     0
102
RTVSPost2010PropOp55
 70
     1
102
RTVSPost2010Prop56
140
1.0
102
RTVSPost2010PropOp56
 70
     1
102
RTVSPost2010Prop57
140
1.0
102
RTVSPost2010PropOp57
 70
     1
102
RTVSPropertyOp0
 70
     1
102
RTVSPropertyOp1
 70
     1
102
RTVSPropertyOp2
 70
     1
102
RTVSPropertyOp3
 70
     1
102
RTVSPropertyOp4
 70
     1
102
RTVSPropertyOp5
 70
     1
102
RTVSPropertyOp6
 70
     1
102
RTVSPropertyOp7
 70
     1
102
RTVSPropertyOp8
 70
     1
102
RTVSPropertyOp9
 70
     1
102
RTVSPropertyOp10
 70
     1
102
RTVSPropertyOp11
 70
     1
102
RTVSPropertyOp12
 70
     1
102
RTVSPropertyOp13
 70
     1
102
RTVSPropertyOp14
 70
     1
102
RTVSPropertyOp15
 70
     1
102
RTVSPropertyOp16
 70
     1
102
RTVSPropertyOp17
 70
     1
102
RTVSPropertyOp18
 70
     1
102
RTVSPropertyOp19
 70
     1
102
RTVSPropertyOp20
 70
     1
102
RTVSPropertyOp21
 70
     1
102
RTVSPropertyOp22
 70
     1
102
RTVSPropertyOp23
 70
     1
102
RTVSPropertyOp24
 70
     1
102
RTVSPropertyOp25
 70
     1
102
RTVSPropertyOp26
 70
     1
102
RTVSPropertyOp27
 70
     1
102
RTVSPropertyOp28
 70
     1
102
RTVSPropertyOp29
 70
     1
102
RTVSPropertyOp30
 70
     1
102
RTVSPropertyOp31
 70
     1
102
RTVSPropertyOp32
 70
     1
102
RTVSPropertyOp33
 70
     1
102
RTVSPropertyOp34
 70
     1
102
RTVSPropertyOp35
 70
     1
102
RTVSPropertyOp36
 70
     1
102
RTVSPropertyOp37
 70
     1
102
RTVSPropertyOp38
 70
     1
102
RTVSPropertyOp39
 70
     1
102
RTVSPropertyOp40
 70
     1
102
RTVSPropertyOp41
 70
     1
102
RTVSPropertyOp42
 70
     1
102
RTVSPropertyOp43
 70
     1
102
RTVSPropertyOp44
 70
     1
102
RTVSPropertyOp45
 70
     1
102
RTVSPropertyOp46
 70
     1
102
RTVSPropertyOp47
 70
     1
102
RTVSPropertyOp48
 70
     1
102
RTVSPropertyOp49
 70
     1
102
RTVSPropertyOp50
 70
     1
102
RTVSPropertyOp51
 70
     0
102
RTVSPropertyOp52
 70
     0
102
RTVSPropertyOp53
 70
     1
102
RTVSPropertyOp54
 70
     1
102
RTVSPropertyOp55
 70
     1
102
RTVSPropertyOp56
 70
     1
102
RTVSPropertyOp57
 70
     1
102
RTVSPropertyOp58
 70
     1
102
RTVSPropertyOp59
 70
     1
102
RTVSPropertyOp60
 70
     1
102
RTVSPropertyOp61
 70
     1
102
RTVSPropertyOp62
 70
     1
  0
ENDSEC
  0
EOF
