ISO-10303-21;
HEADER;
/* Generated by software containing ST-Developer
 * from STEP Tools, Inc. (www.steptools.com) 
 */
/* OPTION: using custom schema-name function */

FILE_DESCRIPTION(
/* description */ (''),
/* implementation_level */ '2;1');

FILE_NAME(
/* name */ '35E4R042M16-SCRD12-CF-SIM.stp',
/* time_stamp */ '2020-03-02T13:23:48+01:00',
/* author */ (''),
/* organization */ (''),
/* preprocessor_version */ 'ST-DEVELOPER v16.7',
/* originating_system */ 'SIEMENS PLM Software NX 12.0',
/* authorisation */ '');

FILE_SCHEMA (('AUTOMOTIVE_DESIGN { 1 0 10303 214 3 1 1 1 }'));
ENDSEC;

DATA;
#10=PROPERTY_DEFINITION_REPRESENTATION(#14,#12);
#11=PROPERTY_DEFINITION_REPRESENTATION(#15,#13);
#12=REPRESENTATION('',(#16),#538);
#13=REPRESENTATION('',(#17),#538);
#14=PROPERTY_DEFINITION('pmi validation property','',#21);
#15=PROPERTY_DEFINITION('pmi validation property','',#21);
#16=VALUE_REPRESENTATION_ITEM('number of annotations',COUNT_MEASURE(0.));
#17=VALUE_REPRESENTATION_ITEM('number of views',COUNT_MEASURE(0.));
#18=SHAPE_REPRESENTATION_RELATIONSHIP('None',
'relationship between hm152E8813C8k9i7-None and hm152E8813C8k9i7-None',
#30,#19);
#19=ADVANCED_BREP_SHAPE_REPRESENTATION('hm152E8813C8k9i7-None',(#49,#50),
#538);
#20=SHAPE_DEFINITION_REPRESENTATION(#21,#30);
#21=PRODUCT_DEFINITION_SHAPE('','',#22);
#22=PRODUCT_DEFINITION(' ','',#24,#23);
#23=PRODUCT_DEFINITION_CONTEXT('part definition',#29,'design');
#24=PRODUCT_DEFINITION_FORMATION_WITH_SPECIFIED_SOURCE(' ',' ',#26,
 .NOT_KNOWN.);
#25=PRODUCT_RELATED_PRODUCT_CATEGORY('part','',(#26));
#26=PRODUCT('hm152E8813C8k9i7','hm152E8813C8k9i7',' ',(#27));
#27=PRODUCT_CONTEXT(' ',#29,'mechanical');
#28=APPLICATION_PROTOCOL_DEFINITION('international standard',
'automotive_design',2010,#29);
#29=APPLICATION_CONTEXT(
'core data for automotive mechanical design processes');
#30=SHAPE_REPRESENTATION('hm152E8813C8k9i7-None',(#316),#538);
#31=PRESENTATION_LAYER_ASSIGNMENT('14','Layer 14',(#49));
#32=PRESENTATION_LAYER_ASSIGNMENT('60','Layer 60',(#50));
#33=STYLED_ITEM('',(#35),#49);
#34=STYLED_ITEM('',(#36),#50);
#35=PRESENTATION_STYLE_ASSIGNMENT((#37));
#36=PRESENTATION_STYLE_ASSIGNMENT((#38));
#37=SURFACE_STYLE_USAGE(.BOTH.,#39);
#38=SURFACE_STYLE_USAGE(.BOTH.,#40);
#39=SURFACE_SIDE_STYLE('',(#41));
#40=SURFACE_SIDE_STYLE('',(#42));
#41=SURFACE_STYLE_FILL_AREA(#43);
#42=SURFACE_STYLE_FILL_AREA(#44);
#43=FILL_AREA_STYLE('',(#45));
#44=FILL_AREA_STYLE('',(#46));
#45=FILL_AREA_STYLE_COLOUR('',#47);
#46=FILL_AREA_STYLE_COLOUR('',#48);
#47=COLOUR_RGB('Medium Gray',0.499992370489052,0.499992370489052,0.499992370489052);
#48=COLOUR_RGB('Light Gray',0.8,0.8,0.8);
#49=MANIFOLD_SOLID_BREP('',#51);
#50=MANIFOLD_SOLID_BREP('',#52);
#51=CLOSED_SHELL('',(#78,#79,#80,#81,#82,#83,#84,#85,#86,#87,#88,#89,#90,
#91,#92,#93,#94,#95,#96,#97,#98,#99,#100,#101));
#52=CLOSED_SHELL('',(#102));
#53=VERTEX_LOOP('',#267);
#54=VERTEX_LOOP('',#269);
#55=CYLINDRICAL_SURFACE('',#329,15.);
#56=CYLINDRICAL_SURFACE('',#335,14.5);
#57=CYLINDRICAL_SURFACE('',#346,8.3);
#58=CYLINDRICAL_SURFACE('',#354,8.);
#59=CYLINDRICAL_SURFACE('',#357,8.5);
#60=CYLINDRICAL_SURFACE('',#362,2.5);
#61=TOROIDAL_SURFACE('',#326,11.9912831425916,4.8);
#62=TOROIDAL_SURFACE('',#337,10.,5.);
#63=TOROIDAL_SURFACE('',#338,20.,5.);
#64=TOROIDAL_SURFACE('',#339,19.5,5.);
#65=TOROIDAL_SURFACE('',#340,5.57115242270664,3.);
#66=TOROIDAL_SURFACE('',#344,8.7,0.4);
#67=TOROIDAL_SURFACE('',#348,8.7,0.4);
#68=TOROIDAL_SURFACE('',#364,11.4749982351773,6.);
#69=CONICAL_SURFACE('',#324,6.375,60.);
#70=CONICAL_SURFACE('',#332,15.,9.99999999999998);
#71=CONICAL_SURFACE('',#336,14.5,44.9999999999999);
#72=CONICAL_SURFACE('',#342,9.49907116054873,75.);
#73=CONICAL_SURFACE('',#356,8.5,45.0000000000001);
#74=CONICAL_SURFACE('',#358,6.5,45.);
#75=CONICAL_SURFACE('',#360,2.5,60.);
#76=CONICAL_SURFACE('',#363,3.6547,30.);
#77=FACE_OUTER_BOUND('',#155,.T.);
#78=ADVANCED_FACE('',(#106,#107),#103,.F.);
#79=ADVANCED_FACE('',(#77),#104,.F.);
#80=ADVANCED_FACE('',(#108,#109),#69,.F.);
#81=ADVANCED_FACE('',(#110,#111),#61,.T.);
#82=ADVANCED_FACE('',(#112,#113),#55,.T.);
#83=ADVANCED_FACE('',(#114,#115),#70,.T.);
#84=ADVANCED_FACE('',(#116,#117),#56,.T.);
#85=ADVANCED_FACE('',(#118,#119),#71,.T.);
#86=ADVANCED_FACE('',(#120,#121),#62,.T.);
#87=ADVANCED_FACE('',(#122,#123),#63,.F.);
#88=ADVANCED_FACE('',(#124,#125),#64,.F.);
#89=ADVANCED_FACE('',(#126,#127),#65,.F.);
#90=ADVANCED_FACE('',(#128,#129),#72,.F.);
#91=ADVANCED_FACE('',(#130,#131),#66,.F.);
#92=ADVANCED_FACE('',(#132,#133),#57,.T.);
#93=ADVANCED_FACE('',(#134,#135),#67,.F.);
#94=ADVANCED_FACE('',(#136,#137),#105,.F.);
#95=ADVANCED_FACE('',(#138,#139),#58,.T.);
#96=ADVANCED_FACE('',(#140,#141),#73,.T.);
#97=ADVANCED_FACE('',(#142,#143),#59,.T.);
#98=ADVANCED_FACE('',(#144,#145),#74,.T.);
#99=ADVANCED_FACE('',(#146,#147),#75,.F.);
#100=ADVANCED_FACE('',(#148,#149),#60,.F.);
#101=ADVANCED_FACE('',(#150,#151),#76,.F.);
#102=ADVANCED_FACE('',(#152),#68,.T.);
#103=PLANE('',#319);
#104=PLANE('',#321);
#105=PLANE('',#351);
#106=FACE_BOUND('',#153,.T.);
#107=FACE_BOUND('',#154,.T.);
#108=FACE_BOUND('',#156,.T.);
#109=FACE_BOUND('',#157,.T.);
#110=FACE_BOUND('',#158,.T.);
#111=FACE_BOUND('',#159,.T.);
#112=FACE_BOUND('',#160,.T.);
#113=FACE_BOUND('',#161,.T.);
#114=FACE_BOUND('',#162,.T.);
#115=FACE_BOUND('',#163,.T.);
#116=FACE_BOUND('',#164,.T.);
#117=FACE_BOUND('',#165,.T.);
#118=FACE_BOUND('',#166,.T.);
#119=FACE_BOUND('',#167,.T.);
#120=FACE_BOUND('',#168,.T.);
#121=FACE_BOUND('',#169,.T.);
#122=FACE_BOUND('',#170,.T.);
#123=FACE_BOUND('',#171,.T.);
#124=FACE_BOUND('',#172,.T.);
#125=FACE_BOUND('',#173,.T.);
#126=FACE_BOUND('',#174,.T.);
#127=FACE_BOUND('',#175,.T.);
#128=FACE_BOUND('',#176,.T.);
#129=FACE_BOUND('',#177,.T.);
#130=FACE_BOUND('',#178,.T.);
#131=FACE_BOUND('',#179,.T.);
#132=FACE_BOUND('',#180,.T.);
#133=FACE_BOUND('',#181,.T.);
#134=FACE_BOUND('',#182,.T.);
#135=FACE_BOUND('',#183,.T.);
#136=FACE_BOUND('',#184,.T.);
#137=FACE_BOUND('',#185,.T.);
#138=FACE_BOUND('',#186,.T.);
#139=FACE_BOUND('',#187,.T.);
#140=FACE_BOUND('',#188,.T.);
#141=FACE_BOUND('',#189,.T.);
#142=FACE_BOUND('',#190,.T.);
#143=FACE_BOUND('',#191,.T.);
#144=FACE_BOUND('',#192,.T.);
#145=FACE_BOUND('',#193,.T.);
#146=FACE_BOUND('',#194,.T.);
#147=FACE_BOUND('',#53,.T.);
#148=FACE_BOUND('',#195,.T.);
#149=FACE_BOUND('',#196,.T.);
#150=FACE_BOUND('',#197,.T.);
#151=FACE_BOUND('',#198,.T.);
#152=FACE_BOUND('',#54,.T.);
#153=EDGE_LOOP('',(#199));
#154=EDGE_LOOP('',(#200));
#155=EDGE_LOOP('',(#201));
#156=EDGE_LOOP('',(#202));
#157=EDGE_LOOP('',(#203));
#158=EDGE_LOOP('',(#204));
#159=EDGE_LOOP('',(#205));
#160=EDGE_LOOP('',(#206));
#161=EDGE_LOOP('',(#207));
#162=EDGE_LOOP('',(#208));
#163=EDGE_LOOP('',(#209));
#164=EDGE_LOOP('',(#210));
#165=EDGE_LOOP('',(#211));
#166=EDGE_LOOP('',(#212));
#167=EDGE_LOOP('',(#213));
#168=EDGE_LOOP('',(#214));
#169=EDGE_LOOP('',(#215));
#170=EDGE_LOOP('',(#216));
#171=EDGE_LOOP('',(#217));
#172=EDGE_LOOP('',(#218));
#173=EDGE_LOOP('',(#219));
#174=EDGE_LOOP('',(#220));
#175=EDGE_LOOP('',(#221));
#176=EDGE_LOOP('',(#222));
#177=EDGE_LOOP('',(#223));
#178=EDGE_LOOP('',(#224));
#179=EDGE_LOOP('',(#225));
#180=EDGE_LOOP('',(#226));
#181=EDGE_LOOP('',(#227));
#182=EDGE_LOOP('',(#228));
#183=EDGE_LOOP('',(#229));
#184=EDGE_LOOP('',(#230));
#185=EDGE_LOOP('',(#231));
#186=EDGE_LOOP('',(#232));
#187=EDGE_LOOP('',(#233));
#188=EDGE_LOOP('',(#234));
#189=EDGE_LOOP('',(#235));
#190=EDGE_LOOP('',(#236));
#191=EDGE_LOOP('',(#237));
#192=EDGE_LOOP('',(#238));
#193=EDGE_LOOP('',(#239));
#194=EDGE_LOOP('',(#240));
#195=EDGE_LOOP('',(#241));
#196=EDGE_LOOP('',(#242));
#197=EDGE_LOOP('',(#243));
#198=EDGE_LOOP('',(#244));
#199=ORIENTED_EDGE('',*,*,#270,.T.);
#200=ORIENTED_EDGE('',*,*,#271,.T.);
#201=ORIENTED_EDGE('',*,*,#272,.T.);
#202=ORIENTED_EDGE('',*,*,#273,.T.);
#203=ORIENTED_EDGE('',*,*,#274,.T.);
#204=ORIENTED_EDGE('',*,*,#275,.T.);
#205=ORIENTED_EDGE('',*,*,#274,.F.);
#206=ORIENTED_EDGE('',*,*,#276,.T.);
#207=ORIENTED_EDGE('',*,*,#277,.T.);
#208=ORIENTED_EDGE('',*,*,#278,.T.);
#209=ORIENTED_EDGE('',*,*,#279,.T.);
#210=ORIENTED_EDGE('',*,*,#280,.T.);
#211=ORIENTED_EDGE('',*,*,#281,.T.);
#212=ORIENTED_EDGE('',*,*,#271,.F.);
#213=ORIENTED_EDGE('',*,*,#281,.F.);
#214=ORIENTED_EDGE('',*,*,#276,.F.);
#215=ORIENTED_EDGE('',*,*,#278,.F.);
#216=ORIENTED_EDGE('',*,*,#275,.F.);
#217=ORIENTED_EDGE('',*,*,#277,.F.);
#218=ORIENTED_EDGE('',*,*,#279,.F.);
#219=ORIENTED_EDGE('',*,*,#280,.F.);
#220=ORIENTED_EDGE('',*,*,#273,.F.);
#221=ORIENTED_EDGE('',*,*,#272,.F.);
#222=ORIENTED_EDGE('',*,*,#282,.T.);
#223=ORIENTED_EDGE('',*,*,#270,.F.);
#224=ORIENTED_EDGE('',*,*,#283,.T.);
#225=ORIENTED_EDGE('',*,*,#282,.F.);
#226=ORIENTED_EDGE('',*,*,#284,.T.);
#227=ORIENTED_EDGE('',*,*,#283,.F.);
#228=ORIENTED_EDGE('',*,*,#285,.T.);
#229=ORIENTED_EDGE('',*,*,#284,.F.);
#230=ORIENTED_EDGE('',*,*,#286,.T.);
#231=ORIENTED_EDGE('',*,*,#287,.T.);
#232=ORIENTED_EDGE('',*,*,#288,.T.);
#233=ORIENTED_EDGE('',*,*,#289,.T.);
#234=ORIENTED_EDGE('',*,*,#289,.F.);
#235=ORIENTED_EDGE('',*,*,#290,.T.);
#236=ORIENTED_EDGE('',*,*,#290,.F.);
#237=ORIENTED_EDGE('',*,*,#285,.F.);
#238=ORIENTED_EDGE('',*,*,#288,.F.);
#239=ORIENTED_EDGE('',*,*,#287,.F.);
#240=ORIENTED_EDGE('',*,*,#291,.T.);
#241=ORIENTED_EDGE('',*,*,#291,.F.);
#242=ORIENTED_EDGE('',*,*,#292,.T.);
#243=ORIENTED_EDGE('',*,*,#292,.F.);
#244=ORIENTED_EDGE('',*,*,#286,.F.);
#245=VERTEX_POINT('',#465);
#246=VERTEX_POINT('',#467);
#247=VERTEX_POINT('',#470);
#248=VERTEX_POINT('',#473);
#249=VERTEX_POINT('',#475);
#250=VERTEX_POINT('',#478);
#251=VERTEX_POINT('',#481);
#252=VERTEX_POINT('',#483);
#253=VERTEX_POINT('',#486);
#254=VERTEX_POINT('',#488);
#255=VERTEX_POINT('',#491);
#256=VERTEX_POINT('',#493);
#257=VERTEX_POINT('',#501);
#258=VERTEX_POINT('',#504);
#259=VERTEX_POINT('',#507);
#260=VERTEX_POINT('',#510);
#261=VERTEX_POINT('',#513);
#262=VERTEX_POINT('',#515);
#263=VERTEX_POINT('',#518);
#264=VERTEX_POINT('',#520);
#265=VERTEX_POINT('',#523);
#266=VERTEX_POINT('',#528);
#267=VERTEX_POINT('',#529);
#268=VERTEX_POINT('',#532);
#269=VERTEX_POINT('',#535);
#270=EDGE_CURVE('',#245,#245,#293,.T.);
#271=EDGE_CURVE('',#246,#246,#294,.T.);
#272=EDGE_CURVE('',#247,#247,#295,.T.);
#273=EDGE_CURVE('',#248,#248,#296,.T.);
#274=EDGE_CURVE('',#249,#249,#297,.T.);
#275=EDGE_CURVE('',#250,#250,#298,.T.);
#276=EDGE_CURVE('',#251,#251,#299,.T.);
#277=EDGE_CURVE('',#252,#252,#300,.T.);
#278=EDGE_CURVE('',#253,#253,#301,.T.);
#279=EDGE_CURVE('',#254,#254,#302,.T.);
#280=EDGE_CURVE('',#255,#255,#303,.T.);
#281=EDGE_CURVE('',#256,#256,#304,.T.);
#282=EDGE_CURVE('',#257,#257,#305,.T.);
#283=EDGE_CURVE('',#258,#258,#306,.T.);
#284=EDGE_CURVE('',#259,#259,#307,.T.);
#285=EDGE_CURVE('',#260,#260,#308,.T.);
#286=EDGE_CURVE('',#261,#261,#309,.T.);
#287=EDGE_CURVE('',#262,#262,#310,.T.);
#288=EDGE_CURVE('',#263,#263,#311,.T.);
#289=EDGE_CURVE('',#264,#264,#312,.T.);
#290=EDGE_CURVE('',#265,#265,#313,.T.);
#291=EDGE_CURVE('',#266,#266,#314,.T.);
#292=EDGE_CURVE('',#268,#268,#315,.T.);
#293=CIRCLE('',#317,9.49907116054873);
#294=CIRCLE('',#318,14.);
#295=CIRCLE('',#320,5.57115242270664);
#296=CIRCLE('',#322,7.07115242270664);
#297=CIRCLE('',#323,9.59128314259158);
#298=CIRCLE('',#325,15.91391997071);
#299=CIRCLE('',#327,15.);
#300=CIRCLE('',#328,15.);
#301=CIRCLE('',#330,14.924038765061);
#302=CIRCLE('',#331,14.575961234939);
#303=CIRCLE('',#333,14.5);
#304=CIRCLE('',#334,14.5);
#305=CIRCLE('',#341,8.80352761804101);
#306=CIRCLE('',#343,8.3);
#307=CIRCLE('',#345,8.3);
#308=CIRCLE('',#347,8.5);
#309=CIRCLE('',#349,3.6547);
#310=CIRCLE('',#350,6.5);
#311=CIRCLE('',#352,8.);
#312=CIRCLE('',#353,8.);
#313=CIRCLE('',#355,8.5);
#314=CIRCLE('',#359,2.5);
#315=CIRCLE('',#361,2.5);
#316=AXIS2_PLACEMENT_3D('',#463,#365,#366);
#317=AXIS2_PLACEMENT_3D('',#464,#367,#368);
#318=AXIS2_PLACEMENT_3D('',#466,#369,#370);
#319=AXIS2_PLACEMENT_3D('',#468,#371,#372);
#320=AXIS2_PLACEMENT_3D('',#469,#373,#374);
#321=AXIS2_PLACEMENT_3D('',#471,#375,#376);
#322=AXIS2_PLACEMENT_3D('',#472,#377,#378);
#323=AXIS2_PLACEMENT_3D('',#474,#379,#380);
#324=AXIS2_PLACEMENT_3D('',#476,#381,#382);
#325=AXIS2_PLACEMENT_3D('',#477,#383,#384);
#326=AXIS2_PLACEMENT_3D('',#479,#385,#386);
#327=AXIS2_PLACEMENT_3D('',#480,#387,#388);
#328=AXIS2_PLACEMENT_3D('',#482,#389,#390);
#329=AXIS2_PLACEMENT_3D('',#484,#391,#392);
#330=AXIS2_PLACEMENT_3D('',#485,#393,#394);
#331=AXIS2_PLACEMENT_3D('',#487,#395,#396);
#332=AXIS2_PLACEMENT_3D('',#489,#397,#398);
#333=AXIS2_PLACEMENT_3D('',#490,#399,#400);
#334=AXIS2_PLACEMENT_3D('',#492,#401,#402);
#335=AXIS2_PLACEMENT_3D('',#494,#403,#404);
#336=AXIS2_PLACEMENT_3D('',#495,#405,#406);
#337=AXIS2_PLACEMENT_3D('',#496,#407,#408);
#338=AXIS2_PLACEMENT_3D('',#497,#409,#410);
#339=AXIS2_PLACEMENT_3D('',#498,#411,#412);
#340=AXIS2_PLACEMENT_3D('',#499,#413,#414);
#341=AXIS2_PLACEMENT_3D('',#500,#415,#416);
#342=AXIS2_PLACEMENT_3D('',#502,#417,#418);
#343=AXIS2_PLACEMENT_3D('',#503,#419,#420);
#344=AXIS2_PLACEMENT_3D('',#505,#421,#422);
#345=AXIS2_PLACEMENT_3D('',#506,#423,#424);
#346=AXIS2_PLACEMENT_3D('',#508,#425,#426);
#347=AXIS2_PLACEMENT_3D('',#509,#427,#428);
#348=AXIS2_PLACEMENT_3D('',#511,#429,#430);
#349=AXIS2_PLACEMENT_3D('',#512,#431,#432);
#350=AXIS2_PLACEMENT_3D('',#514,#433,#434);
#351=AXIS2_PLACEMENT_3D('',#516,#435,#436);
#352=AXIS2_PLACEMENT_3D('',#517,#437,#438);
#353=AXIS2_PLACEMENT_3D('',#519,#439,#440);
#354=AXIS2_PLACEMENT_3D('',#521,#441,#442);
#355=AXIS2_PLACEMENT_3D('',#522,#443,#444);
#356=AXIS2_PLACEMENT_3D('',#524,#445,#446);
#357=AXIS2_PLACEMENT_3D('',#525,#447,#448);
#358=AXIS2_PLACEMENT_3D('',#526,#449,#450);
#359=AXIS2_PLACEMENT_3D('',#527,#451,#452);
#360=AXIS2_PLACEMENT_3D('',#530,#453,#454);
#361=AXIS2_PLACEMENT_3D('',#531,#455,#456);
#362=AXIS2_PLACEMENT_3D('',#533,#457,#458);
#363=AXIS2_PLACEMENT_3D('',#534,#459,#460);
#364=AXIS2_PLACEMENT_3D('',#536,#461,#462);
#365=DIRECTION('',(0.,0.,1.));
#366=DIRECTION('',(1.,0.,0.));
#367=DIRECTION('',(0.,0.,-1.));
#368=DIRECTION('',(-1.,0.,0.));
#369=DIRECTION('',(0.,0.,1.));
#370=DIRECTION('',(-1.,0.,0.));
#371=DIRECTION('',(0.,0.,-1.));
#372=DIRECTION('',(-1.,0.,0.));
#373=DIRECTION('',(0.,0.,-1.));
#374=DIRECTION('',(1.,0.,0.));
#375=DIRECTION('',(0.,0.,1.));
#376=DIRECTION('',(1.,0.,0.));
#377=DIRECTION('',(0.,0.,1.));
#378=DIRECTION('',(-1.,0.,0.));
#379=DIRECTION('',(0.,0.,-1.));
#380=DIRECTION('',(1.,0.,0.));
#381=DIRECTION('',(0.,0.,-1.));
#382=DIRECTION('',(-1.,0.,3.99148118584998E-18));
#383=DIRECTION('',(0.,0.,-1.));
#384=DIRECTION('',(-1.,0.,0.));
#385=DIRECTION('',(0.,0.,1.));
#386=DIRECTION('',(1.,0.,0.));
#387=DIRECTION('',(0.,0.,-1.));
#388=DIRECTION('',(-1.,0.,0.));
#389=DIRECTION('',(0.,0.,1.));
#390=DIRECTION('',(1.,0.,0.));
#391=DIRECTION('',(0.,0.,1.));
#392=DIRECTION('',(1.,0.,0.));
#393=DIRECTION('',(0.,0.,1.));
#394=DIRECTION('',(1.,0.,0.));
#395=DIRECTION('',(0.,0.,-1.));
#396=DIRECTION('',(-1.,0.,0.));
#397=DIRECTION('',(0.,0.,-1.));
#398=DIRECTION('',(-1.,0.,-4.89607202057327E-16));
#399=DIRECTION('',(0.,0.,1.));
#400=DIRECTION('',(1.,0.,0.));
#401=DIRECTION('',(0.,0.,-1.));
#402=DIRECTION('',(-1.,0.,0.));
#403=DIRECTION('',(0.,0.,1.));
#404=DIRECTION('',(1.,0.,0.));
#405=DIRECTION('',(0.,0.,-1.));
#406=DIRECTION('',(-1.,0.,5.42902615695059E-17));
#407=DIRECTION('',(0.,0.,-1.));
#408=DIRECTION('',(-1.,0.,0.));
#409=DIRECTION('',(0.,0.,1.));
#410=DIRECTION('',(1.,0.,0.));
#411=DIRECTION('',(0.,0.,1.));
#412=DIRECTION('',(1.,0.,0.));
#413=DIRECTION('',(0.,0.,1.));
#414=DIRECTION('',(1.,0.,0.));
#415=DIRECTION('',(0.,0.,-1.));
#416=DIRECTION('',(-1.,0.,0.));
#417=DIRECTION('',(0.,0.,1.));
#418=DIRECTION('',(1.,0.,0.));
#419=DIRECTION('',(0.,0.,-1.));
#420=DIRECTION('',(-1.,0.,0.));
#421=DIRECTION('',(0.,0.,-1.));
#422=DIRECTION('',(-1.,0.,0.));
#423=DIRECTION('',(0.,0.,-1.));
#424=DIRECTION('',(-1.,0.,0.));
#425=DIRECTION('',(0.,0.,-1.));
#426=DIRECTION('',(-1.,0.,0.));
#427=DIRECTION('',(0.,0.,-1.));
#428=DIRECTION('',(-1.,0.,0.));
#429=DIRECTION('',(0.,0.,-1.));
#430=DIRECTION('',(-1.,0.,0.));
#431=DIRECTION('',(0.,0.,-1.));
#432=DIRECTION('',(-1.,0.,0.));
#433=DIRECTION('',(0.,0.,1.));
#434=DIRECTION('',(-1.,0.,0.));
#435=DIRECTION('',(0.,0.,-1.));
#436=DIRECTION('',(-1.,0.,0.));
#437=DIRECTION('',(0.,0.,-1.));
#438=DIRECTION('',(-1.,0.,0.));
#439=DIRECTION('',(0.,0.,1.));
#440=DIRECTION('',(1.,0.,0.));
#441=DIRECTION('',(0.,0.,1.));
#442=DIRECTION('',(1.,0.,0.));
#443=DIRECTION('',(0.,0.,1.));
#444=DIRECTION('',(1.,0.,0.));
#445=DIRECTION('',(0.,0.,-1.));
#446=DIRECTION('',(-1.,0.,6.8804104153765E-18));
#447=DIRECTION('',(0.,0.,1.));
#448=DIRECTION('',(1.,0.,0.));
#449=DIRECTION('',(0.,0.,-1.));
#450=DIRECTION('',(-1.,0.,2.06822471055357E-17));
#451=DIRECTION('',(0.,0.,1.));
#452=DIRECTION('',(-1.,0.,0.));
#453=DIRECTION('',(0.,0.,1.));
#454=DIRECTION('',(1.,0.,-1.20011945576262E-17));
#455=DIRECTION('',(0.,0.,1.));
#456=DIRECTION('',(-1.,0.,0.));
#457=DIRECTION('',(0.,0.,-1.));
#458=DIRECTION('',(-1.,0.,0.));
#459=DIRECTION('',(0.,0.,1.));
#460=DIRECTION('',(1.,0.,-1.55257916083938E-16));
#461=DIRECTION('',(0.,0.,-1.));
#462=DIRECTION('',(-1.,0.,0.));
#463=CARTESIAN_POINT('',(0.,0.,0.));
#464=CARTESIAN_POINT('',(0.,0.,0.));
#465=CARTESIAN_POINT('',(-9.49907116054873,0.,0.));
#466=CARTESIAN_POINT('',(0.,0.,0.));
#467=CARTESIAN_POINT('',(-14.,0.,0.));
#468=CARTESIAN_POINT('',(14.5,0.,0.));
#469=CARTESIAN_POINT('',(0.,0.,-38.4));
#470=CARTESIAN_POINT('',(5.57115242270664,0.,-38.4));
#471=CARTESIAN_POINT('',(0.,0.,-38.4));
#472=CARTESIAN_POINT('',(0.,0.,-38.8019237886467));
#473=CARTESIAN_POINT('',(-7.07115242270664,0.,-38.8019237886467));
#474=CARTESIAN_POINT('',(0.,0.,-40.2569219381653));
#475=CARTESIAN_POINT('',(9.59128314259158,0.,-40.2569219381653));
#476=CARTESIAN_POINT('',(0.,0.,-38.4));
#477=CARTESIAN_POINT('',(0.,0.,-33.3336087921826));
#478=CARTESIAN_POINT('',(-15.91391997071,0.,-33.3336087921826));
#479=CARTESIAN_POINT('',(0.,0.,-36.1));
#480=CARTESIAN_POINT('',(0.,0.,-21.2730842274385));
#481=CARTESIAN_POINT('',(-15.,0.,-21.2730842274385));
#482=CARTESIAN_POINT('',(0.,0.,-30.4519512840396));
#483=CARTESIAN_POINT('',(15.,0.,-30.4519512840396));
#484=CARTESIAN_POINT('',(0.,0.,0.));
#485=CARTESIAN_POINT('',(0.,0.,-20.4048433391038));
#486=CARTESIAN_POINT('',(14.924038765061,0.,-20.4048433391038));
#487=CARTESIAN_POINT('',(0.,0.,-18.430797570705));
#488=CARTESIAN_POINT('',(-14.575961234939,0.,-18.430797570705));
#489=CARTESIAN_POINT('',(0.,0.,-20.8356409098088));
#490=CARTESIAN_POINT('',(0.,0.,-17.5625566823704));
#491=CARTESIAN_POINT('',(14.5,0.,-17.5625566823704));
#492=CARTESIAN_POINT('',(0.,0.,-0.5));
#493=CARTESIAN_POINT('',(-14.5,0.,-0.5));
#494=CARTESIAN_POINT('',(0.,0.,0.));
#495=CARTESIAN_POINT('',(0.,0.,-0.5));
#496=CARTESIAN_POINT('',(0.,0.,-21.2730842274385));
#497=CARTESIAN_POINT('',(0.,0.,-30.4519512840396));
#498=CARTESIAN_POINT('',(0.,0.,-17.5625566823704));
#499=CARTESIAN_POINT('',(0.,0.,-41.4));
#500=CARTESIAN_POINT('',(0.,0.,-0.186370330515628));
#501=CARTESIAN_POINT('',(-8.80352761804101,0.,-0.186370330515628));
#502=CARTESIAN_POINT('',(0.,0.,0.));
#503=CARTESIAN_POINT('',(0.,0.,0.2));
#504=CARTESIAN_POINT('',(-8.3,0.,0.2));
#505=CARTESIAN_POINT('',(0.,0.,0.200000000000001));
#506=CARTESIAN_POINT('',(0.,0.,1.15358983848623));
#507=CARTESIAN_POINT('',(-8.3,0.,1.15358983848623));
#508=CARTESIAN_POINT('',(0.,0.,0.));
#509=CARTESIAN_POINT('',(0.,0.,1.5));
#510=CARTESIAN_POINT('',(-8.5,0.,1.5));
#511=CARTESIAN_POINT('',(0.,0.,1.15358983848623));
#512=CARTESIAN_POINT('',(0.,0.,23.));
#513=CARTESIAN_POINT('',(-3.6547,0.,23.));
#514=CARTESIAN_POINT('',(0.,0.,23.));
#515=CARTESIAN_POINT('',(-6.5,0.,23.));
#516=CARTESIAN_POINT('',(8.,0.,23.));
#517=CARTESIAN_POINT('',(0.,0.,21.5));
#518=CARTESIAN_POINT('',(-8.,0.,21.5));
#519=CARTESIAN_POINT('',(0.,0.,6.5));
#520=CARTESIAN_POINT('',(8.,0.,6.5));
#521=CARTESIAN_POINT('',(0.,0.,0.));
#522=CARTESIAN_POINT('',(0.,0.,6.));
#523=CARTESIAN_POINT('',(8.5,0.,6.));
#524=CARTESIAN_POINT('',(0.,0.,6.));
#525=CARTESIAN_POINT('',(0.,0.,0.));
#526=CARTESIAN_POINT('',(0.,0.,23.));
#527=CARTESIAN_POINT('',(0.,0.,-23.));
#528=CARTESIAN_POINT('',(-2.5,0.,-23.));
#529=CARTESIAN_POINT('',(0.,0.,-24.4433756729741));
#530=CARTESIAN_POINT('',(0.,0.,-23.));
#531=CARTESIAN_POINT('',(0.,0.,21.0000009325002));
#532=CARTESIAN_POINT('',(-2.5,0.,21.0000009325002));
#533=CARTESIAN_POINT('',(0.,0.,-23.));
#534=CARTESIAN_POINT('',(0.,0.,23.));
#535=CARTESIAN_POINT('',(-17.4749982351773,0.,-36.0000017648227));
#536=CARTESIAN_POINT('',(0.,0.,-36.0000017648227));
#537=MECHANICAL_DESIGN_GEOMETRIC_PRESENTATION_REPRESENTATION('',(#33,#34),
#538);
#538=(
GEOMETRIC_REPRESENTATION_CONTEXT(3)
GLOBAL_UNCERTAINTY_ASSIGNED_CONTEXT((#539))
GLOBAL_UNIT_ASSIGNED_CONTEXT((#545,#541,#540))
REPRESENTATION_CONTEXT('35E4R042M16-SCRD12-CF-SIM',
'TOP_LEVEL_ASSEMBLY_PART')
);
#539=UNCERTAINTY_MEASURE_WITH_UNIT(LENGTH_MEASURE(2.E-5),#545,
'DISTANCE_ACCURACY_VALUE','Maximum Tolerance applied to model');
#540=(
NAMED_UNIT(*)
SI_UNIT($,.STERADIAN.)
SOLID_ANGLE_UNIT()
);
#541=(
CONVERSION_BASED_UNIT('DEGREE',#543)
NAMED_UNIT(#542)
PLANE_ANGLE_UNIT()
);
#542=DIMENSIONAL_EXPONENTS(0.,0.,0.,0.,0.,0.,0.);
#543=PLANE_ANGLE_MEASURE_WITH_UNIT(PLANE_ANGLE_MEASURE(0.0174532925),#544);
#544=(
NAMED_UNIT(*)
PLANE_ANGLE_UNIT()
SI_UNIT($,.RADIAN.)
);
#545=(
LENGTH_UNIT()
NAMED_UNIT(*)
SI_UNIT(.MILLI.,.METRE.)
);
ENDSEC;
END-ISO-10303-21;
