ISO-10303-21;
HEADER;
/* Generated by software containing ST-Developer
 * from STEP Tools, Inc. (www.steptools.com) 
 */
/* OPTION: using custom schema-name function */

FILE_DESCRIPTION(
/* description */ (''),
/* implementation_level */ '2;1');

FILE_NAME(
/* name */ '32N4R042B32_SSE09_C_115009731ndi000_00_SIM.stp',
/* time_stamp */ '2020-01-07T13:55:54+01:00',
/* author */ (''),
/* organization */ (''),
/* preprocessor_version */ 'ST-DEVELOPER v16.7',
/* originating_system */ 'SIEMENS PLM Software NX 12.0',
/* authorisation */ '');

FILE_SCHEMA (('AUTOMOTIVE_DESIGN { 1 0 10303 214 3 1 1 1 }'));
ENDSEC;

DATA;
#10=PROPERTY_DEFINITION_REPRESENTATION(#14,#12);
#11=PROPERTY_DEFINITION_REPRESENTATION(#15,#13);
#12=REPRESENTATION('',(#16),#564);
#13=REPRESENTATION('',(#17),#564);
#14=PROPERTY_DEFINITION('pmi validation property','',#21);
#15=PROPERTY_DEFINITION('pmi validation property','',#21);
#16=VALUE_REPRESENTATION_ITEM('number of annotations',COUNT_MEASURE(0.));
#17=VALUE_REPRESENTATION_ITEM('number of views',COUNT_MEASURE(0.));
#18=SHAPE_REPRESENTATION_RELATIONSHIP('None',
'relationship between wq7003709718qj8a-None and wq7003709718qj8a-None',
#30,#19);
#19=ADVANCED_BREP_SHAPE_REPRESENTATION('wq7003709718qj8a-None',(#64,#65),
#564);
#20=SHAPE_DEFINITION_REPRESENTATION(#21,#30);
#21=PRODUCT_DEFINITION_SHAPE('','',#22);
#22=PRODUCT_DEFINITION(' ','',#24,#23);
#23=PRODUCT_DEFINITION_CONTEXT('part definition',#29,'design');
#24=PRODUCT_DEFINITION_FORMATION_WITH_SPECIFIED_SOURCE(' ',' ',#26,
 .NOT_KNOWN.);
#25=PRODUCT_RELATED_PRODUCT_CATEGORY('part','',(#26));
#26=PRODUCT('wq7003709718qj8a','wq7003709718qj8a',' ',(#27));
#27=PRODUCT_CONTEXT(' ',#29,'mechanical');
#28=APPLICATION_PROTOCOL_DEFINITION('international standard',
'automotive_design',2010,#29);
#29=APPLICATION_CONTEXT(
'core data for automotive mechanical design processes');
#30=SHAPE_REPRESENTATION('wq7003709718qj8a-None',(#323),#564);
#31=VERTEX_LOOP('',#275);
#32=TOROIDAL_SURFACE('',#345,15.775,5.);
#33=TOROIDAL_SURFACE('',#350,16.1,1.1);
#34=TOROIDAL_SURFACE('',#355,20.,5.);
#35=CYLINDRICAL_SURFACE('',#343,20.775);
#36=CYLINDRICAL_SURFACE('',#352,15.);
#37=CYLINDRICAL_SURFACE('',#354,16.);
#38=CYLINDRICAL_SURFACE('',#362,3.1);
#39=CONICAL_SURFACE('',#337,8.2,45.);
#40=CONICAL_SURFACE('',#341,15.585,47.5);
#41=CONICAL_SURFACE('',#347,20.442902132486,21.);
#42=CONICAL_SURFACE('',#360,3.1,70.);
#43=CONICAL_SURFACE('',#363,15.,45.);
#44=CONICAL_SURFACE('',#364,3.1,45.);
#45=FACE_OUTER_BOUND('',#177,.T.);
#46=PRESENTATION_LAYER_ASSIGNMENT('96','Layer 96',(#64));
#47=PRESENTATION_LAYER_ASSIGNMENT('14','Layer 14',(#65));
#48=STYLED_ITEM('',(#50),#64);
#49=STYLED_ITEM('',(#51),#65);
#50=PRESENTATION_STYLE_ASSIGNMENT((#52));
#51=PRESENTATION_STYLE_ASSIGNMENT((#53));
#52=SURFACE_STYLE_USAGE(.BOTH.,#54);
#53=SURFACE_STYLE_USAGE(.BOTH.,#55);
#54=SURFACE_SIDE_STYLE('',(#56));
#55=SURFACE_SIDE_STYLE('',(#57));
#56=SURFACE_STYLE_FILL_AREA(#58);
#57=SURFACE_STYLE_FILL_AREA(#59);
#58=FILL_AREA_STYLE('',(#60));
#59=FILL_AREA_STYLE('',(#61));
#60=FILL_AREA_STYLE_COLOUR('',#62);
#61=FILL_AREA_STYLE_COLOUR('',#63);
#62=COLOUR_RGB('Light Gray',0.8,0.8,0.8);
#63=COLOUR_RGB('Silver Gray',0.6,0.6,0.6);
#64=MANIFOLD_SOLID_BREP('',#66);
#65=MANIFOLD_SOLID_BREP('',#67);
#66=CLOSED_SHELL('',(#73,#74,#75,#76,#77,#78,#79,#80));
#67=CLOSED_SHELL('',(#81,#82,#83,#84,#85,#86,#87,#88,#89,#90,#91,#92,#93,
#94,#95,#96));
#68=PLANE('',#329);
#69=PLANE('',#333);
#70=PLANE('',#335);
#71=PLANE('',#339);
#72=PLANE('',#358);
#73=ADVANCED_FACE('',(#115,#116),#97,.T.);
#74=ADVANCED_FACE('',(#117,#118),#98,.T.);
#75=ADVANCED_FACE('',(#119,#120),#99,.T.);
#76=ADVANCED_FACE('',(#121,#122),#68,.F.);
#77=ADVANCED_FACE('',(#123,#124),#100,.T.);
#78=ADVANCED_FACE('',(#125,#126),#101,.T.);
#79=ADVANCED_FACE('',(#127,#128),#102,.T.);
#80=ADVANCED_FACE('',(#129,#130),#69,.F.);
#81=ADVANCED_FACE('',(#45),#70,.T.);
#82=ADVANCED_FACE('',(#131,#132),#39,.F.);
#83=ADVANCED_FACE('',(#133,#134),#71,.T.);
#84=ADVANCED_FACE('',(#135,#136),#40,.T.);
#85=ADVANCED_FACE('',(#137,#138),#35,.T.);
#86=ADVANCED_FACE('',(#139,#140),#32,.T.);
#87=ADVANCED_FACE('',(#141,#142),#41,.T.);
#88=ADVANCED_FACE('',(#143,#144),#33,.F.);
#89=ADVANCED_FACE('',(#145,#146),#36,.T.);
#90=ADVANCED_FACE('',(#147,#148),#37,.T.);
#91=ADVANCED_FACE('',(#149,#150),#34,.F.);
#92=ADVANCED_FACE('',(#151,#152),#72,.T.);
#93=ADVANCED_FACE('',(#153,#154),#42,.F.);
#94=ADVANCED_FACE('',(#155,#156),#38,.F.);
#95=ADVANCED_FACE('',(#157,#158),#43,.T.);
#96=ADVANCED_FACE('',(#159,#160),#44,.F.);
#97=SURFACE_OF_REVOLUTION('',#109,#103);
#98=SURFACE_OF_REVOLUTION('',#110,#104);
#99=SURFACE_OF_REVOLUTION('',#111,#105);
#100=SURFACE_OF_REVOLUTION('',#112,#106);
#101=SURFACE_OF_REVOLUTION('',#113,#107);
#102=SURFACE_OF_REVOLUTION('',#114,#108);
#103=AXIS1_PLACEMENT('',#466,#371);
#104=AXIS1_PLACEMENT('',#475,#374);
#105=AXIS1_PLACEMENT('',#484,#377);
#106=AXIS1_PLACEMENT('',#496,#384);
#107=AXIS1_PLACEMENT('',#505,#387);
#108=AXIS1_PLACEMENT('',#514,#390);
#109=B_SPLINE_CURVE_WITH_KNOTS('',5,(#460,#461,#462,#463,#464,#465),
 .UNSPECIFIED.,.F.,.F.,(6,6),(0.,1.),.UNSPECIFIED.);
#110=B_SPLINE_CURVE_WITH_KNOTS('',5,(#469,#470,#471,#472,#473,#474),
 .UNSPECIFIED.,.F.,.F.,(6,6),(0.,1.),.UNSPECIFIED.);
#111=B_SPLINE_CURVE_WITH_KNOTS('',5,(#478,#479,#480,#481,#482,#483),
 .UNSPECIFIED.,.F.,.F.,(6,6),(0.,1.),.UNSPECIFIED.);
#112=B_SPLINE_CURVE_WITH_KNOTS('',5,(#490,#491,#492,#493,#494,#495),
 .UNSPECIFIED.,.F.,.F.,(6,6),(0.,1.),.UNSPECIFIED.);
#113=B_SPLINE_CURVE_WITH_KNOTS('',5,(#499,#500,#501,#502,#503,#504),
 .UNSPECIFIED.,.F.,.F.,(6,6),(0.,1.),.UNSPECIFIED.);
#114=B_SPLINE_CURVE_WITH_KNOTS('',5,(#508,#509,#510,#511,#512,#513),
 .UNSPECIFIED.,.F.,.F.,(6,6),(0.,1.),.UNSPECIFIED.);
#115=FACE_BOUND('',#161,.T.);
#116=FACE_BOUND('',#162,.T.);
#117=FACE_BOUND('',#163,.T.);
#118=FACE_BOUND('',#164,.T.);
#119=FACE_BOUND('',#165,.T.);
#120=FACE_BOUND('',#166,.T.);
#121=FACE_BOUND('',#167,.T.);
#122=FACE_BOUND('',#168,.T.);
#123=FACE_BOUND('',#169,.T.);
#124=FACE_BOUND('',#170,.T.);
#125=FACE_BOUND('',#171,.T.);
#126=FACE_BOUND('',#172,.T.);
#127=FACE_BOUND('',#173,.T.);
#128=FACE_BOUND('',#174,.T.);
#129=FACE_BOUND('',#175,.T.);
#130=FACE_BOUND('',#176,.T.);
#131=FACE_BOUND('',#178,.T.);
#132=FACE_BOUND('',#179,.T.);
#133=FACE_BOUND('',#180,.T.);
#134=FACE_BOUND('',#181,.T.);
#135=FACE_BOUND('',#182,.T.);
#136=FACE_BOUND('',#183,.T.);
#137=FACE_BOUND('',#184,.T.);
#138=FACE_BOUND('',#185,.T.);
#139=FACE_BOUND('',#186,.T.);
#140=FACE_BOUND('',#187,.T.);
#141=FACE_BOUND('',#188,.T.);
#142=FACE_BOUND('',#189,.T.);
#143=FACE_BOUND('',#190,.T.);
#144=FACE_BOUND('',#191,.T.);
#145=FACE_BOUND('',#192,.T.);
#146=FACE_BOUND('',#193,.T.);
#147=FACE_BOUND('',#194,.T.);
#148=FACE_BOUND('',#195,.T.);
#149=FACE_BOUND('',#196,.T.);
#150=FACE_BOUND('',#197,.T.);
#151=FACE_BOUND('',#198,.T.);
#152=FACE_BOUND('',#199,.T.);
#153=FACE_BOUND('',#200,.T.);
#154=FACE_BOUND('',#31,.T.);
#155=FACE_BOUND('',#201,.T.);
#156=FACE_BOUND('',#202,.T.);
#157=FACE_BOUND('',#203,.T.);
#158=FACE_BOUND('',#204,.T.);
#159=FACE_BOUND('',#205,.T.);
#160=FACE_BOUND('',#206,.T.);
#161=EDGE_LOOP('',(#207));
#162=EDGE_LOOP('',(#208));
#163=EDGE_LOOP('',(#209));
#164=EDGE_LOOP('',(#210));
#165=EDGE_LOOP('',(#211));
#166=EDGE_LOOP('',(#212));
#167=EDGE_LOOP('',(#213));
#168=EDGE_LOOP('',(#214));
#169=EDGE_LOOP('',(#215));
#170=EDGE_LOOP('',(#216));
#171=EDGE_LOOP('',(#217));
#172=EDGE_LOOP('',(#218));
#173=EDGE_LOOP('',(#219));
#174=EDGE_LOOP('',(#220));
#175=EDGE_LOOP('',(#221));
#176=EDGE_LOOP('',(#222));
#177=EDGE_LOOP('',(#223));
#178=EDGE_LOOP('',(#224));
#179=EDGE_LOOP('',(#225));
#180=EDGE_LOOP('',(#226));
#181=EDGE_LOOP('',(#227));
#182=EDGE_LOOP('',(#228));
#183=EDGE_LOOP('',(#229));
#184=EDGE_LOOP('',(#230));
#185=EDGE_LOOP('',(#231));
#186=EDGE_LOOP('',(#232));
#187=EDGE_LOOP('',(#233));
#188=EDGE_LOOP('',(#234));
#189=EDGE_LOOP('',(#235));
#190=EDGE_LOOP('',(#236));
#191=EDGE_LOOP('',(#237));
#192=EDGE_LOOP('',(#238));
#193=EDGE_LOOP('',(#239));
#194=EDGE_LOOP('',(#240));
#195=EDGE_LOOP('',(#241));
#196=EDGE_LOOP('',(#242));
#197=EDGE_LOOP('',(#243));
#198=EDGE_LOOP('',(#244));
#199=EDGE_LOOP('',(#245));
#200=EDGE_LOOP('',(#246));
#201=EDGE_LOOP('',(#247));
#202=EDGE_LOOP('',(#248));
#203=EDGE_LOOP('',(#249));
#204=EDGE_LOOP('',(#250));
#205=EDGE_LOOP('',(#251));
#206=EDGE_LOOP('',(#252));
#207=ORIENTED_EDGE('',*,*,#277,.T.);
#208=ORIENTED_EDGE('',*,*,#278,.T.);
#209=ORIENTED_EDGE('',*,*,#279,.T.);
#210=ORIENTED_EDGE('',*,*,#277,.F.);
#211=ORIENTED_EDGE('',*,*,#280,.T.);
#212=ORIENTED_EDGE('',*,*,#279,.F.);
#213=ORIENTED_EDGE('',*,*,#281,.T.);
#214=ORIENTED_EDGE('',*,*,#280,.F.);
#215=ORIENTED_EDGE('',*,*,#282,.F.);
#216=ORIENTED_EDGE('',*,*,#281,.F.);
#217=ORIENTED_EDGE('',*,*,#283,.F.);
#218=ORIENTED_EDGE('',*,*,#282,.T.);
#219=ORIENTED_EDGE('',*,*,#284,.F.);
#220=ORIENTED_EDGE('',*,*,#283,.T.);
#221=ORIENTED_EDGE('',*,*,#278,.F.);
#222=ORIENTED_EDGE('',*,*,#284,.T.);
#223=ORIENTED_EDGE('',*,*,#285,.T.);
#224=ORIENTED_EDGE('',*,*,#286,.T.);
#225=ORIENTED_EDGE('',*,*,#285,.F.);
#226=ORIENTED_EDGE('',*,*,#287,.T.);
#227=ORIENTED_EDGE('',*,*,#286,.F.);
#228=ORIENTED_EDGE('',*,*,#288,.T.);
#229=ORIENTED_EDGE('',*,*,#287,.F.);
#230=ORIENTED_EDGE('',*,*,#289,.T.);
#231=ORIENTED_EDGE('',*,*,#288,.F.);
#232=ORIENTED_EDGE('',*,*,#290,.T.);
#233=ORIENTED_EDGE('',*,*,#289,.F.);
#234=ORIENTED_EDGE('',*,*,#291,.T.);
#235=ORIENTED_EDGE('',*,*,#290,.F.);
#236=ORIENTED_EDGE('',*,*,#292,.T.);
#237=ORIENTED_EDGE('',*,*,#293,.T.);
#238=ORIENTED_EDGE('',*,*,#294,.T.);
#239=ORIENTED_EDGE('',*,*,#292,.F.);
#240=ORIENTED_EDGE('',*,*,#295,.T.);
#241=ORIENTED_EDGE('',*,*,#293,.F.);
#242=ORIENTED_EDGE('',*,*,#294,.F.);
#243=ORIENTED_EDGE('',*,*,#291,.F.);
#244=ORIENTED_EDGE('',*,*,#296,.T.);
#245=ORIENTED_EDGE('',*,*,#297,.T.);
#246=ORIENTED_EDGE('',*,*,#298,.T.);
#247=ORIENTED_EDGE('',*,*,#299,.T.);
#248=ORIENTED_EDGE('',*,*,#298,.F.);
#249=ORIENTED_EDGE('',*,*,#295,.F.);
#250=ORIENTED_EDGE('',*,*,#296,.F.);
#251=ORIENTED_EDGE('',*,*,#297,.F.);
#252=ORIENTED_EDGE('',*,*,#299,.F.);
#253=VERTEX_POINT('',#457);
#254=VERTEX_POINT('',#459);
#255=VERTEX_POINT('',#468);
#256=VERTEX_POINT('',#477);
#257=VERTEX_POINT('',#486);
#258=VERTEX_POINT('',#489);
#259=VERTEX_POINT('',#498);
#260=VERTEX_POINT('',#507);
#261=VERTEX_POINT('',#517);
#262=VERTEX_POINT('',#520);
#263=VERTEX_POINT('',#523);
#264=VERTEX_POINT('',#526);
#265=VERTEX_POINT('',#529);
#266=VERTEX_POINT('',#532);
#267=VERTEX_POINT('',#535);
#268=VERTEX_POINT('',#538);
#269=VERTEX_POINT('',#540);
#270=VERTEX_POINT('',#543);
#271=VERTEX_POINT('',#546);
#272=VERTEX_POINT('',#550);
#273=VERTEX_POINT('',#552);
#274=VERTEX_POINT('',#555);
#275=VERTEX_POINT('',#556);
#276=VERTEX_POINT('',#559);
#277=EDGE_CURVE('',#253,#253,#300,.T.);
#278=EDGE_CURVE('',#254,#254,#301,.T.);
#279=EDGE_CURVE('',#255,#255,#302,.T.);
#280=EDGE_CURVE('',#256,#256,#303,.T.);
#281=EDGE_CURVE('',#257,#257,#304,.T.);
#282=EDGE_CURVE('',#258,#258,#305,.T.);
#283=EDGE_CURVE('',#259,#259,#306,.T.);
#284=EDGE_CURVE('',#260,#260,#307,.T.);
#285=EDGE_CURVE('',#261,#261,#308,.T.);
#286=EDGE_CURVE('',#262,#262,#309,.T.);
#287=EDGE_CURVE('',#263,#263,#310,.T.);
#288=EDGE_CURVE('',#264,#264,#311,.T.);
#289=EDGE_CURVE('',#265,#265,#312,.T.);
#290=EDGE_CURVE('',#266,#266,#313,.T.);
#291=EDGE_CURVE('',#267,#267,#314,.T.);
#292=EDGE_CURVE('',#268,#268,#315,.T.);
#293=EDGE_CURVE('',#269,#269,#316,.T.);
#294=EDGE_CURVE('',#270,#270,#317,.T.);
#295=EDGE_CURVE('',#271,#271,#318,.T.);
#296=EDGE_CURVE('',#272,#272,#319,.T.);
#297=EDGE_CURVE('',#273,#273,#320,.T.);
#298=EDGE_CURVE('',#274,#274,#321,.T.);
#299=EDGE_CURVE('',#276,#276,#322,.T.);
#300=CIRCLE('',#324,20.9115343476928);
#301=CIRCLE('',#325,15.668910082556);
#302=CIRCLE('',#326,20.9429449972955);
#303=CIRCLE('',#327,16.);
#304=CIRCLE('',#328,14.5358255375809);
#305=CIRCLE('',#330,9.05661338138536);
#306=CIRCLE('',#331,8.98373917446853);
#307=CIRCLE('',#332,14.1705669341143);
#308=CIRCLE('',#334,8.2);
#309=CIRCLE('',#336,14.3);
#310=CIRCLE('',#338,15.585);
#311=CIRCLE('',#340,20.775);
#312=CIRCLE('',#342,20.775);
#313=CIRCLE('',#344,20.442902132486);
#314=CIRCLE('',#346,15.332097867514);
#315=CIRCLE('',#348,15.);
#316=CIRCLE('',#349,16.);
#317=CIRCLE('',#351,15.);
#318=CIRCLE('',#353,16.);
#319=CIRCLE('',#356,15.);
#320=CIRCLE('',#357,4.1);
#321=CIRCLE('',#359,3.1);
#322=CIRCLE('',#361,3.1);
#323=AXIS2_PLACEMENT_3D('',#455,#365,#366);
#324=AXIS2_PLACEMENT_3D('',#456,#367,#368);
#325=AXIS2_PLACEMENT_3D('',#458,#369,#370);
#326=AXIS2_PLACEMENT_3D('',#467,#372,#373);
#327=AXIS2_PLACEMENT_3D('',#476,#375,#376);
#328=AXIS2_PLACEMENT_3D('',#485,#378,#379);
#329=AXIS2_PLACEMENT_3D('',#487,#380,#381);
#330=AXIS2_PLACEMENT_3D('',#488,#382,#383);
#331=AXIS2_PLACEMENT_3D('',#497,#385,#386);
#332=AXIS2_PLACEMENT_3D('',#506,#388,#389);
#333=AXIS2_PLACEMENT_3D('',#515,#391,#392);
#334=AXIS2_PLACEMENT_3D('',#516,#393,#394);
#335=AXIS2_PLACEMENT_3D('',#518,#395,#396);
#336=AXIS2_PLACEMENT_3D('',#519,#397,#398);
#337=AXIS2_PLACEMENT_3D('',#521,#399,#400);
#338=AXIS2_PLACEMENT_3D('',#522,#401,#402);
#339=AXIS2_PLACEMENT_3D('',#524,#403,#404);
#340=AXIS2_PLACEMENT_3D('',#525,#405,#406);
#341=AXIS2_PLACEMENT_3D('',#527,#407,#408);
#342=AXIS2_PLACEMENT_3D('',#528,#409,#410);
#343=AXIS2_PLACEMENT_3D('',#530,#411,#412);
#344=AXIS2_PLACEMENT_3D('',#531,#413,#414);
#345=AXIS2_PLACEMENT_3D('',#533,#415,#416);
#346=AXIS2_PLACEMENT_3D('',#534,#417,#418);
#347=AXIS2_PLACEMENT_3D('',#536,#419,#420);
#348=AXIS2_PLACEMENT_3D('',#537,#421,#422);
#349=AXIS2_PLACEMENT_3D('',#539,#423,#424);
#350=AXIS2_PLACEMENT_3D('',#541,#425,#426);
#351=AXIS2_PLACEMENT_3D('',#542,#427,#428);
#352=AXIS2_PLACEMENT_3D('',#544,#429,#430);
#353=AXIS2_PLACEMENT_3D('',#545,#431,#432);
#354=AXIS2_PLACEMENT_3D('',#547,#433,#434);
#355=AXIS2_PLACEMENT_3D('',#548,#435,#436);
#356=AXIS2_PLACEMENT_3D('',#549,#437,#438);
#357=AXIS2_PLACEMENT_3D('',#551,#439,#440);
#358=AXIS2_PLACEMENT_3D('',#553,#441,#442);
#359=AXIS2_PLACEMENT_3D('',#554,#443,#444);
#360=AXIS2_PLACEMENT_3D('',#557,#445,#446);
#361=AXIS2_PLACEMENT_3D('',#558,#447,#448);
#362=AXIS2_PLACEMENT_3D('',#560,#449,#450);
#363=AXIS2_PLACEMENT_3D('',#561,#451,#452);
#364=AXIS2_PLACEMENT_3D('',#562,#453,#454);
#365=DIRECTION('',(0.,0.,1.));
#366=DIRECTION('',(1.,0.,0.));
#367=DIRECTION('',(0.,0.,1.));
#368=DIRECTION('',(-1.,0.,0.));
#369=DIRECTION('',(0.,0.,-1.));
#370=DIRECTION('',(-1.,0.,0.));
#371=DIRECTION('',(0.,0.,-1.));
#372=DIRECTION('',(0.,0.,1.));
#373=DIRECTION('',(-1.,0.,0.));
#374=DIRECTION('',(0.,0.,-1.));
#375=DIRECTION('',(0.,0.,1.));
#376=DIRECTION('',(-1.,0.,0.));
#377=DIRECTION('',(0.,0.,-1.));
#378=DIRECTION('',(0.,0.,1.));
#379=DIRECTION('',(-1.,0.,0.));
#380=DIRECTION('',(0.,0.,1.));
#381=DIRECTION('',(1.,0.,0.));
#382=DIRECTION('',(0.,0.,-1.));
#383=DIRECTION('',(-1.,0.,0.));
#384=DIRECTION('',(0.,0.,-1.));
#385=DIRECTION('',(0.,0.,-1.));
#386=DIRECTION('',(-1.,0.,0.));
#387=DIRECTION('',(0.,0.,-1.));
#388=DIRECTION('',(0.,0.,-1.));
#389=DIRECTION('',(-1.,0.,0.));
#390=DIRECTION('',(0.,0.,-1.));
#391=DIRECTION('',(0.,0.,-1.));
#392=DIRECTION('',(-1.,0.,0.));
#393=DIRECTION('',(0.,0.,-1.));
#394=DIRECTION('',(-1.,0.,0.));
#395=DIRECTION('',(0.,0.,-1.));
#396=DIRECTION('',(-1.,0.,0.));
#397=DIRECTION('',(0.,0.,-1.));
#398=DIRECTION('',(-1.,0.,0.));
#399=DIRECTION('',(0.,0.,-1.));
#400=DIRECTION('',(-1.,0.,-9.63544085049605E-17));
#401=DIRECTION('',(0.,0.,-1.));
#402=DIRECTION('',(-1.,0.,0.));
#403=DIRECTION('',(0.,0.,-1.));
#404=DIRECTION('',(-1.,0.,0.));
#405=DIRECTION('',(0.,0.,-1.));
#406=DIRECTION('',(-1.,0.,0.));
#407=DIRECTION('',(0.,0.,1.));
#408=DIRECTION('',(1.,0.,1.88063997951135E-17));
#409=DIRECTION('',(0.,0.,-1.));
#410=DIRECTION('',(-1.,0.,0.));
#411=DIRECTION('',(0.,0.,-1.));
#412=DIRECTION('',(-1.,0.,0.));
#413=DIRECTION('',(0.,0.,-1.));
#414=DIRECTION('',(-1.,0.,0.));
#415=DIRECTION('',(0.,0.,-1.));
#416=DIRECTION('',(-1.,0.,0.));
#417=DIRECTION('',(0.,0.,-1.));
#418=DIRECTION('',(1.,0.,0.));
#419=DIRECTION('',(0.,0.,-1.));
#420=DIRECTION('',(-1.,0.,-3.43248817470853E-17));
#421=DIRECTION('',(0.,0.,1.));
#422=DIRECTION('',(-1.,0.,0.));
#423=DIRECTION('',(0.,0.,-1.));
#424=DIRECTION('',(-1.,0.,0.));
#425=DIRECTION('',(0.,0.,-1.));
#426=DIRECTION('',(-1.,0.,0.));
#427=DIRECTION('',(0.,0.,1.));
#428=DIRECTION('',(-1.,0.,0.));
#429=DIRECTION('',(0.,0.,-1.));
#430=DIRECTION('',(-1.,0.,0.));
#431=DIRECTION('',(0.,0.,-1.));
#432=DIRECTION('',(1.,0.,0.));
#433=DIRECTION('',(0.,0.,1.));
#434=DIRECTION('',(1.,0.,0.));
#435=DIRECTION('',(0.,0.,-1.));
#436=DIRECTION('',(-1.,0.,0.));
#437=DIRECTION('',(0.,0.,1.));
#438=DIRECTION('',(1.,0.,0.));
#439=DIRECTION('',(0.,0.,-1.));
#440=DIRECTION('',(1.,0.,0.));
#441=DIRECTION('',(0.,0.,1.));
#442=DIRECTION('',(1.,0.,0.));
#443=DIRECTION('',(0.,0.,1.));
#444=DIRECTION('',(-1.,0.,0.));
#445=DIRECTION('',(0.,0.,1.));
#446=DIRECTION('',(1.,0.,1.513622671697E-17));
#447=DIRECTION('',(0.,0.,1.));
#448=DIRECTION('',(1.,0.,0.));
#449=DIRECTION('',(0.,0.,-1.));
#450=DIRECTION('',(-1.,0.,0.));
#451=DIRECTION('',(0.,0.,-1.));
#452=DIRECTION('',(-1.,0.,4.78544407166016E-17));
#453=DIRECTION('',(0.,0.,1.));
#454=DIRECTION('',(1.,0.,-6.22570482854801E-17));
#455=CARTESIAN_POINT('',(0.,0.,0.));
#456=CARTESIAN_POINT('',(0.,0.,-33.6583898266733));
#457=CARTESIAN_POINT('',(-20.9115343476928,0.,-33.6583898266733));
#458=CARTESIAN_POINT('',(0.,0.,-28.7298664885994));
#459=CARTESIAN_POINT('',(-15.668910082556,0.,-28.7298664885994));
#460=CARTESIAN_POINT('',(15.668910082556,0.,-28.7298664885994));
#461=CARTESIAN_POINT('',(16.7084352257397,-1.58928500010028E-31,-29.7250712506234));
#462=CARTESIAN_POINT('',(17.7541052333687,-2.15994245653365E-31,-30.7138638625336));
#463=CARTESIAN_POINT('',(18.8037120160555,3.95207316618577E-32,-31.6984452772776));
#464=CARTESIAN_POINT('',(19.8564160331795,-7.70403498519236E-33,-32.6797209162411));
#465=CARTESIAN_POINT('',(20.9115343476928,0.,-33.6583898266733));
#466=CARTESIAN_POINT('',(0.,0.,0.));
#467=CARTESIAN_POINT('',(0.,0.,-35.0714766619256));
#468=CARTESIAN_POINT('',(-20.9429449972955,0.,-35.0714766619256));
#469=CARTESIAN_POINT('',(20.9115343476928,2.16840434497101E-16,-33.6583898266733));
#470=CARTESIAN_POINT('',(20.9166108998534,2.16840434497101E-16,-33.9410322633559));
#471=CARTESIAN_POINT('',(20.9222911972204,2.16840434497101E-16,-34.2236638560123));
#472=CARTESIAN_POINT('',(20.9285743836889,4.33680868994202E-16,-34.506282912851));
#473=CARTESIAN_POINT('',(20.9354594017021,4.33680868994202E-16,-34.7888877417341));
#474=CARTESIAN_POINT('',(20.9429449972955,4.33680868994202E-16,-35.0714766619256));
#475=CARTESIAN_POINT('',(0.,0.,0.));
#476=CARTESIAN_POINT('',(0.,0.,-39.9999999999997));
#477=CARTESIAN_POINT('',(-16.,0.,-39.9999999999997));
#478=CARTESIAN_POINT('',(20.9429449972955,2.16840434497101E-16,-35.0714766619256));
#479=CARTESIAN_POINT('',(19.9402850452258,2.16840434497101E-16,-36.0429755257304));
#480=CARTESIAN_POINT('',(18.942756427087,2.16840434497101E-16,-37.0197862383608));
#481=CARTESIAN_POINT('',(17.9518397245782,-2.51760208391458E-16,-38.0032770117543));
#482=CARTESIAN_POINT('',(16.9693207107834,-2.51760208391458E-16,-38.9952850945588));
#483=CARTESIAN_POINT('',(16.,-2.51760208391458E-16,-39.9999999999997));
#484=CARTESIAN_POINT('',(0.,0.,0.));
#485=CARTESIAN_POINT('',(0.,0.,-39.9999999999997));
#486=CARTESIAN_POINT('',(-14.5358255375809,0.,-39.9999999999997));
#487=CARTESIAN_POINT('',(16.0000000000001,0.,-39.9999999999997));
#488=CARTESIAN_POINT('',(0.,0.,-35.0714766619257));
#489=CARTESIAN_POINT('',(-9.05661338138536,0.,-35.0714766619257));
#490=CARTESIAN_POINT('',(14.535825537581,3.1712913545201E-15,-39.9999999999997));
#491=CARTESIAN_POINT('',(13.4386674601295,3.1712913545201E-15,-39.0157586786023));
#492=CARTESIAN_POINT('',(12.3419168639247,3.1712913545201E-15,-38.0310624625469));
#493=CARTESIAN_POINT('',(11.2457655903551,2.46993220228841E-30,-37.0457010993725));
#494=CARTESIAN_POINT('',(10.1503331027466,3.69320039025185E-31,-36.0595364873977));
#495=CARTESIAN_POINT('',(9.05661338138536,0.,-35.0714766619257));
#496=CARTESIAN_POINT('',(0.,0.,0.));
#497=CARTESIAN_POINT('',(0.,0.,-33.6583898266737));
#498=CARTESIAN_POINT('',(-8.98373917446853,0.,-33.6583898266737));
#499=CARTESIAN_POINT('',(9.05661338138536,-2.71050543121376E-17,-35.0714766619257));
#500=CARTESIAN_POINT('',(9.03931072380842,-2.71050543121376E-17,-34.7890083994026));
#501=CARTESIAN_POINT('',(9.02335799991931,-2.71050543121376E-17,-34.5064574519507));
#502=CARTESIAN_POINT('',(9.00877023291756,-1.0842021724855E-16,-34.2238318381051));
#503=CARTESIAN_POINT('',(8.99556041123165,-1.0842021724855E-16,-33.9411398610383));
#504=CARTESIAN_POINT('',(8.98373917446853,-1.0842021724855E-16,-33.6583898266737));
#505=CARTESIAN_POINT('',(0.,0.,0.));
#506=CARTESIAN_POINT('',(0.,0.,-28.7298664885995));
#507=CARTESIAN_POINT('',(-14.1705669341143,0.,-28.7298664885995));
#508=CARTESIAN_POINT('',(8.98373917446849,0.,-33.6583898266737));
#509=CARTESIAN_POINT('',(10.0018089932156,-1.87473517005121E-32,-32.6527455262333));
#510=CARTESIAN_POINT('',(11.0358012781304,-4.30810547259777E-32,-31.663165447514));
#511=CARTESIAN_POINT('',(12.075957004529,-1.54784165741053E-31,-30.680400742206));
#512=CARTESIAN_POINT('',(13.1214983780048,0.,-29.7032059132938));
#513=CARTESIAN_POINT('',(14.1705669341143,0.,-28.7298664885995));
#514=CARTESIAN_POINT('',(0.,0.,0.));
#515=CARTESIAN_POINT('',(14.1705669341143,0.,-28.7298664885994));
#516=CARTESIAN_POINT('',(0.,0.,-33.4));
#517=CARTESIAN_POINT('',(-8.2,0.,-33.4));
#518=CARTESIAN_POINT('',(1.99840144432528E-15,0.,-33.4));
#519=CARTESIAN_POINT('',(0.,0.,-39.5));
#520=CARTESIAN_POINT('',(-14.3,0.,-39.5));
#521=CARTESIAN_POINT('',(0.,0.,-33.4));
#522=CARTESIAN_POINT('',(0.,0.,-39.5));
#523=CARTESIAN_POINT('',(-15.585,0.,-39.5));
#524=CARTESIAN_POINT('',(14.3,0.,-39.5));
#525=CARTESIAN_POINT('',(0.,0.,-34.7442412068496));
#526=CARTESIAN_POINT('',(-20.775,0.,-34.7442412068496));
#527=CARTESIAN_POINT('',(0.,0.,-39.5));
#528=CARTESIAN_POINT('',(0.,0.,-23.5));
#529=CARTESIAN_POINT('',(-20.775,0.,-23.5));
#530=CARTESIAN_POINT('',(0.,0.,-51.9904418359806));
#531=CARTESIAN_POINT('',(0.,0.,-21.7081602522735));
#532=CARTESIAN_POINT('',(-20.442902132486,0.,-21.7081602522735));
#533=CARTESIAN_POINT('',(0.,0.,-23.5));
#534=CARTESIAN_POINT('',(0.,0.,-8.39405994980441));
#535=CARTESIAN_POINT('',(15.332097867514,0.,-8.39405994980441));
#536=CARTESIAN_POINT('',(0.,0.,-21.7081602522735));
#537=CARTESIAN_POINT('',(0.,0.,0.904554884989684));
#538=CARTESIAN_POINT('',(-15.,0.,0.904554884989684));
#539=CARTESIAN_POINT('',(0.,0.,2.00000000000002));
#540=CARTESIAN_POINT('',(-16.,0.,2.00000000000002));
#541=CARTESIAN_POINT('',(0.,0.,0.904554884989684));
#542=CARTESIAN_POINT('',(0.,0.,-6.60222020207791));
#543=CARTESIAN_POINT('',(-15.,0.,-6.60222020207791));
#544=CARTESIAN_POINT('',(0.,0.,29.75));
#545=CARTESIAN_POINT('',(-2.22044604925031E-16,0.,61.));
#546=CARTESIAN_POINT('',(16.,0.,61.));
#547=CARTESIAN_POINT('',(-2.22044604925031E-16,0.,-6.));
#548=CARTESIAN_POINT('',(0.,0.,-6.60222020207791));
#549=CARTESIAN_POINT('',(-2.22044604925031E-16,0.,62.));
#550=CARTESIAN_POINT('',(15.,0.,62.));
#551=CARTESIAN_POINT('',(2.16840434497101E-16,0.,62.));
#552=CARTESIAN_POINT('',(4.1,0.,62.));
#553=CARTESIAN_POINT('',(1.66533453693773E-15,-3.5527136788005E-15,62.));
#554=CARTESIAN_POINT('',(2.16840434497101E-16,0.,-20.5));
#555=CARTESIAN_POINT('',(-3.1,0.,-20.5));
#556=CARTESIAN_POINT('',(2.16840434497101E-16,0.,-21.6283077262252));
#557=CARTESIAN_POINT('',(2.16840434497101E-16,0.,-20.5));
#558=CARTESIAN_POINT('',(2.16840434497101E-16,0.,61.));
#559=CARTESIAN_POINT('',(3.1,0.,61.));
#560=CARTESIAN_POINT('',(2.16840434497101E-16,0.,49.5));
#561=CARTESIAN_POINT('',(-2.22044604925031E-16,0.,62.));
#562=CARTESIAN_POINT('',(2.16840434497101E-16,0.,61.));
#563=MECHANICAL_DESIGN_GEOMETRIC_PRESENTATION_REPRESENTATION('',(#48,#49),
#564);
#564=(
GEOMETRIC_REPRESENTATION_CONTEXT(3)
GLOBAL_UNCERTAINTY_ASSIGNED_CONTEXT((#565))
GLOBAL_UNIT_ASSIGNED_CONTEXT((#571,#567,#566))
REPRESENTATION_CONTEXT('32N4R042B32_SSE09_C_115009731ndi000_00_SIM',
'TOP_LEVEL_ASSEMBLY_PART')
);
#565=UNCERTAINTY_MEASURE_WITH_UNIT(LENGTH_MEASURE(2.E-5),#571,
'DISTANCE_ACCURACY_VALUE','Maximum Tolerance applied to model');
#566=(
NAMED_UNIT(*)
SI_UNIT($,.STERADIAN.)
SOLID_ANGLE_UNIT()
);
#567=(
CONVERSION_BASED_UNIT('DEGREE',#569)
NAMED_UNIT(#568)
PLANE_ANGLE_UNIT()
);
#568=DIMENSIONAL_EXPONENTS(0.,0.,0.,0.,0.,0.,0.);
#569=PLANE_ANGLE_MEASURE_WITH_UNIT(PLANE_ANGLE_MEASURE(0.0174532925),#570);
#570=(
NAMED_UNIT(*)
PLANE_ANGLE_UNIT()
SI_UNIT($,.RADIAN.)
);
#571=(
LENGTH_UNIT()
NAMED_UNIT(*)
SI_UNIT(.MILLI.,.METRE.)
);
ENDSEC;
END-ISO-10303-21;
