  0
SECTION
  2
HEADER
  9
$ACADVER
  1
AC1018
  9
$ACADMAINTVER
 70
   104
  9
$DWGCODEPAGE
  3
ANSI_1250
  9
$LASTSAVEDBY
  1
hm1535
  9
$INSBASE
 10
0.0
 20
0.0
 30
0.0
  9
$EXTMIN
 10
225.581991
 20
21.404126
 30
0.0
  9
$EXTMAX
 10
587.478648
 20
327.9054816666668
 30
0.0
  9
$LIMMIN
 10
-0.5
 20
-0.5
  9
$LIMMAX
 10
5.0
 20
5.0
  9
$ORTHOMODE
 70
     0
  9
$REGENMODE
 70
     1
  9
$FILLMODE
 70
     1
  9
$QTEXTMODE
 70
     0
  9
$MIRRTEXT
 70
     1
  9
$LTSCALE
 40
1.0
  9
$ATTMODE
 70
     1
  9
$TEXTSIZE
 40
0.2
  9
$TRACEWID
 40
0.05
  9
$TEXTSTYLE
  7
Standard
  9
$CLAYER
  8
0
  9
$CELTYPE
  6
ByLayer
  9
$CECOLOR
 62
   256
  9
$CELTSCALE
 40
1.0
  9
$DISPSILH
 70
     0
  9
$DIMSCALE
 40
1.0
  9
$DIMASZ
 40
0.18
  9
$DIMEXO
 40
0.0625
  9
$DIMDLI
 40
0.38
  9
$DIMRND
 40
0.0
  9
$DIMDLE
 40
0.0
  9
$DIMEXE
 40
0.18
  9
$DIMTP
 40
0.0
  9
$DIMTM
 40
0.0
  9
$DIMTXT
 40
0.18
  9
$DIMCEN
 40
0.09
  9
$DIMTSZ
 40
0.0
  9
$DIMTOL
 70
     0
  9
$DIMLIM
 70
     0
  9
$DIMTIH
 70
     1
  9
$DIMTOH
 70
     1
  9
$DIMSE1
 70
     0
  9
$DIMSE2
 70
     0
  9
$DIMTAD
 70
     0
  9
$DIMZIN
 70
     0
  9
$DIMBLK
  1

  9
$DIMASO
 70
     1
  9
$DIMSHO
 70
     1
  9
$DIMPOST
  1

  9
$DIMAPOST
  1

  9
$DIMALT
 70
     0
  9
$DIMALTD
 70
     2
  9
$DIMALTF
 40
25.4
  9
$DIMLFAC
 40
1.0
  9
$DIMTOFL
 70
     0
  9
$DIMTVP
 40
0.0
  9
$DIMTIX
 70
     0
  9
$DIMSOXD
 70
     0
  9
$DIMSAH
 70
     0
  9
$DIMBLK1
  1

  9
$DIMBLK2
  1

  9
$DIMSTYLE
  2
Standard
  9
$DIMCLRD
 70
     0
  9
$DIMCLRE
 70
     0
  9
$DIMCLRT
 70
     0
  9
$DIMTFAC
 40
1.0
  9
$DIMGAP
 40
0.09
  9
$DIMJUST
 70
     0
  9
$DIMSD1
 70
     0
  9
$DIMSD2
 70
     0
  9
$DIMTOLJ
 70
     1
  9
$DIMTZIN
 70
     0
  9
$DIMALTZ
 70
     0
  9
$DIMALTTZ
 70
     0
  9
$DIMUPT
 70
     0
  9
$DIMDEC
 70
     4
  9
$DIMTDEC
 70
     4
  9
$DIMALTU
 70
     2
  9
$DIMALTTD
 70
     2
  9
$DIMTXSTY
  7
Standard
  9
$DIMAUNIT
 70
     0
  9
$DIMADEC
 70
     0
  9
$DIMALTRND
 40
0.0
  9
$DIMAZIN
 70
     0
  9
$DIMDSEP
 70
    46
  9
$DIMATFIT
 70
     3
  9
$DIMFRAC
 70
     0
  9
$DIMLDRBLK
  1

  9
$DIMLUNIT
 70
     2
  9
$DIMLWD
 70
    -2
  9
$DIMLWE
 70
    -2
  9
$DIMTMOVE
 70
     0
  9
$LUNITS
 70
     2
  9
$LUPREC
 70
     2
  9
$SKETCHINC
 40
0.1
  9
$FILLETRAD
 40
0.5
  9
$AUNITS
 70
     0
  9
$AUPREC
 70
     0
  9
$MENU
  1
.
  9
$ELEVATION
 40
0.0
  9
$PELEVATION
 40
0.0
  9
$THICKNESS
 40
0.0
  9
$LIMCHECK
 70
     0
  9
$CHAMFERA
 40
0.0
  9
$CHAMFERB
 40
0.0
  9
$CHAMFERC
 40
0.0
  9
$CHAMFERD
 40
0.0
  9
$SKPOLY
 70
     0
  9
$TDCREATE
 40
2458877.531192130
  9
$TDUCREATE
 40
2458877.489532222
  9
$TDUPDATE
 40
2458877.532372685
  9
$TDUUPDATE
 40
2458877.490706019
  9
$TDINDWG
 40
0.0008217708
  9
$TDUSRTIMER
 40
0.0008217708
  9
$USRTIMER
 70
     1
  9
$ANGBASE
 50
0.0
  9
$ANGDIR
 70
     0
  9
$PDMODE
 70
     0
  9
$PDSIZE
 40
0.0
  9
$PLINEWID
 40
0.0
  9
$SPLFRAME
 70
     0
  9
$SPLINETYPE
 70
     6
  9
$SPLINESEGS
 70
     8
  9
$HANDSEED
  5
3E9
  9
$SURFTAB1
 70
     6
  9
$SURFTAB2
 70
     6
  9
$SURFTYPE
 70
     6
  9
$SURFU
 70
     6
  9
$SURFV
 70
     6
  9
$UCSBASE
  2

  9
$UCSNAME
  2

  9
$UCSORG
 10
330.081991
 20
281.6652180000001
 30
0.0
  9
$UCSXDIR
 10
1.0
 20
0.0
 30
0.0
  9
$UCSYDIR
 10
0.0
 20
1.0
 30
0.0
  9
$UCSORTHOREF
  2

  9
$UCSORTHOVIEW
 70
     0
  9
$UCSORGTOP
 10
0.0
 20
0.0
 30
0.0
  9
$UCSORGBOTTOM
 10
0.0
 20
0.0
 30
0.0
  9
$UCSORGLEFT
 10
0.0
 20
0.0
 30
0.0
  9
$UCSORGRIGHT
 10
0.0
 20
0.0
 30
0.0
  9
$UCSORGFRONT
 10
0.0
 20
0.0
 30
0.0
  9
$UCSORGBACK
 10
0.0
 20
0.0
 30
0.0
  9
$PUCSBASE
  2

  9
$PUCSNAME
  2

  9
$PUCSORG
 10
0.0
 20
0.0
 30
0.0
  9
$PUCSXDIR
 10
1.0
 20
0.0
 30
0.0
  9
$PUCSYDIR
 10
0.0
 20
1.0
 30
0.0
  9
$PUCSORTHOREF
  2

  9
$PUCSORTHOVIEW
 70
     0
  9
$PUCSORGTOP
 10
0.0
 20
0.0
 30
0.0
  9
$PUCSORGBOTTOM
 10
0.0
 20
0.0
 30
0.0
  9
$PUCSORGLEFT
 10
0.0
 20
0.0
 30
0.0
  9
$PUCSORGRIGHT
 10
0.0
 20
0.0
 30
0.0
  9
$PUCSORGFRONT
 10
0.0
 20
0.0
 30
0.0
  9
$PUCSORGBACK
 10
0.0
 20
0.0
 30
0.0
  9
$USERI1
 70
     0
  9
$USERI2
 70
     0
  9
$USERI3
 70
     0
  9
$USERI4
 70
     0
  9
$USERI5
 70
     0
  9
$USERR1
 40
0.0
  9
$USERR2
 40
0.0
  9
$USERR3
 40
0.0
  9
$USERR4
 40
0.0
  9
$USERR5
 40
0.0
  9
$WORLDVIEW
 70
     1
  9
$SHADEDGE
 70
     3
  9
$SHADEDIF
 70
    70
  9
$TILEMODE
 70
     1
  9
$MAXACTVP
 70
    64
  9
$PINSBASE
 10
0.0
 20
0.0
 30
0.0
  9
$PLIMCHECK
 70
     0
  9
$PEXTMIN
 10
-0.5
 20
-0.5
 30
-0.5
  9
$PEXTMAX
 10
5.0
 20
5.0
 30
5.0
  9
$PLIMMIN
 10
-0.5
 20
-0.5
  9
$PLIMMAX
 10
5.0
 20
5.0
  9
$UNITMODE
 70
     0
  9
$VISRETAIN
 70
     1
  9
$PLINEGEN
 70
     0
  9
$PSLTSCALE
 70
     1
  9
$TREEDEPTH
 70
  3020
  9
$CMLSTYLE
  2
Standard
  9
$CMLJUST
 70
     0
  9
$CMLSCALE
 40
1.0
  9
$PROXYGRAPHICS
 70
     1
  9
$MEASUREMENT
 70
     1
  9
$CELWEIGHT
370
    13
  9
$ENDCAPS
280
     0
  9
$JOINSTYLE
280
     0
  9
$LWDISPLAY
290
     0
  9
$INSUNITS
 70
     4
  9
$HYPERLINKBASE
  1

  9
$STYLESHEET
  1

  9
$XEDIT
290
     1
  9
$CEPSNTYPE
380
     0
  9
$PSTYLEMODE
290
     1
  9
$FINGERPRINTGUID
  2
{47C4E7F2-C91C-434C-BF4F-E982F25ADEE9}
  9
$VERSIONGUID
  2
{C70FBF74-7351-9044-987E-5067C94D27F7}
  9
$EXTNAMES
290
     1
  9
$PSVPSCALE
 40
0.0
  9
$OLESTARTUP
290
     0
  9
$SORTENTS
280
   127
  9
$INDEXCTL
280
     0
  9
$HIDETEXT
280
     1
  9
$XCLIPFRAME
290
     0
  9
$HALOGAP
280
     0
  9
$OBSCOLOR
 70
   257
  9
$OBSLTYPE
280
     0
  9
$INTERSECTIONDISPLAY
280
     0
  9
$INTERSECTIONCOLOR
 70
   257
  9
$DIMASSOC
280
     2
  9
$PROJECTNAME
  1

  0
ENDSEC
  0
SECTION
  2
CLASSES
  0
CLASS
  1
ACDBDICTIONARYWDFLT
  2
AcDbDictionaryWithDefault
  3
ObjectDBX Classes
 90
        0
 91
        1
280
     0
281
     0
  0
CLASS
  1
VISUALSTYLE
  2
AcDbVisualStyle
  3
ObjectDBX Classes
 90
     4095
 91
       24
280
     0
281
     0
  0
CLASS
  1
MATERIAL
  2
AcDbMaterial
  3
ObjectDBX Classes
 90
     1153
 91
        3
280
     0
281
     0
  0
CLASS
  1
SCALE
  2
AcDbScale
  3
ObjectDBX Classes
 90
     1153
 91
       33
280
     0
281
     0
  0
CLASS
  1
TABLESTYLE
  2
AcDbTableStyle
  3
ObjectDBX Classes
 90
     4095
 91
        1
280
     0
281
     0
  0
CLASS
  1
MLEADERSTYLE
  2
AcDbMLeaderStyle
  3
ACDB_MLEADERSTYLE_CLASS
 90
     4095
 91
        1
280
     0
281
     0
  0
CLASS
  1
SUN
  2
AcDbSun
  3
SCENEOE
 90
     1153
 91
        0
280
     0
281
     0
  0
CLASS
  1
IMAGEDEF
  2
AcDbRasterImageDef
  3
ISM
 90
        0
 91
        1
280
     0
281
     0
  0
CLASS
  1
IMAGE
  2
AcDbRasterImage
  3
ISM
 90
     2175
 91
        1
280
     0
281
     1
  0
CLASS
  1
IMAGEDEF_REACTOR
  2
AcDbRasterImageDefReactor
  3
ISM
 90
        1
 91
        1
280
     0
281
     0
  0
CLASS
  1
DIMASSOC
  2
AcDbDimAssoc
  3
"AcDbDimAssoc|Product Desc:     AcDim ARX App For Dimension|Company:          Autodesk, Inc.|WEB Address:      www.autodesk.com"
 90
        0
 91
        4
280
     0
281
     0
  0
CLASS
  1
DICTIONARYVAR
  2
AcDbDictionaryVar
  3
ObjectDBX Classes
 90
        0
 91
       11
280
     0
281
     0
  0
CLASS
  1
CELLSTYLEMAP
  2
AcDbCellStyleMap
  3
ObjectDBX Classes
 90
     1152
 91
        3
280
     0
281
     0
  0
CLASS
  1
ACDBSECTIONVIEWSTYLE
  2
AcDbSectionViewStyle
  3
ObjectDBX Classes
 90
     1025
 91
        2
280
     0
281
     0
  0
CLASS
  1
ACDBDETAILVIEWSTYLE
  2
AcDbDetailViewStyle
  3
ObjectDBX Classes
 90
     1025
 91
        2
280
     0
281
     0
  0
CLASS
  1
RASTERVARIABLES
  2
AcDbRasterVariables
  3
ISM
 90
        0
 91
        1
280
     0
281
     0
  0
CLASS
  1
AMGSETTINGSOBJ
  2
AmgSettingsObj
  3
"AcadM|Product Description: AutoCAD Mechanical|Company: Autodesk, Inc."
 90
     1024
 91
        2
280
     0
281
     0
  0
CLASS
  1
ACME_DOCUMENT
  2
AcMeDbDoc
  3
AcMeServices
 90
     1024
 91
        1
280
     0
281
     0
  0
CLASS
  1
ACMESCOPE
  2
AcMeScope
  3
AcMeServices
 90
     1024
 91
        1
280
     0
281
     0
  0
CLASS
  1
ACMECOMMANDHISTORY
  2
AcMeCommandHistory
  3
AcMeServices
 90
     1024
 91
        1
280
     0
281
     0
  0
CLASS
  1
ACIMSYSVARMAN
  2
AcImSysVarManager
  3
AcMeServices
 90
     1024
 91
        3
280
     0
281
     0
  0
CLASS
  1
ACIMINTSYSVAR
  2
AcImIntSysVar
  3
AcMeServices
 90
     1024
 91
        2
280
     0
281
     0
  0
CLASS
  1
ACMESTATEMGR
  2
AcMeStateMgr
  3
AcMeServices
 90
     1024
 91
        1
280
     0
281
     0
  0
CLASS
  1
ACDBENTITYCACHE
  2
AcMeEntityCache
  3
AcMeServices
 90
     1024
 91
        1
280
     0
281
     0
  0
CLASS
  1
ACGREFMASTER
  2
AcGrefMaster
  3
AcAttribServices
 90
     1024
 91
        1
280
     0
281
     0
  0
CLASS
  1
ACME_DATABASE
  2
AcMeDbDatabase
  3
AcMeServices
 90
     1024
 91
        1
280
     0
281
     0
  0
CLASS
  1
ACRFINSADJUSTERMGR
  2
AcRfInsAdjusterMgr
  3
AcMeServices
 90
     1024
 91
        1
280
     0
281
     0
  0
CLASS
  1
ACGREFACADMASTER
  2
AcGrefacadMaster
  3
AcGrefServices
 90
     1024
 91
        1
280
     0
281
     0
  0
CLASS
  1
AMIMASTER
  2
AmiMaster
  3
AmiServices
 90
     1024
 91
        1
280
     0
281
     0
  0
CLASS
  1
AMDTMENUSTATEMGR
  2
AmdtMenuStateMgr
  3
McadcomServices
 90
     1024
 91
        1
280
     0
281
     0
  0
CLASS
  1
AMDTMCOMMENUSTATE
  2
AmdtMcomMenuState
  3
McadcomServices
 90
     1024
 91
        1
280
     0
281
     0
  0
CLASS
  1
MAPIAMMOUDLE
  2
MApiAmModule
  3
MApiAmServices
 90
     1024
 91
        1
280
     0
281
     0
  0
CLASS
  1
ACIMSTRSYSVAR
  2
AcImStrSysVar
  3
AcMeServices
 90
     1024
 91
        5
280
     0
281
     0
  0
CLASS
  1
AMDTAMMENUSTATE
  2
AmdtAmMenuState
  3
DesignerAssemblies_arx
 90
     1024
 91
        1
280
     0
281
     0
  0
CLASS
  1
ACAMPROJECT
  2
AcAmProject
  3
DesignerAssemblies
 90
     1024
 91
        1
280
     0
281
     0
  0
CLASS
  1
ACAMGRCOMPDEF
  2
AcAmGrCompDef
  3
DesignerAssemblies
 90
     1024
 91
        1
280
     0
281
     0
  0
CLASS
  1
ACAMCOMPDEF
  2
AcAmCompDef
  3
DesignerAssemblies
 90
     1024
 91
        1
280
     0
281
     0
  0
CLASS
  1
ACAMCOMPDEFMGR
  2
AcAmCompDefMgr
  3
DesignerAssemblies
 90
     1024
 91
        1
280
     0
281
     0
  0
CLASS
  1
AMCONTEXTMGR
  2
AcAmContextMgr
  3
DesignerAssemblies
 90
     1024
 91
        1
280
     0
281
     0
  0
CLASS
  1
ACAMCONTEXTMODELER
  2
AcAmContextModeler
  3
DesignerAssemblies
 90
     1024
 91
        1
280
     0
281
     0
  0
CLASS
  1
ACMDATADICTIONARY
  2
AcmDataDictionary
  3
"AcmSymBB|Product Description: AutoCAD Mechanical|Company: Autodesk, Inc."
 90
     1024
 91
        1
280
     0
281
     0
  0
CLASS
  1
ACAMGRCOMPDEFSET
  2
AcAmGrCompDefSet
  3
DesignerAssemblies
 90
     1024
 91
        1
280
     0
281
     0
  0
CLASS
  1
AMDTBROWSERDBTAB
  2
AmdtBrowserDbTab
  3
McadcomServices
 90
     1024
 91
        1
280
     0
281
     0
  0
CLASS
  1
CBROWSERAPPOBJECT
  2
CBrowserAppObject
  3
McadcomServices
 90
     1024
 91
        2
280
     0
281
     0
  0
CLASS
  1
DM_PLACEHOLDER
  2
AcDmSelsetPlaceholder
  3
McadcomServices
 90
     1024
 91
        1
280
     0
281
     0
  0
CLASS
  1
ACMSTANDARDISO
  2
AcmStandardISO
  3
"Amdt_StdImp|Product Description: AutoCAD Mechanical|Company: Autodesk, Inc."
 90
     1024
 91
        1
280
     0
281
     0
  0
CLASS
  1
AMDTEDGESTANDARDISO13715
  2
AmdtEdgeStdISO13715
  3
"Amdt_StdImp|Product Description: AutoCAD Mechanical|Company: Autodesk, Inc."
 90
     1024
 91
        1
280
     0
281
     0
  0
CLASS
  1
ACMSURFSTANDARDISO2002
  2
AcmSurfTextStdISO2002
  3
"Amdt_StdImp|Product Description: AutoCAD Mechanical|Company: Autodesk, Inc."
 90
     1024
 91
        1
280
     0
281
     0
  0
CLASS
  1
ACMFCFSTANDARDISO2012
  2
AcmFCFStdISO2012
  3
"Amdt_StdImp|Product Description: AutoCAD Mechanical|Company: Autodesk, Inc."
 90
     1024
 91
        1
280
     0
281
     0
  0
CLASS
  1
ACMWELDSTANDARDISO
  2
AcmWeldingStdISO
  3
"Amdt_StdImp|Product Description: AutoCAD Mechanical|Company: Autodesk, Inc."
 90
     1024
 91
        1
280
     0
281
     0
  0
CLASS
  1
ACMIDSTANDARDISO2012
  2
AcmIdStdISO2012
  3
"Amdt_StdImp|Product Description: AutoCAD Mechanical|Company: Autodesk, Inc."
 90
     1024
 91
        1
280
     0
281
     0
  0
CLASS
  1
ACMDATUMSTANDARDISO2012
  2
AcmDatumStdISO2012
  3
"Amdt_StdImp|Product Description: AutoCAD Mechanical|Company: Autodesk, Inc."
 90
     1024
 91
        1
280
     0
281
     0
  0
CLASS
  1
ACMBOMSTANDARDISO
  2
AcmBOMStdISO
  3
"Amdt_StdImp|Product Description: AutoCAD Mechanical|Company: Autodesk, Inc."
 90
     1024
 91
        1
280
     0
281
     0
  0
CLASS
  1
ACMDETAILSTANDARDISO
  2
AmdtDetailSymStdISO
  3
"Amdt_StdImp|Product Description: AutoCAD Mechanical|Company: Autodesk, Inc."
 90
     1024
 91
        1
280
     0
281
     0
  0
CLASS
  1
ACMSECTIONSTANDARDISO2001
  2
AmdtSectionSymStdISO2001
  3
"Amdt_StdImp|Product Description: AutoCAD Mechanical|Company: Autodesk, Inc."
 90
     1024
 91
        1
280
     0
281
     0
  0
CLASS
  1
ACMCENTERLINESTANDARDISO
  2
AmdtCenterLineStdISO
  3
"Amdt_StdImp|Product Description: AutoCAD Mechanical|Company: Autodesk, Inc."
 90
     1024
 91
        1
280
     0
281
     0
  0
CLASS
  1
ACMTHREADLINESTANDARDISO
  2
AmdtThreadLineStdISO
  3
"Amdt_StdImp|Product Description: AutoCAD Mechanical|Company: Autodesk, Inc."
 90
     1024
 91
        1
280
     0
281
     0
  0
CLASS
  1
ACMNOTESTANDARDISO
  2
AmdtNoteStdISO
  3
"Amdt_StdImp|Product Description: AutoCAD Mechanical|Company: Autodesk, Inc."
 90
     1024
 91
        1
280
     0
281
     0
  0
CLASS
  1
ACMTAPERSTANDARDISO
  2
AcmTaperStdISO
  3
"Amdt_StdImp|Product Description: AutoCAD Mechanical|Company: Autodesk, Inc."
 90
     1024
 91
        1
280
     0
281
     0
  0
CLASS
  1
ACMANOOTATIONVIEWSTANDARDISO
  2
AmdtAnViewStdISO
  3
"Amdt_StdImp|Product Description: AutoCAD Mechanical|Company: Autodesk, Inc."
 90
     1024
 91
        1
280
     0
281
     0
  0
CLASS
  1
ACAMGLAYSTD
  2
AcAmgLayStd
  3
"AmgLay|Product Description: AutoCAD Mechanical|Company: Autodesk, Inc."
 90
     1024
 91
        1
280
     0
281
     0
  0
CLASS
  1
ACAMGTITLESTD
  2
AcAmgTitleStd
  3
"AmgTitle|Product Description: AutoCAD Mechanical|Company: Autodesk, Inc."
 90
     1024
 91
        1
280
     0
281
     0
  0
CLASS
  1
ACAMGDIMSTD
  2
AcAmgDimStd
  3
"AmgDim|Product Description: AutoCAD Mechanical|Company: Autodesk, Inc."
 90
     1024
 91
        1
280
     0
281
     0
  0
CLASS
  1
AMGOBJPROPCFG
  2
AmgObjPropCfg
  3
"AmgLay|Product Description: AutoCAD Mechanical|Company: Autodesk, Inc."
 90
     1024
 91
        1
280
     0
281
     0
  0
CLASS
  1
ACAMGHOLECHARTSTDISO
  2
AcAmgHoleChartStdISO
  3
"AmgDim" "Product Description: AutoCAD Mechanical|Company: Autodesk, Inc."
 90
     1024
 91
        1
280
     0
281
     0
  0
CLASS
  1
ACMSECTIONSTANDARDCUSTOM
  2
AmdtSectionSymStdCustom
  3
"Amdt_StdImp|Product Description: AutoCAD Mechanical|Company: Autodesk, Inc."
 90
     1024
 91
        1
280
     0
281
     0
  0
CLASS
  1
ACMDETAILTANDARDCUSTOM
  2
AmdtDetailSymStdCustom
  3
"Amdt_StdImp|Product Description: AutoCAD Mechanical|Company: Autodesk, Inc."
 90
     1024
 91
        1
280
     0
281
     0
  0
CLASS
  1
FIELD
  2
AcDbField
  3
ObjectDBX Classes
 90
     1152
 91
        3
280
     0
281
     0
  0
CLASS
  1
FIELDLIST
  2
AcDbFieldList
  3
ObjectDBX Classes
 90
     1152
 91
        1
280
     0
281
     0
  0
CLASS
  1
AMDTNOTETEMPLATEDB
  2
AmdtNoteTemplateDB
  3
"AcmSymBB" "Product Description: AutoCAD Mechanical|Company: Autodesk, Inc."
 90
     1024
 91
        7
280
     0
281
     0
  0
CLASS
  1
ACAMGFILTERDAT
  2
AcAmgFilterDat
  3
"AcadM|Product Description: AutoCAD Mechanical|Company: Autodesk, Inc."
 90
     1024
 91
        6
280
     0
281
     0
  0
CLASS
  1
SORTENTSTABLE
  2
AcDbSortentsTable
  3
ObjectDBX Classes
 90
        0
 91
        1
280
     0
281
     0
  0
ENDSEC
  0
SECTION
  2
TABLES
  0
TABLE
  2
VPORT
  5
8
330
0
100
AcDbSymbolTable
 70
    16
  0
VPORT
  5
29
330
8
100
AcDbSymbolTableRecord
100
AcDbViewportTableRecord
  2
*Active
 70
     0
 10
0.0
 20
0.0
 11
1.0
 21
1.0
 12
542.7630396218882
 22
306.4539862703049
 13
0.0
 23
0.0
 14
0.5
 24
0.5
 15
0.5
 25
0.5
 16
0.0
 26
0.0
 36
1.0
 17
0.0
 27
0.0
 37
0.0
 40
324.0600358672958
 41
2.292712066905615
 42
50.0
 43
717.183772
 44
-717.183772
 50
0.0
 51
0.0
 71
     0
 72
   100
 73
     1
 74
     3
 75
     0
 76
     0
 77
     0
 78
     0
281
     0
 65
     0
110
0.0
120
0.0
130
0.0
111
1.0
121
0.0
131
0.0
112
0.0
122
1.0
132
0.0
 79
     0
146
0.0
1001
ACAD_NAV_VCDISPLAY
1070
     3
  0
VPORT
  5
215
330
8
100
AcDbSymbolTableRecord
100
AcDbViewportTableRecord
  2
L1
 70
     0
 10
0.0
 20
0.0
 11
1.0
 21
1.0
 12
406.5303169999999
 22
174.659384
 13
0.0
 23
0.0
 14
0.5
 24
0.5
 15
0.5
 25
0.5
 16
0.0
 26
0.0
 36
1.0
 17
0.0
 27
0.0
 37
0.0
 40
207.433333
 41
0.085602
 42
50.0
 43
717.183772
 44
-717.183772
 50
0.0
 51
0.0
 71
     0
 72
   100
 73
     1
 74
     3
 75
     0
 76
     0
 77
     0
 78
     0
281
     0
 65
     1
110
0.0
120
0.0
130
0.0
111
1.0
121
0.0
131
0.0
112
0.0
122
1.0
132
0.0
 79
     0
146
0.0
  0
VPORT
  5
216
330
8
100
AcDbSymbolTableRecord
100
AcDbViewportTableRecord
  2
L2
 70
     0
 10
0.0
 20
0.0
 11
0.5
 21
1.0
 12
0.0
 22
0.0
 13
0.0
 23
0.0
 14
0.5
 24
0.5
 15
0.5
 25
0.5
 16
0.0
 26
-1.0
 36
0.0
 17
0.0
 27
0.0
 37
0.0
 40
1478.660809
 41
0.012009
 42
50.0
 43
765.39502
 44
-765.39502
 50
0.0
 51
0.0
 71
     0
 72
   100
 73
     1
 74
     3
 75
     0
 76
     0
 77
     0
 78
     0
281
     0
 65
     1
110
0.0
120
0.0
130
0.0
111
1.0
121
0.0
131
0.0
112
0.0
122
1.0
132
0.0
 79
     0
146
0.0
  0
VPORT
  5
217
330
8
100
AcDbSymbolTableRecord
100
AcDbViewportTableRecord
  2
L2
 70
     0
 10
0.5
 20
0.0
 11
1.0
 21
1.0
 12
0.0
 22
0.0
 13
0.0
 23
0.0
 14
0.5
 24
0.5
 15
0.5
 25
0.5
 16
1.0
 26
0.0
 36
0.0
 17
0.0
 27
0.0
 37
0.0
 40
1478.660809
 41
0.012009
 42
50.0
 43
746.5698859999999
 44
-746.5698859999999
 50
0.0
 51
0.0
 71
     0
 72
   100
 73
     1
 74
     3
 75
     0
 76
     0
 77
     0
 78
     0
281
     0
 65
     1
110
0.0
120
0.0
130
0.0
111
1.0
121
0.0
131
0.0
112
0.0
122
1.0
132
0.0
 79
     0
146
0.0
  0
VPORT
  5
218
330
8
100
AcDbSymbolTableRecord
100
AcDbViewportTableRecord
  2
L3
 70
     0
 10
0.0
 20
0.5
 11
1.0
 21
1.0
 12
406.5303169999999
 22
174.659384
 13
0.0
 23
0.0
 14
0.5
 24
0.5
 15
0.5
 25
0.5
 16
0.0
 26
0.0
 36
1.0
 17
0.0
 27
0.0
 37
0.0
 40
207.433333
 41
0.085602
 42
50.0
 43
717.183772
 44
-717.183772
 50
0.0
 51
0.0
 71
     0
 72
   100
 73
     1
 74
     3
 75
     0
 76
     0
 77
     0
 78
     0
281
     0
 65
     1
110
0.0
120
0.0
130
0.0
111
1.0
121
0.0
131
0.0
112
0.0
122
1.0
132
0.0
 79
     0
146
0.0
  0
VPORT
  5
219
330
8
100
AcDbSymbolTableRecord
100
AcDbViewportTableRecord
  2
L3
 70
     0
 10
0.0
 20
0.0
 11
1.0
 21
0.5
 12
0.0
 22
0.0
 13
0.0
 23
0.0
 14
0.5
 24
0.5
 15
0.5
 25
0.5
 16
0.0
 26
-1.0
 36
0.0
 17
0.0
 27
0.0
 37
0.0
 40
1478.660809
 41
0.012009
 42
50.0
 43
765.39502
 44
-765.39502
 50
0.0
 51
0.0
 71
     0
 72
   100
 73
     1
 74
     3
 75
     0
 76
     0
 77
     0
 78
     0
281
     0
 65
     1
110
0.0
120
0.0
130
0.0
111
1.0
121
0.0
131
0.0
112
0.0
122
1.0
132
0.0
 79
     0
146
0.0
  0
VPORT
  5
21A
330
8
100
AcDbSymbolTableRecord
100
AcDbViewportTableRecord
  2
L4
 70
     0
 10
0.0
 20
0.5
 11
0.5
 21
1.0
 12
406.5303169999999
 22
174.659384
 13
0.0
 23
0.0
 14
0.5
 24
0.5
 15
0.5
 25
0.5
 16
0.0
 26
0.0
 36
1.0
 17
0.0
 27
0.0
 37
0.0
 40
207.433333
 41
0.085602
 42
50.0
 43
717.183772
 44
-717.183772
 50
0.0
 51
0.0
 71
     0
 72
   100
 73
     1
 74
     3
 75
     0
 76
     0
 77
     0
 78
     0
281
     0
 65
     1
110
0.0
120
0.0
130
0.0
111
1.0
121
0.0
131
0.0
112
0.0
122
1.0
132
0.0
 79
     0
146
0.0
  0
VPORT
  5
21B
330
8
100
AcDbSymbolTableRecord
100
AcDbViewportTableRecord
  2
L4
 70
     0
 10
0.0
 20
0.0
 11
0.5
 21
0.5
 12
0.0
 22
0.0
 13
0.0
 23
0.0
 14
0.5
 24
0.5
 15
0.5
 25
0.5
 16
0.0
 26
-1.0
 36
0.0
 17
0.0
 27
0.0
 37
0.0
 40
1478.660809
 41
0.012009
 42
50.0
 43
765.39502
 44
-765.39502
 50
0.0
 51
0.0
 71
     0
 72
   100
 73
     1
 74
     3
 75
     0
 76
     0
 77
     0
 78
     0
281
     0
 65
     1
110
0.0
120
0.0
130
0.0
111
1.0
121
0.0
131
0.0
112
0.0
122
1.0
132
0.0
 79
     0
146
0.0
  0
VPORT
  5
21C
330
8
100
AcDbSymbolTableRecord
100
AcDbViewportTableRecord
  2
L4
 70
     0
 10
0.5
 20
0.0
 11
1.0
 21
0.5
 12
0.0
 22
0.0
 13
0.0
 23
0.0
 14
0.5
 24
0.5
 15
0.5
 25
0.5
 16
1.0
 26
0.0
 36
0.0
 17
0.0
 27
0.0
 37
0.0
 40
1478.660809
 41
0.012009
 42
50.0
 43
746.5698859999999
 44
-746.5698859999999
 50
0.0
 51
0.0
 71
     0
 72
   100
 73
     1
 74
     3
 75
     0
 76
     0
 77
     0
 78
     0
281
     0
 65
     1
110
0.0
120
0.0
130
0.0
111
1.0
121
0.0
131
0.0
112
0.0
122
1.0
132
0.0
 79
     0
146
0.0
  0
VPORT
  5
21D
330
8
100
AcDbSymbolTableRecord
100
AcDbViewportTableRecord
  2
L4
 70
     0
 10
0.5
 20
0.5
 11
1.0
 21
1.0
 12
0.0
 22
0.0
 13
0.0
 23
0.0
 14
0.5
 24
0.5
 15
0.5
 25
0.5
 16
0.5773502691896259
 26
-0.5773502691896259
 36
0.5773502691896259
 17
0.0
 27
0.0
 37
0.0
 40
1453.705292
 41
0.012215
 42
50.0
 43
757.5245879999999
 44
-757.5245879999999
 50
0.0
 51
0.0
 71
     0
 72
   100
 73
     1
 74
     3
 75
     0
 76
     0
 77
     0
 78
     0
281
     0
 65
     1
110
0.0
120
0.0
130
0.0
111
1.0
121
0.0
131
0.0
112
0.0
122
1.0
132
0.0
 79
     0
146
0.0
  0
VPORT
  5
21E
330
8
100
AcDbSymbolTableRecord
100
AcDbViewportTableRecord
  2
L6
 70
     0
 10
0.0
 20
0.5
 11
0.333333
 21
1.0
 12
0.0
 22
0.0
 13
0.0
 23
0.0
 14
0.5
 24
0.5
 15
0.5
 25
0.5
 16
0.7188730927569434
 26
-0.5850486126764433
 36
0.3754192287502549
 17
0.0
 27
0.0
 37
0.0
 40
1534.989881
 41
0.011568
 42
50.0
 43
794.5176169999999
 44
-794.5176169999999
 50
0.0
 51
0.0
 71
     0
 72
   100
 73
     1
 74
     3
 75
     0
 76
     0
 77
     0
 78
     0
281
     0
 65
     1
110
0.0
120
0.0
130
0.0
111
1.0
121
0.0
131
0.0
112
0.0
122
1.0
132
0.0
 79
     0
146
0.0
  0
VPORT
  5
21F
330
8
100
AcDbSymbolTableRecord
100
AcDbViewportTableRecord
  2
L6
 70
     0
 10
0.0
 20
0.0
 11
0.333333
 21
0.5
 12
0.0
 22
0.0
 13
0.0
 23
0.0
 14
0.5
 24
0.5
 15
0.5
 25
0.5
 16
-1.0
 26
0.0
 36
0.0
 17
0.0
 27
0.0
 37
0.0
 40
1478.660809
 41
0.012009
 42
50.0
 43
746.5698859999999
 44
-746.5698859999999
 50
0.0
 51
0.0
 71
     0
 72
   100
 73
     1
 74
     3
 75
     0
 76
     0
 77
     0
 78
     0
281
     0
 65
     1
110
0.0
120
0.0
130
0.0
111
1.0
121
0.0
131
0.0
112
0.0
122
1.0
132
0.0
 79
     0
146
0.0
  0
VPORT
  5
220
330
8
100
AcDbSymbolTableRecord
100
AcDbViewportTableRecord
  2
L6
 70
     0
 10
0.333333
 20
0.5
 11
0.666667
 21
1.0
 12
406.5303169999999
 22
174.659384
 13
0.0
 23
0.0
 14
0.5
 24
0.5
 15
0.5
 25
0.5
 16
0.0
 26
0.0
 36
1.0
 17
0.0
 27
0.0
 37
0.0
 40
207.433333
 41
0.085602
 42
50.0
 43
717.183772
 44
-717.183772
 50
0.0
 51
0.0
 71
     0
 72
   100
 73
     1
 74
     3
 75
     0
 76
     0
 77
     0
 78
     0
281
     0
 65
     1
110
0.0
120
0.0
130
0.0
111
1.0
121
0.0
131
0.0
112
0.0
122
1.0
132
0.0
 79
     0
146
0.0
  0
VPORT
  5
221
330
8
100
AcDbSymbolTableRecord
100
AcDbViewportTableRecord
  2
L6
 70
     0
 10
0.333333
 20
0.0
 11
0.666667
 21
0.5
 12
0.0
 22
0.0
 13
0.0
 23
0.0
 14
0.5
 24
0.5
 15
0.5
 25
0.5
 16
0.0
 26
-1.0
 36
0.0
 17
0.0
 27
0.0
 37
0.0
 40
1478.660809
 41
0.012009
 42
50.0
 43
765.39502
 44
-765.39502
 50
0.0
 51
0.0
 71
     0
 72
   100
 73
     1
 74
     3
 75
     0
 76
     0
 77
     0
 78
     0
281
     0
 65
     1
110
0.0
120
0.0
130
0.0
111
1.0
121
0.0
131
0.0
112
0.0
122
1.0
132
0.0
 79
     0
146
0.0
  0
VPORT
  5
222
330
8
100
AcDbSymbolTableRecord
100
AcDbViewportTableRecord
  2
L6
 70
     0
 10
0.666667
 20
0.5
 11
1.0
 21
1.0
 12
0.0
 22
0.0
 13
0.0
 23
0.0
 14
0.5
 24
0.5
 15
0.5
 25
0.5
 16
0.5773502691896259
 26
-0.5773502691896259
 36
0.5773502691896259
 17
0.0
 27
0.0
 37
0.0
 40
1453.705292
 41
0.012215
 42
50.0
 43
757.5245879999999
 44
-757.5245879999999
 50
0.0
 51
0.0
 71
     0
 72
   100
 73
     1
 74
     3
 75
     0
 76
     0
 77
     0
 78
     0
281
     0
 65
     1
110
0.0
120
0.0
130
0.0
111
1.0
121
0.0
131
0.0
112
0.0
122
1.0
132
0.0
 79
     0
146
0.0
  0
VPORT
  5
223
330
8
100
AcDbSymbolTableRecord
100
AcDbViewportTableRecord
  2
L6
 70
     0
 10
0.666667
 20
0.0
 11
1.0
 21
0.5
 12
0.0
 22
0.0
 13
0.0
 23
0.0
 14
0.5
 24
0.5
 15
0.5
 25
0.5
 16
1.0
 26
0.0
 36
0.0
 17
0.0
 27
0.0
 37
0.0
 40
1478.660809
 41
0.012009
 42
50.0
 43
746.5698859999999
 44
-746.5698859999999
 50
0.0
 51
0.0
 71
     0
 72
   100
 73
     1
 74
     3
 75
     0
 76
     0
 77
     0
 78
     0
281
     0
 65
     1
110
0.0
120
0.0
130
0.0
111
1.0
121
0.0
131
0.0
112
0.0
122
1.0
132
0.0
 79
     0
146
0.0
  0
ENDTAB
  0
TABLE
  2
LTYPE
  5
5
330
0
100
AcDbSymbolTable
 70
    19
  0
LTYPE
  5
14
330
5
100
AcDbSymbolTableRecord
100
AcDbLinetypeTableRecord
  2
ByBlock
 70
     0
  3

 72
    65
 73
     0
 40
0.0
  0
LTYPE
  5
15
330
5
100
AcDbSymbolTableRecord
100
AcDbLinetypeTableRecord
  2
ByLayer
 70
     0
  3

 72
    65
 73
     0
 40
0.0
  0
LTYPE
  5
16
330
5
100
AcDbSymbolTableRecord
100
AcDbLinetypeTableRecord
  2
Continuous
 70
     0
  3
Solid line
 72
    65
 73
     0
 40
0.0
  0
LTYPE
  5
6E
330
5
100
AcDbSymbolTableRecord
100
AcDbLinetypeTableRecord
  2
CENTER
 70
     0
  3
____ _ ____ _ ____ _ ____
 72
    65
 73
     4
 40
47.4
 49
22.0
 74
     4
 75
     0
340
0
 46
0.0
 50
0.0
 44
0.0
 45
0.0
 49
-8.5
 74
     4
 75
     0
340
0
 46
0.0
 50
0.0
 44
0.0
 45
0.0
 49
8.5
 74
     4
 75
     0
340
0
 46
0.0
 50
0.0
 44
0.0
 45
0.0
 49
-8.5
 74
     4
 75
     0
340
0
 46
0.0
 50
0.0
 44
0.0
 45
0.0
  0
LTYPE
  5
6F
330
5
100
AcDbSymbolTableRecord
100
AcDbLinetypeTableRecord
  2
DASHDOT
 70
     0
  3
_._._._._._._._._._._._._._._._.
 72
    65
 73
     4
 40
70.0
 49
31.0
 74
     4
 75
     0
340
0
 46
0.0
 50
0.0
 44
0.0
 45
0.0
 49
-13.0
 74
     4
 75
     0
340
0
 46
0.0
 50
0.0
 44
0.0
 45
0.0
 49
13.0
 74
     4
 75
     0
340
0
 46
0.0
 50
0.0
 44
0.0
 45
0.0
 49
-13.0
 74
     4
 75
     0
340
0
 46
0.0
 50
0.0
 44
0.0
 45
0.0
  0
LTYPE
  5
70
330
5
100
AcDbSymbolTableRecord
100
AcDbLinetypeTableRecord
  2
DASHED
 70
     0
  3
__ __ __ __ __ __ __ __ __
 72
    65
 73
     2
 40
25.72
 49
12.86
 74
     4
 75
     0
340
0
 46
0.0
 50
0.0
 44
0.0
 45
0.0
 49
-12.86
 74
     4
 75
     0
340
0
 46
0.0
 50
0.0
 44
0.0
 45
0.0
  0
LTYPE
  5
71
330
5
100
AcDbSymbolTableRecord
100
AcDbLinetypeTableRecord
  2
DOT
 70
     0
  3
.........................
 72
    65
 73
     2
 40
10.0
 49
0.0
 74
     4
 75
     0
340
0
 46
0.0
 50
0.0
 44
0.0
 45
0.0
 49
-10.0
 74
     4
 75
     0
340
0
 46
0.0
 50
0.0
 44
0.0
 45
0.0
  0
LTYPE
  5
72
330
5
100
AcDbSymbolTableRecord
100
AcDbLinetypeTableRecord
  2
PHANTOM
 70
     0
  3
____ _ _ ____ _ _ _____ _ _ ____
 72
    65
 73
     6
 40
50.5
 49
18.0
 74
     4
 75
     0
340
0
 46
0.0
 50
0.0
 44
0.0
 45
0.0
 49
-6.5
 74
     4
 75
     0
340
0
 46
0.0
 50
0.0
 44
0.0
 45
0.0
 49
6.5
 74
     4
 75
     0
340
0
 46
0.0
 50
0.0
 44
0.0
 45
0.0
 49
-6.5
 74
     4
 75
     0
340
0
 46
0.0
 50
0.0
 44
0.0
 45
0.0
 49
6.5
 74
     4
 75
     0
340
0
 46
0.0
 50
0.0
 44
0.0
 45
0.0
 49
-6.5
 74
     4
 75
     0
340
0
 46
0.0
 50
0.0
 44
0.0
 45
0.0
  0
LTYPE
  5
283
330
5
100
AcDbSymbolTableRecord
100
AcDbLinetypeTableRecord
  2
HIDDEN
 70
     0
  3
Hidden __ __ __ __ __ __ __ __ __ __ __ __ __ _
 72
    65
 73
     2
 40
9.524999999999998
 49
6.349999999999999
 74
     0
 49
-3.174999999999999
 74
     0
  0
LTYPE
  5
284
330
5
100
AcDbSymbolTableRecord
100
AcDbLinetypeTableRecord
  2
PHANTOM2
 70
     0
  3
Phantom (.5x) ___ _ _ ___ _ _ ___ _ _ ___ _ _
 72
    65
 73
     6
 40
31.75
 49
15.875
 74
     0
 49
-3.174999999999999
 74
     0
 49
3.174999999999999
 74
     0
 49
-3.174999999999999
 74
     0
 49
3.174999999999999
 74
     0
 49
-3.174999999999999
 74
     0
  0
LTYPE
  5
2BF
330
5
100
AcDbSymbolTableRecord
100
AcDbLinetypeTableRecord
  2
AM_ISO02W050
 70
     0
  3
__ __ __ __ __ __ __ __ __ __ __ __ __ __ __
 72
    65
 73
     2
 40
7.5
 49
6.0
 74
     0
 49
-1.5
 74
     0
  0
LTYPE
  5
2C0
330
5
100
AcDbSymbolTableRecord
100
AcDbLinetypeTableRecord
  2
AM_ISO08W050
 70
     0
  3
____ . ____ . ____ . ____ . ____ . ____ . ____
 72
    65
 73
     4
 40
18.0
 49
12.0
 74
     0
 49
-1.5
 74
     0
 49
3.0
 74
     0
 49
-1.5
 74
     0
  0
LTYPE
  5
2C1
330
5
100
AcDbSymbolTableRecord
100
AcDbLinetypeTableRecord
  2
AM_ISO09W050
 70
     0
  3
_____ . . _____ . . _____ . . ____ .. ____
 72
    65
 73
     6
 40
22.5
 49
12.0
 74
     0
 49
-1.5
 74
     0
 49
3.0
 74
     0
 49
-1.5
 74
     0
 49
3.0
 74
     0
 49
-1.5
 74
     0
  0
LTYPE
  5
2C2
330
5
100
AcDbSymbolTableRecord
100
AcDbLinetypeTableRecord
  2
Amconstr
 70
     0
  3
_______________________
 72
    65
 73
     2
 40
9999.0
 49
9999.0
 74
     0
 49
0.0
 74
     0
  0
LTYPE
  5
2C3
330
5
100
AcDbSymbolTableRecord
100
AcDbLinetypeTableRecord
  2
AM_ISO08W050x2
 70
     0
  3
__ . __ . __ . __ . __ . __
 72
    65
 73
     4
 40
9.0
 49
6.0
 74
     0
 49
-0.75
 74
     0
 49
1.5
 74
     0
 49
-0.75
 74
     0
  0
LTYPE
  5
2C4
330
5
100
AcDbSymbolTableRecord
100
AcDbLinetypeTableRecord
  2
AM_ISO02W050x2
 70
     0
  3
 _ _ _ _ _ _ _ _ _ _ _ _
 72
    65
 73
     2
 40
3.75
 49
3.0
 74
     0
 49
-0.75
 74
     0
  0
LTYPE
  5
2C7
330
5
100
AcDbSymbolTableRecord
100
AcDbLinetypeTableRecord
  2
Amzigzag
 70
     0
  3
/\/-/\/-/\/-/\/-/\/-/\/
 72
    65
 73
     2
 40
11.0001
 49
0.0001
 74
     4
 75
   136
340
2C6
 46
0.04
 50
0.0
 44
0.0
 45
0.0
 49
-11.0
 74
     0
  0
LTYPE
  5
2D7
330
5
100
AcDbSymbolTableRecord
100
AcDbLinetypeTableRecord
  2
ACISOWELD
 70
     0
  3
_ _ _ _ _
 72
    65
 73
     2
 40
2.0
 49
2.0
 74
     0
 49
-1.0
 74
     0
  0
LTYPE
  5
2D8
330
5
100
AcDbSymbolTableRecord
100
AcDbLinetypeTableRecord
  2
ACISOTGL
 70
     0
  3
_ _ _ _ _
 72
    65
 73
     2
 40
3.0
 49
2.0
 74
     0
 49
-1.0
 74
     0
  0
LTYPE
  5
2D9
330
5
100
AcDbSymbolTableRecord
100
AcDbLinetypeTableRecord
  2
ACISOTGB
 70
     0
  3
__ . . __ . .
 72
    65
 73
     6
 40
9.0
 49
4.0
 74
     0
 49
-1.0
 74
     0
 49
1.0
 74
     0
 49
-1.0
 74
     0
 49
1.0
 74
     0
 49
-1.0
 74
     0
  0
LTYPE
  5
323
330
5
100
AcDbSymbolTableRecord
100
AcDbLinetypeTableRecord
  2
CENTER2
 70
     0
  3
Center (.5x) ___ _ ___ _ ___ _ ___ _ ___ _ ___
 72
    65
 73
     4
 40
1.125
 49
0.75
 74
     0
 49
-0.125
 74
     0
 49
0.125
 74
     0
 49
-0.125
 74
     0
  0
ENDTAB
  0
TABLE
  2
LAYER
  5
2
102
{ACAD_XDICTIONARY
360
3A0
102
}
330
0
100
AcDbSymbolTable
 70
    23
  0
LAYER
  5
10
102
{ACAD_XDICTIONARY
360
383
102
}
330
2
100
AcDbSymbolTableRecord
100
AcDbLayerTableRecord
  2
0
 70
     0
 62
     7
  6
Continuous
370
    -3
390
F
  0
LAYER
  5
76
102
{ACAD_XDICTIONARY
360
385
102
}
330
2
100
AcDbSymbolTableRecord
100
AcDbLayerTableRecord
  2
96
 70
     0
 62
     7
420
 16777215
  6
Continuous
370
    -3
390
F
  0
LAYER
  5
1B9
330
2
100
AcDbSymbolTableRecord
100
AcDbLayerTableRecord
  2
Defpoints
 70
     0
 62
     7
  6
Continuous
290
     0
370
    -3
390
F
  0
LAYER
  5
320
102
{ACAD_XDICTIONARY
360
387
102
}
330
2
100
AcDbSymbolTableRecord
100
AcDbLayerTableRecord
  2
1
 70
     0
 62
     4
  6
Continuous
370
    -3
390
F
  0
LAYER
  5
321
102
{ACAD_XDICTIONARY
360
389
102
}
330
2
100
AcDbSymbolTableRecord
100
AcDbLayerTableRecord
  2
2
 70
     0
 62
     7
  6
Continuous
370
    -3
390
F
  0
LAYER
  5
322
102
{ACAD_XDICTIONARY
360
38B
102
}
330
2
100
AcDbSymbolTableRecord
100
AcDbLayerTableRecord
  2
4
 70
     0
 62
     2
  6
CENTER2
370
    -3
390
F
  0
LAYER
  5
324
102
{ACAD_XDICTIONARY
360
38D
102
}
330
2
100
AcDbSymbolTableRecord
100
AcDbLayerTableRecord
  2
SK1
 70
     0
 62
     4
  6
Continuous
370
    -3
390
F
  0
LAYER
  5
325
102
{ACAD_XDICTIONARY
360
38F
102
}
330
2
100
AcDbSymbolTableRecord
100
AcDbLayerTableRecord
  2
SK2
 70
     0
 62
     7
  6
Continuous
370
    -3
390
F
  0
LAYER
  5
327
102
{ACAD_XDICTIONARY
360
391
102
}
330
2
100
AcDbSymbolTableRecord
100
AcDbLayerTableRecord
  2
SK4
 70
     0
 62
     2
  6
CENTER2
370
    -3
390
F
  0
LAYER
  5
328
102
{ACAD_XDICTIONARY
360
393
102
}
330
2
100
AcDbSymbolTableRecord
100
AcDbLayerTableRecord
  2
SK6
 70
     0
 62
     5
  6
Continuous
370
    -3
390
F
  0
LAYER
  5
329
102
{ACAD_XDICTIONARY
360
395
102
}
330
2
100
AcDbSymbolTableRecord
100
AcDbLayerTableRecord
  2
CUT
 70
     0
 62
     1
  6
Continuous
370
    -3
390
F
  0
LAYER
  5
32A
102
{ACAD_XDICTIONARY
360
397
102
}
330
2
100
AcDbSymbolTableRecord
100
AcDbLayerTableRecord
  2
NOCUT
 70
     0
 62
     7
  6
Continuous
370
    -3
390
F
  0
LAYER
  5
32B
102
{ACAD_XDICTIONARY
360
399
102
}
330
2
100
AcDbSymbolTableRecord
100
AcDbLayerTableRecord
  2
80
 70
     0
 62
     6
  6
Continuous
370
    -3
390
F
  0
LAYER
  5
32C
102
{ACAD_XDICTIONARY
360
39B
102
}
330
2
100
AcDbSymbolTableRecord
100
AcDbLayerTableRecord
  2
81
 70
     0
 62
     3
  6
Continuous
370
    -3
390
F
  0
ENDTAB
  0
TABLE
  2
STYLE
  5
3
330
0
100
AcDbSymbolTable
 70
     6
  0
STYLE
  5
11
330
3
100
AcDbSymbolTableRecord
100
AcDbTextStyleTableRecord
  2
Standard
 70
     0
 40
0.0
 41
1.0
 50
0.0
 71
     0
 42
0.2
  3
txt
  4

  0
STYLE
  5
1AD
330
3
100
AcDbSymbolTableRecord
100
AcDbTextStyleTableRecord
  2
cesky
 70
     0
 40
0.0
 41
1.0
 50
0.0
 71
     0
 42
0.2
  3
simplex.shx
  4

  0
STYLE
  5
1AE
330
3
100
AcDbSymbolTableRecord
100
AcDbTextStyleTableRecord
  2
DWGDirectTextStyle
 70
     0
 40
0.0
 41
1.0
 50
0.0
 71
     0
 42
0.2
  3
simplex
  4

  0
STYLE
  5
2C6
330
3
100
AcDbSymbolTableRecord
100
AcDbTextStyleTableRecord
  2

 70
     1
 40
0.0
 41
1.0
 50
0.0
 71
     0
 42
0.2
  3
genltshp.shx
  4

  0
STYLE
  5
2D5
330
3
100
AcDbSymbolTableRecord
100
AcDbTextStyleTableRecord
  2
ACISOTS
 70
     0
 40
0.0
 41
1.0
 50
0.0
 71
     0
 42
0.2
  3
isocp.shx
  4

  0
STYLE
  5
2D6
330
3
100
AcDbSymbolTableRecord
100
AcDbTextStyleTableRecord
  2
ACISOGDT
 70
     0
 40
0.0
 41
1.0
 50
0.0
 71
     0
 42
0.2
  3
amgdt.shx
  4

  0
ENDTAB
  0
TABLE
  2
VIEW
  5
6
330
0
100
AcDbSymbolTable
 70
     1
  0
ENDTAB
  0
TABLE
  2
UCS
  5
7
330
0
100
AcDbSymbolTable
 70
     0
  0
ENDTAB
  0
TABLE
  2
APPID
  5
9
330
0
100
AcDbSymbolTable
 70
    13
  0
APPID
  5
12
330
9
100
AcDbSymbolTableRecord
100
AcDbRegAppTableRecord
  2
ACAD
 70
     0
  0
APPID
  5
1B5
330
9
100
AcDbSymbolTableRecord
100
AcDbRegAppTableRecord
  2
ACAD_DSTYLE_DIMBREAK
 70
     0
  0
APPID
  5
224
330
9
100
AcDbSymbolTableRecord
100
AcDbRegAppTableRecord
  2
ACAD_DSTYLE_DIM_LINETYPE
 70
     0
  0
APPID
  5
225
330
9
100
AcDbSymbolTableRecord
100
AcDbRegAppTableRecord
  2
ACAD_DSTYLE_DIM_EXT1_LINETYPE
 70
     0
  0
APPID
  5
226
330
9
100
AcDbSymbolTableRecord
100
AcDbRegAppTableRecord
  2
ACAD_DSTYLE_DIM_EXT2_LINETYPE
 70
     0
  0
APPID
  5
266
330
9
100
AcDbSymbolTableRecord
100
AcDbRegAppTableRecord
  2
ACAD_MLEADERVER
 70
     0
  0
APPID
  5
27C
330
9
100
AcDbSymbolTableRecord
100
AcDbRegAppTableRecord
  2
MCAD_NO_VIS
 70
     0
  0
APPID
  5
27D
330
9
100
AcDbSymbolTableRecord
100
AcDbRegAppTableRecord
  2
ACAD_TEMP_GRAPHIC
 70
     0
  0
APPID
  5
289
330
9
100
AcDbSymbolTableRecord
100
AcDbRegAppTableRecord
  2
ACATTRIBSERVICES
 70
     0
  0
APPID
  5
2A1
330
9
100
AcDbSymbolTableRecord
100
AcDbRegAppTableRecord
  2
DESIGNERASSEMBLIES
 70
     0
  0
APPID
  5
2BD
330
9
100
AcDbSymbolTableRecord
100
AcDbRegAppTableRecord
  2
ACAD_DSTYLE_DIMJAG
 70
     0
  0
APPID
  5
2E9
330
9
100
AcDbSymbolTableRecord
100
AcDbRegAppTableRecord
  2
ACAD_NAV_VCDISPLAY
 70
     0
  0
APPID
  5
3E8
330
9
100
AcDbSymbolTableRecord
100
AcDbRegAppTableRecord
  2
ACAD_DSTYLE_DIMARC_LENGTH_SYMBOL
 70
     0
  0
ENDTAB
  0
TABLE
  2
DIMSTYLE
  5
A
330
0
100
AcDbSymbolTable
 70
     8
100
AcDbDimStyleTable
 71
     0
  0
DIMSTYLE
105
27
330
A
100
AcDbSymbolTableRecord
100
AcDbDimStyleTableRecord
  2
Standard
 70
     0
340
11
1001
ACAD_DSTYLE_DIMBREAK
1070
   391
1040
6.349999999999999
  0
DIMSTYLE
105
2BC
102
{ACAD_REACTORS
330
2AA
102
}
330
A
100
AcDbSymbolTableRecord
100
AcDbDimStyleTableRecord
  2
AM_ISO
 70
     0
  4
"
 41
3.5
 42
1.0
 43
10.0
 44
1.0
 47
0.1
 48
0.1
 73
     0
 74
     0
 77
     1
 78
     8
 79
     2
140
3.5
141
0.0
143
0.0393701
146
0.71
147
1.5
172
     1
176
   256
177
   256
178
     2
271
     2
272
     3
274
     4
283
     0
284
     8
340
11
371
    -1
372
    -1
1001
ACAD_DSTYLE_DIMJAG
1070
   388
1040
1.5
1001
ACAD_DSTYLE_DIMBREAK
1070
   391
1040
3.75
1001
ACAD_DSTYLE_DIMARC_LENGTH_SYMBOL
1070
   379
1070
     1
1001
ACAD_DSTYLE_DIM_LINETYPE
1070
   380
1005
14
1001
ACAD_DSTYLE_DIM_EXT1_LINETYPE
1070
   381
1005
14
1001
ACAD_DSTYLE_DIM_EXT2_LINETYPE
1070
   382
1005
14
  0
DIMSTYLE
105
2C8
330
A
100
AcDbSymbolTableRecord
100
AcDbDimStyleTableRecord
  2
AM_ISO$3
 70
     0
  4
"
 41
3.5
 42
1.0
 43
10.0
 44
1.0
 47
0.1
 48
0.1
 73
     0
 77
     1
 78
     8
 79
     2
140
3.5
141
0.0
143
0.0393701
146
0.71
147
1.5
176
   256
177
   256
178
     2
271
     2
272
     3
274
     4
283
     0
284
     8
288
     1
289
     0
340
11
371
    -1
372
    -1
1001
ACAD_DSTYLE_DIMBREAK
1070
   391
1040
3.75
1001
ACAD_DSTYLE_DIMJAG
1070
   388
1040
1.5
1001
ACAD_DSTYLE_DIMARC_LENGTH_SYMBOL
1070
   379
1070
     1
1001
ACAD_DSTYLE_DIM_LINETYPE
1070
   380
1005
14
1001
ACAD_DSTYLE_DIM_EXT1_LINETYPE
1070
   381
1005
14
1001
ACAD_DSTYLE_DIM_EXT2_LINETYPE
1070
   382
1005
14
  0
DIMSTYLE
105
2C9
330
A
100
AcDbSymbolTableRecord
100
AcDbDimStyleTableRecord
  2
AM_ISO$4
 70
     0
  4
"
 41
3.5
 42
1.0
 43
10.0
 44
1.0
 47
0.1
 48
0.1
 73
     0
 77
     1
 78
     8
 79
     2
140
3.5
141
0.0
143
0.0393701
146
0.71
147
1.5
176
   256
177
   256
178
     2
271
     2
272
     3
274
     4
283
     0
284
     8
288
     1
289
     0
340
11
371
    -1
372
    -1
1001
ACAD_DSTYLE_DIMBREAK
1070
   391
1040
3.75
1001
ACAD_DSTYLE_DIMJAG
1070
   388
1040
1.5
1001
ACAD_DSTYLE_DIMARC_LENGTH_SYMBOL
1070
   379
1070
     1
1001
ACAD_DSTYLE_DIM_LINETYPE
1070
   380
1005
14
1001
ACAD_DSTYLE_DIM_EXT1_LINETYPE
1070
   381
1005
14
1001
ACAD_DSTYLE_DIM_EXT2_LINETYPE
1070
   382
1005
14
  0
DIMSTYLE
105
2CA
330
A
100
AcDbSymbolTableRecord
100
AcDbDimStyleTableRecord
  2
AM_ISO$6
 70
     0
  4
"
 41
3.5
 42
1.0
 43
10.0
 44
1.0
 47
0.1
 48
0.1
 73
     0
 74
     0
 78
     8
 79
     2
140
3.5
141
0.0
143
0.0393701
146
0.71
147
1.5
172
     1
176
   256
177
   256
178
     2
271
     2
272
     3
274
     4
283
     0
284
     8
340
11
371
    -1
372
    -1
1001
ACAD_DSTYLE_DIMBREAK
1070
   391
1040
3.75
1001
ACAD_DSTYLE_DIMJAG
1070
   388
1040
1.5
1001
ACAD_DSTYLE_DIMARC_LENGTH_SYMBOL
1070
   379
1070
     1
1001
ACAD_DSTYLE_DIM_LINETYPE
1070
   380
1005
14
1001
ACAD_DSTYLE_DIM_EXT1_LINETYPE
1070
   381
1005
14
1001
ACAD_DSTYLE_DIM_EXT2_LINETYPE
1070
   382
1005
14
  0
DIMSTYLE
105
2CB
330
A
100
AcDbSymbolTableRecord
100
AcDbDimStyleTableRecord
  2
AM_ISO$7
 70
     0
  4
"
 41
3.5
 42
1.0
 43
10.0
 44
1.0
 47
0.1
 48
0.1
 73
     0
 74
     0
 77
     1
 78
     8
 79
     2
140
3.5
141
0.0
143
0.0393701
146
0.71
147
1.5
172
     1
176
   256
177
   256
178
     2
271
     2
272
     3
274
     4
283
     0
284
     8
340
11
371
    -1
372
    -1
1001
ACAD_DSTYLE_DIMBREAK
1070
   391
1040
3.75
1001
ACAD_DSTYLE_DIMJAG
1070
   388
1040
1.5
1001
ACAD_DSTYLE_DIMARC_LENGTH_SYMBOL
1070
   379
1070
     1
1001
ACAD_DSTYLE_DIM_LINETYPE
1070
   380
1005
14
1001
ACAD_DSTYLE_DIM_EXT1_LINETYPE
1070
   381
1005
14
1001
ACAD_DSTYLE_DIM_EXT2_LINETYPE
1070
   382
1005
14
  0
DIMSTYLE
105
2CC
330
A
100
AcDbSymbolTableRecord
100
AcDbDimStyleTableRecord
  2
AM_ISO$SF
 70
     0
  4
"
 41
3.5
 42
1.0
 43
10.0
 44
1.0
 47
0.1
 48
0.1
 73
     0
 74
     0
 75
     1
 76
     1
 77
     1
 78
     8
 79
     2
140
3.5
141
0.0
143
0.0393701
146
0.71
147
1.5
172
     1
176
   256
177
   256
178
     2
271
     2
272
     3
274
     4
283
     0
284
     8
340
11
371
    -1
372
    -1
1001
ACAD_DSTYLE_DIMBREAK
1070
   391
1040
3.75
1001
ACAD_DSTYLE_DIMJAG
1070
   388
1040
1.5
1001
ACAD_DSTYLE_DIMARC_LENGTH_SYMBOL
1070
   379
1070
     1
1001
ACAD_DSTYLE_DIM_LINETYPE
1070
   380
1005
14
1001
ACAD_DSTYLE_DIM_EXT1_LINETYPE
1070
   381
1005
14
1001
ACAD_DSTYLE_DIM_EXT2_LINETYPE
1070
   382
1005
14
  0
DIMSTYLE
105
2D1
330
A
100
AcDbSymbolTableRecord
100
AcDbDimStyleTableRecord
  2
AM_ISO$SH
 70
     0
  4
"
 41
3.5
 42
1.0
 43
10.0
 44
1.0
 47
0.1
 48
0.1
 73
     0
 74
     0
 75
     1
 76
     1
 77
     1
 78
     8
 79
     2
140
3.5
141
0.0
143
0.0393701
144
2.0
146
0.71
147
1.5
172
     1
173
     1
176
   256
177
   256
178
     2
271
     2
272
     3
274
     4
283
     0
284
     8
340
11
343
2CD
371
    -1
372
    -1
1001
ACAD_DSTYLE_DIMBREAK
1070
   391
1040
3.75
1001
ACAD_DSTYLE_DIMJAG
1070
   388
1040
1.5
1001
ACAD_DSTYLE_DIMARC_LENGTH_SYMBOL
1070
   379
1070
     1
1001
ACAD_DSTYLE_DIM_LINETYPE
1070
   380
1005
14
1001
ACAD_DSTYLE_DIM_EXT1_LINETYPE
1070
   381
1005
14
1001
ACAD_DSTYLE_DIM_EXT2_LINETYPE
1070
   382
1005
14
  0
ENDTAB
  0
TABLE
  2
BLOCK_RECORD
  5
1
330
0
100
AcDbSymbolTable
 70
    12
  0
BLOCK_RECORD
  5
1F
102
{ACAD_XDICTIONARY
360
2F1
102
}
330
1
100
AcDbSymbolTableRecord
100
AcDbBlockTableRecord
  2
*Model_Space
340
22
  0
BLOCK_RECORD
  5
1B
330
1
100
AcDbSymbolTableRecord
100
AcDbBlockTableRecord
  2
*Paper_Space
340
1E
  0
BLOCK_RECORD
  5
23
330
1
100
AcDbSymbolTableRecord
100
AcDbBlockTableRecord
  2
*Paper_Space0
340
26
  0
BLOCK_RECORD
  5
1B0
330
1
100
AcDbSymbolTableRecord
100
AcDbBlockTableRecord
  2
ASSORTED_DRAFT1
340
0
  0
BLOCK_RECORD
  5
1BA
330
1
100
AcDbSymbolTableRecord
100
AcDbBlockTableRecord
  2
*D2
340
0
  0
BLOCK_RECORD
  5
1C5
330
1
100
AcDbSymbolTableRecord
100
AcDbBlockTableRecord
  2
_U0
340
0
  0
BLOCK_RECORD
  5
1D0
330
1
100
AcDbSymbolTableRecord
100
AcDbBlockTableRecord
  2
*D4
340
0
  0
BLOCK_RECORD
  5
1DC
330
1
100
AcDbSymbolTableRecord
100
AcDbBlockTableRecord
  2
_U1
340
0
  0
BLOCK_RECORD
  5
1E8
330
1
100
AcDbSymbolTableRecord
100
AcDbBlockTableRecord
  2
*D6
340
0
  0
BLOCK_RECORD
  5
1F4
330
1
100
AcDbSymbolTableRecord
100
AcDbBlockTableRecord
  2
_U2
340
0
  0
BLOCK_RECORD
  5
200
330
1
100
AcDbSymbolTableRecord
100
AcDbBlockTableRecord
  2
*D8
340
0
  0
BLOCK_RECORD
  5
20C
330
1
100
AcDbSymbolTableRecord
100
AcDbBlockTableRecord
  2
_U3
340
0
  0
BLOCK_RECORD
  5
2CD
330
1
100
AcDbSymbolTableRecord
100
AcDbBlockTableRecord
  2
GENAXEH
340
0
  0
ENDTAB
  0
ENDSEC
  0
SECTION
  2
BLOCKS
  0
BLOCK
  5
20
330
1F
100
AcDbEntity
  8
0
100
AcDbBlockBegin
  2
*Model_Space
 70
     0
 10
0.0
 20
0.0
 30
0.0
  3
*Model_Space
  1

  0
ENDBLK
  5
21
330
1F
100
AcDbEntity
  8
0
100
AcDbBlockEnd
  0
BLOCK
  5
1C
330
1B
100
AcDbEntity
 67
     1
  8
0
100
AcDbBlockBegin
  2
*Paper_Space
 70
     0
 10
0.0
 20
0.0
 30
0.0
  3
*Paper_Space
  1

  0
ENDBLK
  5
1D
330
1B
100
AcDbEntity
 67
     1
  8
0
100
AcDbBlockEnd
  0
BLOCK
  5
24
330
23
100
AcDbEntity
 67
     1
  8
0
100
AcDbBlockBegin
  2
*Paper_Space0
 70
     0
 10
0.0
 20
0.0
 30
0.0
  3
*Paper_Space0
  1

  0
ENDBLK
  5
25
330
23
100
AcDbEntity
 67
     1
  8
0
100
AcDbBlockEnd
  0
BLOCK
  5
1B3
330
1B0
100
AcDbEntity
  8
0
100
AcDbBlockBegin
  2
ASSORTED_DRAFT1
 70
     0
 10
0.0
 20
0.0
 30
0.0
  3
ASSORTED_DRAFT1
  1

  0
SOLID
  5
1B1
330
1B0
100
AcDbEntity
  8
0
 62
   254
370
    13
100
AcDbTrace
 10
476.517572
 20
269.186216
 30
0.0
 11
481.517568
 21
270.29469
 31
0.0
 12
481.5175759999999
 22
268.077743
 32
0.0
 13
476.517572
 23
269.186216
 33
0.0
  0
ENDBLK
  5
1B4
330
1B0
100
AcDbEntity
  8
0
100
AcDbBlockEnd
  0
BLOCK
  5
1BB
330
1BA
100
AcDbEntity
  8
0
100
AcDbBlockBegin
  2
*D2
 70
     1
 10
0.0
 20
0.0
 30
0.0
  3
*D2
  1

  0
LINE
  5
1BD
330
1BA
100
AcDbEntity
  8
0
 62
   254
370
    -2
100
AcDbLine
 10
418.096753
 20
281.6652180000001
 30
0.0
 11
454.8176139999999
 21
281.6652180000001
 31
0.0
  0
LINE
  5
1BE
330
1BA
100
AcDbEntity
  8
0
 62
   254
370
    -2
100
AcDbLine
 10
441.581991
 20
294.1652180000001
 30
0.0
 11
454.8176139999999
 21
294.1652180000001
 31
0.0
  0
LINE
  5
1BF
330
1BA
100
AcDbEntity
  8
0
 62
   254
370
    -2
100
AcDbLine
 10
453.817614
 20
297.665218
 30
0.0
 11
453.817614
 21
301.165218
 31
0.0
  0
SOLID
  5
1C0
330
1BA
100
AcDbEntity
  8
0
 62
   254
100
AcDbTrace
 10
453.2342809999999
 20
297.665218
 30
0.0
 11
454.400948
 21
297.665218
 31
0.0
 12
453.817614
 22
294.1652180000001
 32
0.0
 13
453.817614
 23
294.1652180000001
 33
0.0
  0
MTEXT
  5
1C1
330
1BA
100
AcDbEntity
  8
0
 62
   254
370
    13
100
AcDbMText
 10
448.5676139999999
 20
268.331885
 30
0.0
 40
3.5
 41
0.0
 71
     5
 72
     1
  1
\A1;25
  7
cesky
 11
0.0
 21
1.0
 31
0.0
 73
     1
 44
1.0
  0
POINT
  5
1C2
330
1BA
100
AcDbEntity
  8
Defpoints
 62
     0
100
AcDbPoint
 10
418.096753
 20
281.6652180000001
 30
0.0
  0
POINT
  5
1C3
330
1BA
100
AcDbEntity
  8
Defpoints
 62
     0
100
AcDbPoint
 10
441.581991
 20
294.1652180000001
 30
0.0
  0
POINT
  5
1C4
330
1BA
100
AcDbEntity
  8
Defpoints
 62
     0
100
AcDbPoint
 10
453.817614
 20
294.1652180000001
 30
0.0
  0
ENDBLK
  5
1BC
330
1BA
100
AcDbEntity
  8
0
100
AcDbBlockEnd
  0
BLOCK
  5
1CB
330
1C5
100
AcDbEntity
  8
0
100
AcDbBlockBegin
  2
_U0
 70
     0
 10
0.0
 20
0.0
 30
0.0
  3
_U0
  1

  0
ENDBLK
  5
1CC
330
1C5
100
AcDbEntity
  8
0
100
AcDbBlockEnd
  0
BLOCK
  5
1D1
330
1D0
100
AcDbEntity
  8
0
100
AcDbBlockBegin
  2
*D4
 70
     1
 10
0.0
 20
0.0
 30
0.0
  3
*D4
  1

  0
LINE
  5
1D3
330
1D0
100
AcDbEntity
  8
0
 62
   254
370
    -2
100
AcDbLine
 10
440.081991
 20
295.665218
 30
0.0
 11
440.081991
 21
301.65669
 31
0.0
  0
LINE
  5
1D4
330
1D0
100
AcDbEntity
  8
0
 62
   254
370
    -2
100
AcDbLine
 10
417.4809859999999
 20
293.473096
 30
0.0
 11
417.4809859999999
 21
301.65669
 31
0.0
  0
LINE
  5
1D5
330
1D0
100
AcDbEntity
  8
0
 62
   254
370
    -2
100
AcDbLine
 10
436.5819909999999
 20
300.65669
 30
0.0
 11
420.980986
 21
300.65669
 31
0.0
  0
SOLID
  5
1D6
330
1D0
100
AcDbEntity
  8
0
 62
   254
100
AcDbTrace
 10
436.5819909999999
 20
300.073357
 30
0.0
 11
436.5819909999999
 21
301.240023
 31
0.0
 12
440.081991
 22
300.65669
 32
0.0
 13
440.081991
 23
300.65669
 33
0.0
  0
SOLID
  5
1D7
330
1D0
100
AcDbEntity
  8
0
 62
   254
100
AcDbTrace
 10
420.980986
 20
301.240023
 30
0.0
 11
420.980986
 21
300.073357
 31
0.0
 12
417.4809859999999
 22
300.65669
 32
0.0
 13
417.4809859999999
 23
300.65669
 33
0.0
  0
MTEXT
  5
1D8
330
1D0
100
AcDbEntity
  8
0
 62
   254
370
    13
100
AcDbMText
 10
428.7814889999999
 20
305.90669
 30
0.0
 40
3.5
 41
0.0
 71
     5
 72
     1
  1
\A1;22.6
  7
cesky
 73
     1
 44
1.0
  0
POINT
  5
1D9
330
1D0
100
AcDbEntity
  8
Defpoints
 62
     0
100
AcDbPoint
 10
440.081991
 20
295.665218
 30
0.0
  0
POINT
  5
1DA
330
1D0
100
AcDbEntity
  8
Defpoints
 62
     0
100
AcDbPoint
 10
417.4809859999999
 20
293.473096
 30
0.0
  0
POINT
  5
1DB
330
1D0
100
AcDbEntity
  8
Defpoints
 62
     0
100
AcDbPoint
 10
417.4809859999999
 20
300.65669
 30
0.0
  0
ENDBLK
  5
1D2
330
1D0
100
AcDbEntity
  8
0
100
AcDbBlockEnd
  0
BLOCK
  5
1E3
330
1DC
100
AcDbEntity
  8
0
100
AcDbBlockBegin
  2
_U1
 70
     0
 10
0.0
 20
0.0
 30
0.0
  3
_U1
  1

  0
ENDBLK
  5
1E4
330
1DC
100
AcDbEntity
  8
0
100
AcDbBlockEnd
  0
BLOCK
  5
1E9
330
1E8
100
AcDbEntity
  8
0
100
AcDbBlockBegin
  2
*D6
 70
     1
 10
0.0
 20
0.0
 30
0.0
  3
*D6
  1

  0
LINE
  5
1EB
330
1E8
100
AcDbEntity
  8
0
 62
    95
370
    -2
100
AcDbLine
 10
440.081991
 20
295.665218
 30
0.0
 11
440.081991
 21
314.084184
 31
0.0
  0
LINE
  5
1EC
330
1E8
100
AcDbEntity
  8
0
 62
    95
370
    -2
100
AcDbLine
 10
330.081991
 20
281.6652180000001
 30
0.0
 11
330.081991
 21
314.084184
 31
0.0
  0
LINE
  5
1ED
330
1E8
100
AcDbEntity
  8
0
 62
    95
370
    -2
100
AcDbLine
 10
436.5819909999999
 20
313.084184
 30
0.0
 11
333.581991
 21
313.084184
 31
0.0
  0
SOLID
  5
1EE
330
1E8
100
AcDbEntity
  8
0
 62
    95
100
AcDbTrace
 10
436.5819909999999
 20
312.50085
 30
0.0
 11
436.5819909999999
 21
313.667517
 31
0.0
 12
440.081991
 22
313.084184
 32
0.0
 13
440.081991
 23
313.084184
 33
0.0
  0
SOLID
  5
1EF
330
1E8
100
AcDbEntity
  8
0
 62
    95
100
AcDbTrace
 10
333.581991
 20
313.667517
 30
0.0
 11
333.581991
 21
312.50085
 31
0.0
 12
330.081991
 22
313.084184
 32
0.0
 13
330.081991
 23
313.084184
 33
0.0
  0
MTEXT
  5
1F0
330
1E8
100
AcDbEntity
  8
0
 62
    95
370
    13
100
AcDbMText
 10
385.081991
 20
318.334184
 30
0.0
 40
3.5
 41
0.0
 71
     5
 72
     1
  1
\A1;110
  7
cesky
 73
     1
 44
1.0
  0
POINT
  5
1F1
330
1E8
100
AcDbEntity
  8
Defpoints
 62
     0
100
AcDbPoint
 10
440.081991
 20
295.665218
 30
0.0
  0
POINT
  5
1F2
330
1E8
100
AcDbEntity
  8
Defpoints
 62
     0
100
AcDbPoint
 10
330.081991
 20
281.6652180000001
 30
0.0
  0
POINT
  5
1F3
330
1E8
100
AcDbEntity
  8
Defpoints
 62
     0
100
AcDbPoint
 10
330.081991
 20
313.084184
 30
0.0
  0
ENDBLK
  5
1EA
330
1E8
100
AcDbEntity
  8
0
100
AcDbBlockEnd
  0
BLOCK
  5
1FB
330
1F4
100
AcDbEntity
  8
0
100
AcDbBlockBegin
  2
_U2
 70
     0
 10
0.0
 20
0.0
 30
0.0
  3
_U2
  1

  0
MTEXT
  5
1F5
330
1F4
100
AcDbEntity
  8
96
  6
Continuous
 62
    95
440
 16777216
370
    13
100
AcDbMText
 10
382.004991
 20
312.95835
 30
0.0
 40
3.5
 41
0.0
 71
     7
 72
     5
  1
\W0.8488;110
  7
cesky
 73
     2
 44
0.8433729999999998
  0
LINE
  5
1F6
330
1F4
100
AcDbEntity
  8
96
 62
    95
440
 16777216
370
    13
100
AcDbLine
 10
440.081991
 20
295.665218
 30
0.0
 11
440.081991
 21
314.084184
 31
0.0
  0
LINE
  5
1F7
330
1F4
100
AcDbEntity
  8
96
 62
    95
440
 16777216
370
    13
100
AcDbLine
 10
330.081991
 20
281.6652180000001
 30
0.0
 11
330.081991
 21
314.084184
 31
0.0
  0
LINE
  5
1F8
330
1F4
100
AcDbEntity
  8
96
 62
    95
440
 16777216
370
    13
100
AcDbLine
 10
440.081991
 20
313.084184
 30
0.0
 11
330.081991
 21
313.084184
 31
0.0
  0
SOLID
  5
1F9
330
1F4
100
AcDbEntity
  8
96
 62
    95
440
 16777216
370
    13
100
AcDbTrace
 10
440.081991
 20
313.084184
 30
0.0
 11
436.581994
 21
312.467039
 31
0.0
 12
436.581989
 22
313.701328
 32
0.0
 13
436.581989
 23
313.701328
 33
0.0
  0
SOLID
  5
1FA
330
1F4
100
AcDbEntity
  8
96
 62
    95
440
 16777216
370
    13
100
AcDbTrace
 10
330.081991
 20
313.084184
 30
0.0
 11
333.581989
 21
313.701328
 31
0.0
 12
333.581994
 22
312.467039
 32
0.0
 13
333.581994
 23
312.467039
 33
0.0
  0
ENDBLK
  5
1FC
330
1F4
100
AcDbEntity
  8
0
100
AcDbBlockEnd
  0
BLOCK
  5
201
330
200
100
AcDbEntity
  8
0
100
AcDbBlockBegin
  2
*D8
 70
     1
 10
0.0
 20
0.0
 30
0.0
  3
*D8
  1

  0
LINE
  5
203
330
200
100
AcDbEntity
  8
0
 62
    95
370
    -2
100
AcDbLine
 10
440.081991
 20
295.665218
 30
0.0
 11
440.081991
 21
324.364648
 31
0.0
  0
LINE
  5
204
330
200
100
AcDbEntity
  8
0
 62
    95
370
    -2
100
AcDbLine
 10
227.581991
 20
281.6652180000001
 30
0.0
 11
227.581991
 21
324.364648
 31
0.0
  0
LINE
  5
205
330
200
100
AcDbEntity
  8
0
 62
    95
370
    -2
100
AcDbLine
 10
436.5819909999999
 20
323.364648
 30
0.0
 11
231.081991
 21
323.364648
 31
0.0
  0
SOLID
  5
206
330
200
100
AcDbEntity
  8
0
 62
    95
100
AcDbTrace
 10
436.5819909999999
 20
322.781315
 30
0.0
 11
436.5819909999999
 21
323.947982
 31
0.0
 12
440.081991
 22
323.364648
 32
0.0
 13
440.081991
 23
323.364648
 33
0.0
  0
SOLID
  5
207
330
200
100
AcDbEntity
  8
0
 62
    95
100
AcDbTrace
 10
231.081991
 20
323.947982
 30
0.0
 11
231.081991
 21
322.781315
 31
0.0
 12
227.581991
 22
323.364648
 32
0.0
 13
227.581991
 23
323.364648
 33
0.0
  0
MTEXT
  5
208
330
200
100
AcDbEntity
  8
0
 62
    95
370
    13
100
AcDbMText
 10
333.831991
 20
328.614648
 30
0.0
 40
3.5
 41
0.0
 71
     5
 72
     1
  1
\A1;212.5
  7
cesky
 73
     1
 44
1.0
  0
POINT
  5
209
330
200
100
AcDbEntity
  8
Defpoints
 62
     0
100
AcDbPoint
 10
440.081991
 20
295.665218
 30
0.0
  0
POINT
  5
20A
330
200
100
AcDbEntity
  8
Defpoints
 62
     0
100
AcDbPoint
 10
227.581991
 20
281.6652180000001
 30
0.0
  0
POINT
  5
20B
330
200
100
AcDbEntity
  8
Defpoints
 62
     0
100
AcDbPoint
 10
227.581991
 20
323.364648
 30
0.0
  0
ENDBLK
  5
202
330
200
100
AcDbEntity
  8
0
100
AcDbBlockEnd
  0
BLOCK
  5
213
330
20C
100
AcDbEntity
  8
0
100
AcDbBlockBegin
  2
_U3
 70
     0
 10
0.0
 20
0.0
 30
0.0
  3
_U3
  1

  0
MTEXT
  5
20D
330
20C
100
AcDbEntity
  8
96
  6
Continuous
 62
    95
440
 16777216
370
    13
100
AcDbMText
 10
328.229991
 20
323.238815
 30
0.0
 40
3.5
 41
0.0
 71
     7
 72
     5
  1
\W0.8654;212,5
  7
cesky
 73
     2
 44
0.8433729999999998
  0
LINE
  5
20E
330
20C
100
AcDbEntity
  8
96
 62
    95
440
 16777216
370
    13
100
AcDbLine
 10
440.081991
 20
295.665218
 30
0.0
 11
440.081991
 21
324.364648
 31
0.0
  0
LINE
  5
20F
330
20C
100
AcDbEntity
  8
96
 62
    95
440
 16777216
370
    13
100
AcDbLine
 10
227.581991
 20
281.6652180000001
 30
0.0
 11
227.581991
 21
324.364648
 31
0.0
  0
LINE
  5
210
330
20C
100
AcDbEntity
  8
96
 62
    95
440
 16777216
370
    13
100
AcDbLine
 10
440.081991
 20
323.364648
 30
0.0
 11
227.581991
 21
323.364648
 31
0.0
  0
SOLID
  5
211
330
20C
100
AcDbEntity
  8
96
 62
    95
440
 16777216
370
    13
100
AcDbTrace
 10
440.081991
 20
323.364648
 30
0.0
 11
436.581994
 21
322.747504
 31
0.0
 12
436.581989
 22
323.981793
 32
0.0
 13
436.581989
 23
323.981793
 33
0.0
  0
SOLID
  5
212
330
20C
100
AcDbEntity
  8
96
 62
    95
440
 16777216
370
    13
100
AcDbTrace
 10
227.581991
 20
323.364648
 30
0.0
 11
231.081989
 21
323.981793
 31
0.0
 12
231.081994
 22
322.747504
 32
0.0
 13
231.081994
 23
322.747504
 33
0.0
  0
ENDBLK
  5
214
330
20C
100
AcDbEntity
  8
0
100
AcDbBlockEnd
  0
BLOCK
  5
2CF
330
2CD
100
AcDbEntity
  8
0
370
    13
100
AcDbBlockBegin
  2
GENAXEH
 70
     0
 10
0.0
 20
0.0
 30
0.0
  3
GENAXEH
  1

  0
LINE
  5
2CE
330
2CD
100
AcDbEntity
  8
0
100
AcDbLine
 10
-1.0
 20
0.0
 30
0.0
 11
1.0
 21
0.0
 31
0.0
  0
ENDBLK
  5
2D0
330
2CD
100
AcDbEntity
  8
0
370
    13
100
AcDbBlockEnd
  0
ENDSEC
  0
SECTION
  2
ENTITIES
  0
POINT
  5
73
102
{ACAD_REACTORS
330
32D
102
}
330
1F
100
AcDbEntity
  8
80
100
AcDbPoint
 10
330.081991
 20
281.6652180000001
 30
0.0
  0
POINT
  5
75
330
1F
100
AcDbEntity
  8
SK6
 60
     1
100
AcDbPoint
 10
331.081991
 20
281.6652180000001
 30
0.0
  0
POINT
  5
77
330
1F
100
AcDbEntity
  8
SK6
 60
     1
100
AcDbPoint
 10
418.096753
 20
281.6652180000001
 30
0.0
  0
POINT
  5
78
330
1F
100
AcDbEntity
  8
SK6
 60
     1
100
AcDbPoint
 10
227.581991
 20
281.6652180000001
 30
0.0
  0
POINT
  5
79
330
1F
100
AcDbEntity
  8
SK6
 60
     1
100
AcDbPoint
 10
331.081991
 20
281.6652180000001
 30
0.0
  0
POINT
  5
7A
330
1F
100
AcDbEntity
  8
SK6
 60
     1
100
AcDbPoint
 10
227.581991
 20
281.6652180000001
 30
0.0
  0
LINE
  5
7B
330
1F
100
AcDbEntity
  8
1
100
AcDbLine
 10
418.096753
 20
285.645216
 30
0.0
 11
418.096753
 21
271.147362
 31
0.0
  0
LINE
  5
7D
330
1F
100
AcDbEntity
  8
1
100
AcDbLine
 10
417.058042
 20
286.111052
 30
0.0
 11
417.058042
 21
270.091048
 31
0.0
  0
LINE
  5
7E
330
1F
100
AcDbEntity
  8
1
100
AcDbLine
 10
350.081991
 20
270.065218
 30
0.0
 11
413.5206959999999
 21
270.065218
 31
0.0
  0
LINE
  5
7F
330
1F
100
AcDbEntity
  8
1
100
AcDbLine
 10
416.1564529999999
 20
293.265218
 30
0.0
 11
413.32212
 21
293.265218
 31
0.0
  0
LINE
  5
80
330
1F
100
AcDbEntity
  8
1
100
AcDbLine
 10
411.8393259999999
 20
293.265218
 30
0.0
 11
350.081991
 21
293.265218
 31
0.0
  0
LINE
  5
81
330
1F
100
AcDbEntity
  8
SK1
100
AcDbLine
 10
228.781991
 20
269.215218
 30
0.0
 11
235.729059
 21
269.215218
 31
0.0
  0
LINE
  5
82
330
1F
100
AcDbEntity
  8
SK1
100
AcDbLine
 10
235.729059
 20
294.115218
 30
0.0
 11
228.781991
 21
294.115218
 31
0.0
  0
LINE
  5
83
330
1F
100
AcDbEntity
  8
SK1
100
AcDbLine
 10
227.581991
 20
270.415218
 30
0.0
 11
227.581991
 21
292.915218
 31
0.0
  0
LINE
  5
84
330
1F
100
AcDbEntity
  8
SK1
100
AcDbLine
 10
235.729059
 20
294.115218
 30
0.0
 11
235.729059
 21
269.215218
 31
0.0
  0
LINE
  5
85
330
1F
100
AcDbEntity
  8
SK1
100
AcDbLine
 10
235.729059
 20
269.215218
 30
0.0
 11
236.481991
 21
268.462286
 31
0.0
  0
LINE
  5
86
330
1F
100
AcDbEntity
  8
SK1
100
AcDbLine
 10
236.481991
 20
294.86815
 30
0.0
 11
235.729059
 21
294.115218
 31
0.0
  0
LINE
  5
87
330
1F
100
AcDbEntity
  8
SK1
100
AcDbLine
 10
268.581991
 20
295.70171
 30
0.0
 11
268.581991
 21
267.628726
 31
0.0
  0
LINE
  5
88
330
1F
100
AcDbEntity
  8
SK1
100
AcDbLine
 10
236.481991
 20
294.86815
 30
0.0
 11
236.481991
 21
268.462286
 31
0.0
  0
LINE
  5
89
330
1F
100
AcDbEntity
  8
SK1
100
AcDbLine
 10
236.481991
 20
268.462286
 30
0.0
 11
268.581991
 21
267.628726
 31
0.0
  0
LINE
  5
8A
330
1F
100
AcDbEntity
  8
SK1
100
AcDbLine
 10
268.581991
 20
295.70171
 30
0.0
 11
236.481991
 21
294.86815
 31
0.0
  0
LINE
  5
8B
330
1F
100
AcDbEntity
  8
SK1
100
AcDbLine
 10
268.581991
 20
268.128894
 30
0.0
 11
299.581991
 21
267.3238990000001
 31
0.0
  0
LINE
  5
8C
330
1F
100
AcDbEntity
  8
SK1
100
AcDbLine
 10
299.581991
 20
296.006537
 30
0.0
 11
268.581991
 21
295.201542
 31
0.0
  0
LINE
  5
8D
330
1F
100
AcDbEntity
  8
1
100
AcDbLine
 10
350.081991
 20
293.265218
 30
0.0
 11
350.081991
 21
270.065218
 31
0.0
  0
LINE
  5
8E
330
1F
100
AcDbEntity
  8
1
100
AcDbLine
 10
350.081991
 20
293.265218
 30
0.0
 11
336.581991
 21
296.665218
 31
0.0
  0
LINE
  5
8F
330
1F
100
AcDbEntity
  8
1
100
AcDbLine
 10
336.581991
 20
266.665218
 30
0.0
 11
350.081991
 21
270.065218
 31
0.0
  0
LINE
  5
90
330
1F
100
AcDbEntity
  8
1
100
AcDbLine
 10
336.581991
 20
296.665218
 30
0.0
 11
336.581991
 21
266.665218
 31
0.0
  0
LINE
  5
91
330
1F
100
AcDbEntity
  8
1
100
AcDbLine
 10
331.081991
 20
266.665218
 30
0.0
 11
336.581991
 21
266.665218
 31
0.0
  0
LINE
  5
92
330
1F
100
AcDbEntity
  8
1
100
AcDbLine
 10
336.581991
 20
296.665218
 30
0.0
 11
331.081991
 21
296.665218
 31
0.0
  0
LINE
  5
93
330
1F
100
AcDbEntity
  8
SK1
100
AcDbLine
 10
331.081991
 20
297.324686
 30
0.0
 11
331.081991
 21
266.00575
 31
0.0
  0
LINE
  5
94
330
1F
100
AcDbEntity
  8
SK1
100
AcDbLine
 10
299.581991
 20
296.506706
 30
0.0
 11
299.581991
 21
266.8237299999999
 31
0.0
  0
LINE
  5
95
330
1F
100
AcDbEntity
  8
SK1
100
AcDbLine
 10
299.581991
 20
266.8237299999999
 30
0.0
 11
331.081991
 21
266.00575
 31
0.0
  0
LINE
  5
96
330
1F
100
AcDbEntity
  8
SK1
100
AcDbLine
 10
331.081991
 20
297.324686
 30
0.0
 11
299.581991
 21
296.506706
 31
0.0
  0
LINE
  5
97
330
1F
100
AcDbEntity
  8
1
100
AcDbLine
 10
426.740173
 20
277.098004
 30
0.0
 11
425.941391
 21
277.098004
 31
0.0
  0
LINE
  5
99
330
1F
100
AcDbEntity
  8
1
100
AcDbLine
 10
415.730149
 20
269.937259
 30
0.0
 11
415.6419819999999
 21
269.947124
 31
0.0
  0
LINE
  5
9B
330
1F
100
AcDbEntity
  8
1
100
AcDbLine
 10
415.89712
 20
269.924302
 30
0.0
 11
427.476337
 21
269.403818
 31
0.0
  0
LINE
  5
9C
330
1F
100
AcDbEntity
  8
1
100
AcDbLine
 10
426.7770599999999
 20
270.067363
 30
0.0
 11
417.4471999999999
 21
270.486759
 31
0.0
  0
LINE
  5
9D
330
1F
100
AcDbEntity
  8
1
100
AcDbLine
 10
438.4145969999999
 20
278.695108
 30
0.0
 11
438.612194
 21
278.65416
 31
0.0
  0
LINE
  5
9E
330
1F
100
AcDbEntity
  8
1
100
AcDbLine
 10
426.7790599999999
 20
270.067273
 30
0.0
 11
426.776566
 21
270.193833
 31
0.0
  0
LINE
  5
9F
330
1F
100
AcDbEntity
  8
1
100
AcDbLine
 10
438.725923
 20
281.229752
 30
0.0
 11
438.8010099999999
 21
281.226571
 31
0.0
  0
LINE
  5
A0
330
1F
100
AcDbEntity
  8
SK1
100
AcDbLine
 10
330.081991
 20
281.6652180000001
 30
0.0
 11
331.081991
 21
281.6652180000001
 31
0.0
  0
LINE
  5
A1
330
1F
100
AcDbEntity
  8
81
100
AcDbLine
 10
440.081991
 20
292.6652180000001
 30
0.0
 11
440.081991
 21
295.665218
 31
0.0
  0
LINE
  5
A2
330
1F
100
AcDbEntity
  8
81
100
AcDbLine
 10
438.581991
 20
294.1652180000001
 30
0.0
 11
441.581991
 21
294.1652180000001
 31
0.0
  0
LINE
  5
A3
330
1F
100
AcDbEntity
  8
1
100
AcDbLine
 10
432.1443249999999
 20
281.858874
 30
0.0
 11
432.1443249999999
 21
271.919303
 31
0.0
  0
LINE
  5
A4
330
1F
100
AcDbEntity
  8
1
100
AcDbLine
 10
432.1043379999999
 20
281.861972
 30
0.0
 11
432.1043379999999
 21
271.990265
 31
0.0
  0
LINE
  5
A5
330
1F
100
AcDbEntity
  8
1
100
AcDbLine
 10
417.454964
 20
289.58697
 30
0.0
 11
417.5607499999999
 21
289.367431
 31
0.0
  0
LINE
  5
A6
330
1F
100
AcDbEntity
  8
1
100
AcDbLine
 10
416.5576149999999
 20
292.492076
 30
0.0
 11
416.5576859999999
 21
292.407308
 31
0.0
  0
LINE
  5
A7
330
1F
100
AcDbEntity
  8
1
100
AcDbLine
 10
427.4765209999999
 20
293.922393
 30
0.0
 11
417.4809859999999
 21
293.473096
 31
0.0
  0
LINE
  5
A8
330
1F
100
AcDbEntity
  8
1
100
AcDbLine
 10
438.571496
 20
281.24248
 30
0.0
 11
427.054654
 21
282.567736
 31
0.0
  0
LINE
  5
AD
330
1F
100
AcDbEntity
  8
1
100
AcDbLine
 10
417.4476539999999
 20
289.071003
 30
0.0
 11
417.3322309999999
 21
289.851995
 31
0.0
  0
LINE
  5
AE
330
1F
100
AcDbEntity
  8
1
100
AcDbLine
 10
416.8395549999999
 20
293.185627
 30
0.0
 11
416.836346
 21
293.207343
 31
0.0
  0
LINE
  5
AF
330
1F
100
AcDbEntity
  8
1
100
AcDbLine
 10
431.4918379999999
 20
281.996809
 30
0.0
 11
432.0804339999999
 21
281.929079
 31
0.0
  0
LINE
  5
B0
330
1F
100
AcDbEntity
  8
1
100
AcDbLine
 10
416.5053819999999
 20
292.7255
 30
0.0
 11
416.5596299999999
 21
292.35844
 31
0.0
  0
LINE
  5
B1
330
1F
100
AcDbEntity
  8
1
100
AcDbLine
 10
416.5683679999999
 20
292.299317
 30
0.0
 11
417.0629299999999
 21
288.952922
 31
0.0
  0
LINE
  5
B2
330
1F
100
AcDbEntity
  8
1
100
AcDbLine
 10
438.621991
 20
281.237156
 30
0.0
 11
438.621991
 21
280.9718
 31
0.0
  0
LINE
  5
B3
330
1F
100
AcDbEntity
  8
1
100
AcDbLine
 10
438.566749
 20
280.983627
 30
0.0
 11
435.1313949999999
 21
281.485687
 31
0.0
  0
LINE
  5
B4
330
1F
100
AcDbEntity
  8
1
100
AcDbLine
 10
438.2596969999999
 20
278.417521
 30
0.0
 11
437.5462289999999
 21
278.329973
 31
0.0
  0
LINE
  5
B5
330
1F
100
AcDbEntity
  8
1
100
AcDbLine
 10
436.5453389999999
 20
278.469016
 30
0.0
 11
435.343181
 21
274.605591
 31
0.0
  0
LINE
  5
B6
330
1F
100
AcDbEntity
  8
1
100
AcDbLine
 10
436.5453389999999
 20
278.469016
 30
0.0
 11
437.5462289999999
 21
278.329973
 31
0.0
  0
LINE
  5
B7
330
1F
100
AcDbEntity
  8
1
100
AcDbLine
 10
434.309388
 20
274.621399
 30
0.0
 11
434.309388
 21
273.422343
 31
0.0
  0
LINE
  5
B8
330
1F
100
AcDbEntity
  8
1
100
AcDbLine
 10
434.309388
 20
281.5926819999999
 30
0.0
 11
434.309388
 21
280.253034
 31
0.0
  0
LINE
  5
B9
330
1F
100
AcDbEntity
  8
SK1
100
AcDbLine
 10
330.081991
 20
281.6652180000001
 30
0.0
 11
330.081991
 21
280.665218
 31
0.0
  0
LINE
  5
BA
330
1F
100
AcDbEntity
  8
1
100
AcDbLine
 10
428.249659
 20
286.998434
 30
0.0
 11
427.9322549999999
 21
286.998434
 31
0.0
  0
LINE
  5
BB
330
1F
100
AcDbEntity
  8
1
100
AcDbLine
 10
426.9974269999999
 20
289.457982
 30
0.0
 11
427.3148309999999
 21
289.457982
 31
0.0
  0
LINE
  5
BC
330
1F
100
AcDbEntity
  8
1
100
AcDbLine
 10
427.6433269999999
 20
285.378208
 30
0.0
 11
427.717811
 21
285.378208
 31
0.0
  0
LINE
  5
BD
330
1F
100
AcDbEntity
  8
1
100
AcDbLine
 10
427.717811
 20
291.078208
 30
0.0
 11
427.6433269999999
 21
291.078208
 31
0.0
  0
LINE
  5
BE
330
1F
100
AcDbEntity
  8
1
100
AcDbLine
 10
426.5345729999999
 20
287.496172
 30
0.0
 11
426.378734
 21
287.496172
 31
0.0
  0
LINE
  5
BF
330
1F
100
AcDbEntity
  8
1
100
AcDbLine
 10
437.0095459999999
 20
276.942161
 30
0.0
 11
436.309198
 21
274.691483
 31
0.0
  0
LINE
  5
C0
330
1F
100
AcDbEntity
  8
1
100
AcDbLine
 10
426.711161
 20
270.766603
 30
0.0
 11
425.627811
 21
270.815259
 31
0.0
  0
LINE
  5
C1
330
1F
100
AcDbEntity
  8
1
100
AcDbLine
 10
436.268674
 20
277.103168
 30
0.0
 11
435.5811769999999
 21
274.893474
 31
0.0
  0
LINE
  5
C2
330
1F
100
AcDbEntity
  8
1
100
AcDbLine
 10
438.621991
 20
279.558792
 30
0.0
 11
438.621991
 21
280.971795
 31
0.0
  0
LINE
  5
C3
330
1F
100
AcDbEntity
  8
1
100
AcDbLine
 10
429.269391
 20
288.2159430000001
 30
0.0
 11
428.9636799999999
 21
288.2159430000001
 31
0.0
  0
LINE
  5
C4
330
1F
100
AcDbEntity
  8
1
100
AcDbLine
 10
428.721287
 20
288.960244
 30
0.0
 11
429.0299169999999
 21
288.960244
 31
0.0
  0
LINE
  5
C5
330
1F
100
AcDbEntity
  8
NOCUT
100
AcDbLine
 10
282.581951
 20
281.665279
 30
0.0
 11
438.621991
 21
281.665279
 31
0.0
  0
LINE
  5
C7
330
1F
100
AcDbEntity
  8
NOCUT
100
AcDbLine
 10
278.54054
 20
288.665218
 30
0.0
 11
259.581991
 21
288.665218
 31
0.0
  0
LINE
  5
C8
330
1F
100
AcDbEntity
  8
NOCUT
100
AcDbLine
 10
259.581991
 20
288.665218
 30
0.0
 11
259.581991
 21
289.665218
 31
0.0
  0
LINE
  5
C9
330
1F
100
AcDbEntity
  8
NOCUT
100
AcDbLine
 10
259.581991
 20
289.665218
 30
0.0
 11
235.581991
 21
289.665218
 31
0.0
  0
LINE
  5
CA
330
1F
100
AcDbEntity
  8
NOCUT
100
AcDbLine
 10
235.581991
 20
289.665218
 30
0.0
 11
235.581991
 21
290.1652180000001
 31
0.0
  0
LINE
  5
CB
330
1F
100
AcDbEntity
  8
NOCUT
100
AcDbLine
 10
235.581991
 20
290.1652180000001
 30
0.0
 11
230.324405
 21
290.1652180000001
 31
0.0
  0
LINE
  5
CC
330
1F
100
AcDbEntity
  8
NOCUT
100
AcDbLine
 10
227.581991
 20
292.215218
 30
0.0
 11
227.581991
 21
292.915218
 31
0.0
  0
LINE
  5
CD
330
1F
100
AcDbEntity
  8
NOCUT
100
AcDbLine
 10
228.781991
 20
294.115218
 30
0.0
 11
235.729059
 21
294.115218
 31
0.0
  0
LINE
  5
CE
330
1F
100
AcDbEntity
  8
NOCUT
100
AcDbLine
 10
268.581991
 20
295.70171
 30
0.0
 11
268.581991
 21
295.201542
 31
0.0
  0
LINE
  5
CF
330
1F
100
AcDbEntity
  8
NOCUT
100
AcDbLine
 10
299.581991
 20
296.006537
 30
0.0
 11
299.581991
 21
296.506706
 31
0.0
  0
LINE
  5
D0
330
1F
100
AcDbEntity
  8
NOCUT
100
AcDbLine
 10
331.081991
 20
297.324686
 30
0.0
 11
331.081991
 21
296.665218
 31
0.0
  0
LINE
  5
D1
330
1F
100
AcDbEntity
  8
NOCUT
100
AcDbLine
 10
331.081991
 20
296.665218
 30
0.0
 11
336.581991
 21
296.665218
 31
0.0
  0
LINE
  5
D2
330
1F
100
AcDbEntity
  8
NOCUT
100
AcDbLine
 10
350.081991
 20
293.265218
 30
0.0
 11
417.058042
 21
293.265218
 31
0.0
  0
LINE
  5
D3
330
1F
100
AcDbEntity
  8
NOCUT
100
AcDbLine
 10
438.621991
 20
283.771644
 30
0.0
 11
438.621991
 21
281.665279
 31
0.0
  0
ARC
  5
E1
330
1F
100
AcDbEntity
  8
SK1
100
AcDbCircle
 10
228.781991
 20
270.415218
 30
0.0
 40
1.199999999999999
100
AcDbArc
 50
180.0
 51
270.0
  0
ARC
  5
E2
330
1F
100
AcDbEntity
  8
SK1
100
AcDbCircle
 10
228.781991
 20
292.915218
 30
0.0
 40
1.199999999999999
100
AcDbArc
 50
90.0
 51
180.0
  0
ARC
  5
E3
330
1F
100
AcDbEntity
  8
1
100
AcDbCircle
 10
427.621856
 20
281.6652180000001
 30
0.0
 40
11.2
100
AcDbArc
 50
346.086247
 51
349.15961
  0
ARC
  5
F0
330
1F
100
AcDbEntity
  8
NOCUT
100
AcDbCircle
 10
427.621856
 20
281.6652180000001
 30
0.0
 40
11.19999999994225
100
AcDbArc
 50
66.40796899999999
 51
94.0
  0
ARC
  5
F1
330
1F
100
AcDbEntity
  8
NOCUT
100
AcDbCircle
 10
427.621856
 20
281.6652180000001
 30
0.0
 40
11.39999999994327
100
AcDbArc
 50
53.70491099999999
 51
66.29508900000001
  0
ARC
  5
F2
330
1F
100
AcDbEntity
  8
NOCUT
100
AcDbCircle
 10
427.621856
 20
281.6652180000001
 30
0.0
 40
11.19999999994225
100
AcDbArc
 50
10.84039
 51
53.59203100000001
  0
ELLIPSE
  5
F3
330
1F
100
AcDbEntity
  8
1
100
AcDbEllipse
 10
432.054928
 20
279.581825
 30
0.0
 11
-29.8621534957202
 21
11.51682116063275
 31
0.0
210
0.0
220
0.0
230
0.9999999999999998
 40
0.022534
 41
4.980715937337418
 42
5.207429658131877
  0
ELLIPSE
  5
F4
330
1F
100
AcDbEntity
  8
1
100
AcDbEllipse
 10
405.676256
 20
281.6652180000001
 30
0.0
 11
-54.9703930306698
 21
0.0000000000000644
 31
0.0
210
0.0
220
0.0
230
1.0
 40
0.161869
 41
1.926212488281707
 42
1.96601846699866
  0
ELLIPSE
  5
F5
330
1F
100
AcDbEntity
  8
1
100
AcDbEllipse
 10
412.6702439999999
 20
281.665217
 30
0.0
 11
-65.78686716827217
 21
0.0000000000000771
 31
0.0
210
0.0
220
0.0
230
1.0
 40
0.176327
 41
1.612507660666455
 42
1.637543049864533
  0
ELLIPSE
  5
F6
330
1F
100
AcDbEntity
  8
1
100
AcDbEllipse
 10
426.649711
 20
281.6652180000001
 30
0.0
 11
-30.02429875970881
 21
11.57958396537565
 31
0.0
210
0.0
220
0.0
230
1.0
 40
0.022912
 41
5.046375524997949
 42
5.204588949833938
  0
ELLIPSE
  5
F7
330
1F
100
AcDbEntity
  8
1
100
AcDbEllipse
 10
436.338791
 20
281.6652180000001
 30
0.0
 11
-65.78686941961374
 21
0.0000000000000771
 31
0.0
210
0.0
220
0.0
230
1.0
 40
0.176327
 41
5.018633205579451
 42
5.06053657580813
  0
ELLIPSE
  5
F8
330
1F
100
AcDbEntity
  8
1
100
AcDbEllipse
 10
418.688584
 20
281.6652180000001
 30
0.0
 11
-1.711148959902894
 21
11.59646185019125
 31
0.0
210
0.0
220
0.0
230
0.9999999999999998
 40
0.167421
 41
0.0752344069769954
 42
0.2815449099092759
  0
ELLIPSE
  5
F9
330
1F
100
AcDbEntity
  8
1
100
AcDbEllipse
 10
418.391126
 20
281.66519
 30
0.0
 11
-1.822350245395436
 21
11.59578284338324
 31
0.0
210
0.0
220
0.0
230
0.9999999999999998
 40
0.172203
 41
6.1561955522219
 42
6.170616913464732
  0
ELLIPSE
  5
FA
330
1F
100
AcDbEntity
  8
1
100
AcDbEllipse
 10
426.740173
 20
275.098004
 30
0.0
 11
-0.0000000000000001
 21
-2.0
 31
0.0
210
0.0
220
0.0
230
1.0
 40
0.9848079999999999
 41
2.877737408844686
 42
3.141533142688676
  0
ELLIPSE
  5
FB
330
1F
100
AcDbEntity
  8
1
100
AcDbEllipse
 10
425.941391
 20
275.098004
 30
0.0
 11
0.0
 21
2.0
 31
0.0
210
0.0
220
0.0
230
1.0
 40
0.9848079999999999
 41
0.0
 42
6.283185307179585
  0
ELLIPSE
  5
FC
330
1F
100
AcDbEntity
  8
1
100
AcDbEllipse
 10
425.8719319999999
 20
275.098004
 30
0.0
 11
0.0
 21
1.6
 31
0.0
210
0.0
220
0.0
230
1.0
 40
0.9848079999999999
 41
0.0
 42
6.283185307179585
  0
ELLIPSE
  5
100
330
1F
100
AcDbEntity
  8
1
100
AcDbEllipse
 10
438.419012
 20
277.692972
 30
0.0
 11
0.0
 21
0.9809999999999998
 31
0.0
210
0.0
220
0.0
230
0.9999999999999998
 40
0.9848079999999999
 41
4.35310119588369
 42
6.081867627102147
  0
ELLIPSE
  5
101
330
1F
100
AcDbEntity
  8
1
100
AcDbEllipse
 10
415.834196
 20
269.957277
 30
0.0
 11
-0.278460295088857
 21
0.0195450724441853
 31
0.0
210
0.0
220
0.0
230
1.0
 40
0.104948
 41
1.195233231881899
 42
1.806098470079523
  0
ELLIPSE
  5
102
330
1F
100
AcDbEntity
  8
1
100
AcDbEllipse
 10
426.896225
 20
275.098004
 30
0.0
 11
-0.0000000000000001
 21
-2.35
 31
0.0
210
0.0
220
0.0
230
1.0
 40
0.9848079999999999
 41
3.271025803724845
 42
3.71241971977308
  0
ELLIPSE
  5
103
330
1F
100
AcDbEntity
  8
1
100
AcDbEllipse
 10
428.010748
 20
281.662518
 30
0.0
 11
0.0
 21
12.27070460253211
 31
0.0
210
0.0
220
0.0
230
1.0
 40
0.9848079999999999
 41
3.097354606191839
 42
4.35310119588369
  0
ELLIPSE
  5
104
330
1F
100
AcDbEntity
  8
1
100
AcDbEllipse
 10
426.7053429999999
 20
270.057159
 30
0.0
 11
0.0179470527638282
 21
0.3995971762876865
 31
0.0
210
0.0
220
0.0
230
1.0
 40
0.173479
 41
5.069246092127182
 42
5.505578405125699
  0
ELLIPSE
  5
105
330
1F
100
AcDbEntity
  8
1
100
AcDbEllipse
 10
436.098295
 20
274.348922
 30
0.0
 11
-0.3130396475825599
 21
0.2490103994643332
 31
0.0
210
0.0
220
0.0
230
1.0
 40
0.109113
 41
4.925136114976362
 42
5.361468427975113
  0
ELLIPSE
  5
106
330
1F
100
AcDbEntity
  8
1
100
AcDbEllipse
 10
427.3435909999999
 20
280.548684
 30
0.0
 11
-12.18860715763136
 21
1.87973612099051
 31
0.0
210
0.0
220
0.0
230
0.9999999999999998
 40
0.615147
 41
2.479097792043975
 42
2.959524283685686
  0
ELLIPSE
  5
107
330
1F
100
AcDbEntity
  8
1
100
AcDbEllipse
 10
439.441065
 20
285.154635
 30
0.0
 11
0.0279581485308131
 21
-0.1473714420460389
 31
0.0
210
0.0
220
0.0
230
1.0
 40
0.170695
 41
1.518761677361106
 42
1.538424796361641
  0
ELLIPSE
  5
108
330
1F
100
AcDbEntity
  8
1
100
AcDbEllipse
 10
428.091894
 20
281.545923
 30
0.0
 11
-0.833230459940419
 21
12.96595453775154
 31
0.0
210
0.0
220
0.0
230
1.0
 40
0.9232889999999999
 41
4.719187974291942
 42
4.965433314934629
  0
ELLIPSE
  5
109
330
1F
100
AcDbEntity
  8
1
100
AcDbEllipse
 10
438.569694
 20
281.27057
 30
0.0
 11
-0.2697908154774809
 21
0.031563904797073
 31
0.0
210
0.0
220
0.0
230
0.9999999999999996
 40
0.101961
 41
1.589402086644112
 42
2.200267324898593
  0
ELLIPSE
  5
10A
330
1F
100
AcDbEntity
  8
1
100
AcDbEllipse
 10
427.680175
 20
288.228208
 30
0.0
 11
0.0
 21
3.163429519687671
 31
0.0
210
0.0
220
0.0
230
1.0
 40
0.9848079999999999
 41
0.1311227388922075
 42
0.5191094515043563
  0
ELLIPSE
  5
10B
330
1F
100
AcDbEntity
  8
1
100
AcDbEllipse
 10
427.680175
 20
288.228208
 30
0.0
 11
0.0
 21
3.163429519687671
 31
0.0
210
0.0
220
0.0
230
1.0
 40
0.9848079999999999
 41
2.62240570748033
 42
3.028751057552559
  0
ELLIPSE
  5
10C
330
1F
100
AcDbEntity
  8
1
100
AcDbEllipse
 10
429.270153
 20
288.311257
 30
0.0
 11
0.0
 21
-0.0953174225105393
 31
0.0
210
0.0
220
0.0
230
0.9999999999999998
 40
0.9848080000000001
 41
6.275063477017773
 42
7.475394169496621
  0
ELLIPSE
  5
10D
330
1F
100
AcDbEntity
  8
1
100
AcDbEllipse
 10
429.268628
 20
288.120629
 30
0.0
 11
0.0
 21
-0.0953174225105393
 31
0.0
210
0.0
220
0.0
230
0.9999999999999998
 40
0.9848080000000001
 41
3.133470823427828
 42
3.810202740308531
  0
ELLIPSE
  5
10E
330
1F
100
AcDbEntity
  8
1
100
AcDbEllipse
 10
429.577272
 20
287.72391
 30
0.0
 11
0.0
 21
-0.6008944156305267
 31
0.0
210
0.0
220
0.0
230
1.0
 40
0.9848080000000001
 41
3.810202740308589
 42
5.074732784538757
  0
ELLIPSE
  5
10F
330
1F
100
AcDbEntity
  8
1
100
AcDbEllipse
 10
429.1117049999999
 20
287.5447
 30
0.0
 11
0.0
 21
-0.0953174225105373
 31
0.0
210
0.0
220
0.0
230
1.0
 40
0.9848079999999999
 41
5.074732784538797
 42
5.751464701419592
  0
ELLIPSE
  5
110
330
1F
100
AcDbEntity
  8
1
100
AcDbEllipse
 10
429.0165179999999
 20
287.380385
 30
0.0
 11
0.0
 21
-0.0953174225105371
 31
0.0
210
0.0
220
0.0
230
1.0
 40
0.9848079999999999
 41
1.409541355350665
 42
2.609872047829632
  0
ELLIPSE
  5
111
330
1F
100
AcDbEntity
  8
1
100
AcDbEllipse
 10
428.525082
 20
287.461559
 30
0.0
 11
0.0
 21
-0.6008944156305269
 31
0.0
210
0.0
220
0.0
230
0.9999999999999998
 40
0.9848080000000001
 41
0.1450113111204891
 42
1.409541355350663
  0
ELLIPSE
  5
112
330
1F
100
AcDbEntity
  8
1
100
AcDbEllipse
 10
428.597029
 20
286.961288
 30
0.0
 11
0.0
 21
-0.0953174225105393
 31
0.0
210
0.0
220
0.0
230
0.9999999999999998
 40
0.9848080000000001
 41
5.227865925821199
 42
6.428196618300161
  0
ELLIPSE
  5
113
330
1F
100
AcDbEntity
  8
1
100
AcDbEllipse
 10
428.433686
 20
286.867315
 30
0.0
 11
0.0
 21
-0.0953174225105393
 31
0.0
210
0.0
220
0.0
230
0.9999999999999998
 40
0.9848080000000001
 41
2.086273272231309
 42
2.763005189112088
  0
ELLIPSE
  5
114
330
1F
100
AcDbEntity
  8
1
100
AcDbEllipse
 10
428.249659
 20
286.397539
 30
0.0
 11
0.0
 21
-0.6008944156305267
 31
0.0
210
0.0
220
0.0
230
1.0
 40
0.9848080000000001
 41
2.763005189111983
 42
4.027535233342151
  0
ELLIPSE
  5
115
330
1F
100
AcDbEntity
  8
1
100
AcDbEllipse
 10
427.8640329999999
 20
286.717347
 30
0.0
 11
0.0
 21
-0.0953174225105373
 31
0.0
210
0.0
220
0.0
230
1.0
 40
0.9848079999999999
 41
4.027535233342102
 42
4.704267150222821
  0
ELLIPSE
  5
116
330
1F
100
AcDbEntity
  8
1
100
AcDbEllipse
 10
427.6763009999999
 20
286.718895
 30
0.0
 11
0.0
 21
-0.0953174225105371
 31
0.0
210
0.0
220
0.0
230
1.0
 40
0.9848079999999999
 41
0.3623438041541464
 42
1.562674496633029
  0
ELLIPSE
  5
117
330
1F
100
AcDbEntity
  8
1
100
AcDbEllipse
 10
427.4998129999999
 20
287.191644
 30
0.0
 11
0.0
 21
-0.6008944156305269
 31
0.0
210
0.0
220
0.0
230
0.9999999999999998
 40
0.9848080000000001
 41
5.380999067103463
 42
6.645529111333627
  0
ELLIPSE
  5
118
330
1F
100
AcDbEntity
  8
1
100
AcDbEllipse
 10
427.1091219999999
 20
286.878239
 30
0.0
 11
0.0
 21
-0.0953174225105393
 31
0.0
210
0.0
220
0.0
230
0.9999999999999998
 40
0.9848080000000001
 41
4.18066837462445
 42
5.380999067103434
  0
ELLIPSE
  5
119
330
1F
100
AcDbEntity
  8
1
100
AcDbEllipse
 10
426.947303
 20
286.974894
 30
0.0
 11
0.0
 21
-0.0953174225105393
 31
0.0
210
0.0
220
0.0
230
0.9999999999999998
 40
0.9848080000000001
 41
1.039075721034733
 42
1.715807637915415
  0
ELLIPSE
  5
11A
330
1F
100
AcDbEntity
  8
1
100
AcDbEllipse
 10
426.4546329999999
 20
286.901837
 30
0.0
 11
0.0
 21
-0.6008944156305267
 31
0.0
210
0.0
220
0.0
230
1.0
 40
0.9848080000000001
 41
1.715807637915378
 42
2.980337682145527
  0
ELLIPSE
  5
11B
330
1F
100
AcDbEntity
  8
1
100
AcDbEllipse
 10
426.5345729999999
 20
287.400854
 30
0.0
 11
0.0
 21
-0.0953174225105373
 31
0.0
210
0.0
220
0.0
230
1.0
 40
0.9848079999999999
 41
2.980337682145779
 42
3.657069599026185
  0
ELLIPSE
  5
11C
330
1F
100
AcDbEntity
  8
1
100
AcDbEllipse
 10
426.442028
 20
287.566718
 30
0.0
 11
0.0
 21
-0.0953174225105371
 31
0.0
210
0.0
220
0.0
230
1.0
 40
0.9848079999999999
 41
5.598331560136947
 42
6.798662252615977
  0
ELLIPSE
  5
11D
330
1F
100
AcDbEntity
  8
1
100
AcDbEllipse
 10
426.7569769999999
 20
287.958293
 30
0.0
 11
0.0
 21
-0.6008944156305269
 31
0.0
210
0.0
220
0.0
230
0.9999999999999998
 40
0.9848080000000001
 41
4.333801515906861
 42
5.598331560137058
  0
ELLIPSE
  5
11E
330
1F
100
AcDbEntity
  8
1
100
AcDbEllipse
 10
426.294338
 20
288.145158
 30
0.0
 11
0.0
 21
-0.0953174225105393
 31
0.0
210
0.0
220
0.0
230
0.9999999999999998
 40
0.9848080000000001
 41
3.133470823427981
 42
4.333801515906816
  0
ELLIPSE
  5
11F
330
1F
100
AcDbEntity
  8
1
100
AcDbEllipse
 10
426.295862
 20
288.3357870000001
 30
0.0
 11
0.0
 21
-0.0953174225105393
 31
0.0
210
0.0
220
0.0
230
0.9999999999999998
 40
0.9848080000000001
 41
6.275063477017773
 42
6.951795393898468
  0
ELLIPSE
  5
120
330
1F
100
AcDbEntity
  8
1
100
AcDbEllipse
 10
425.987219
 20
288.732505
 30
0.0
 11
0.0
 21
-0.6008944156305267
 31
0.0
210
0.0
220
0.0
230
1.0
 40
0.9848080000000001
 41
0.6686100867187744
 42
1.933140130948948
  0
ELLIPSE
  5
121
330
1F
100
AcDbEntity
  8
1
100
AcDbEllipse
 10
426.452786
 20
288.911715
 30
0.0
 11
0.0
 21
-0.0953174225105373
 31
0.0
210
0.0
220
0.0
230
1.0
 40
0.9848079999999999
 41
1.933140130949059
 42
2.609872047829818
  0
ELLIPSE
  5
122
330
1F
100
AcDbEntity
  8
1
100
AcDbEllipse
 10
426.547972
 20
289.076031
 30
0.0
 11
0.0
 21
-0.0953174225105371
 31
0.0
210
0.0
220
0.0
230
1.0
 40
0.9848079999999999
 41
4.551134008940421
 42
5.751464701419405
  0
ELLIPSE
  5
123
330
1F
100
AcDbEntity
  8
1
100
AcDbEllipse
 10
427.0394089999999
 20
288.9948569999999
 30
0.0
 11
0.0
 21
-0.6008944156305269
 31
0.0
210
0.0
220
0.0
230
0.9999999999999998
 40
0.9848080000000001
 41
3.286603964710305
 42
4.55113400894045
  0
ELLIPSE
  5
124
330
1F
100
AcDbEntity
  8
1
100
AcDbEllipse
 10
426.967461
 20
289.495127
 30
0.0
 11
0.0
 21
-0.0953174225105393
 31
0.0
210
0.0
220
0.0
230
0.9999999999999998
 40
0.9848080000000001
 41
2.086273272231299
 42
3.286603964710223
  0
ELLIPSE
  5
125
330
1F
100
AcDbEntity
  8
1
100
AcDbEllipse
 10
427.130805
 20
289.589101
 30
0.0
 11
0.0
 21
-0.0953174225105393
 31
0.0
210
0.0
220
0.0
230
0.9999999999999998
 40
0.9848080000000001
 41
5.227865925821101
 42
5.904597842701754
  0
ELLIPSE
  5
126
330
1F
100
AcDbEntity
  8
1
100
AcDbEllipse
 10
427.3148309999999
 20
290.058876
 30
0.0
 11
0.0
 21
-0.6008944156305267
 31
0.0
210
0.0
220
0.0
230
1.0
 40
0.9848080000000001
 41
5.904597842701777
 42
7.169127886931959
  0
ELLIPSE
  5
127
330
1F
100
AcDbEntity
  8
1
100
AcDbEllipse
 10
427.782245
 20
288.228208
 30
0.0
 11
0.0
 21
1.8
 31
0.0
210
0.0
220
0.0
230
1.0
 40
0.9848079999999999
 41
0.0
 42
6.283185307179585
  0
ELLIPSE
  5
128
330
1F
100
AcDbEntity
  8
1
100
AcDbEllipse
 10
425.932345
 20
275.545801
 30
0.0
 11
0.0
 21
2.0
 31
0.0
210
0.0
220
0.0
230
1.0
 40
0.9848079999999999
 41
0.0
 42
6.283185307179585
  0
ELLIPSE
  5
129
330
1F
100
AcDbEntity
  8
1
100
AcDbEllipse
 10
426.302769
 20
281.6652180000001
 30
0.0
 11
0.0
 21
8.230183382933359
 31
0.0
210
0.0
220
0.0
230
1.0
 40
0.9848080000000001
 41
3.207996139709668
 42
3.271624757811621
  0
ELLIPSE
  5
12A
330
1F
100
AcDbEntity
  8
1
100
AcDbEllipse
 10
427.1710099999999
 20
281.6652180000001
 30
0.0
 11
-0.0000000000000007
 21
-10.8949126251961
 31
0.0
210
0.0
220
0.0
230
1.0
 40
0.9848079999999999
 41
6.252384083570349
 42
6.760950282355548
  0
ELLIPSE
  5
12B
330
1F
100
AcDbEntity
  8
1
100
AcDbEllipse
 10
427.6764059999999
 20
282.154007
 30
0.0
 11
-11.12015627046757
 21
1.241024477364708
 31
0.0
210
0.0
220
0.0
230
1.0
 40
0.019553
 41
4.305029623491171
 42
4.635888458634096
  0
ELLIPSE
  5
12C
330
1F
100
AcDbEntity
  8
1
100
AcDbEllipse
 10
439.8436669999999
 20
281.6652180000001
 30
0.0
 11
-68.52032216850095
 21
0.0000000000000803
 31
0.0
210
0.0
220
0.0
230
1.0
 40
0.161869
 41
1.247831973150504
 42
1.379868713294373
  0
ELLIPSE
  5
12D
330
1F
100
AcDbEntity
  8
1
100
AcDbEllipse
 10
420.6760849999999
 20
294.211742
 30
0.0
 11
-0.6005800956713058
 21
7.66130400266283
 31
0.0
210
0.0
220
0.0
230
0.9999999999999998
 40
0.5644960000000001
 41
1.781938874900141
 42
2.173906767068356
  0
ELLIPSE
  5
12E
330
1F
100
AcDbEntity
  8
1
100
AcDbEllipse
 10
428.010932
 20
281.663694
 30
0.0
 11
0.0
 21
12.27070460253211
 31
0.0
210
0.0
220
0.0
230
1.0
 40
0.9848079999999999
 41
5.0656487766818
 42
6.327423354577536
  0
ELLIPSE
  5
12F
330
1F
100
AcDbEntity
  8
1
100
AcDbEllipse
 10
417.523711
 20
292.493056
 30
0.0
 11
0.0
 21
0.9809999999999998
 31
0.0
210
0.0
220
0.0
230
0.9999999999999998
 40
0.9848079999999999
 41
0.0442380473979264
 42
1.7730044786164
  0
ELLIPSE
  5
130
330
1F
100
AcDbEntity
  8
1
100
AcDbEllipse
 10
428.4153719999999
 20
294.760401
 30
0.0
 11
0.0
 21
12.27070460253211
 31
0.0
210
0.0
220
0.0
230
1.0
 40
0.9848079999999999
 41
1.773004478616402
 42
2.665094674845191
  0
ELLIPSE
  5
131
330
1F
100
AcDbEntity
  8
1
100
AcDbEllipse
 10
428.4153719999999
 20
294.760401
 30
0.0
 11
0.0
 21
12.27070460253211
 31
0.0
210
0.0
220
0.0
230
1.0
 40
0.9848079999999999
 41
2.961078065755238
 42
3.028751068308256
  0
ELLIPSE
  5
134
330
1F
100
AcDbEntity
  8
1
100
AcDbEllipse
 10
427.709804
 20
294.784445
 30
0.0
 11
0.0
 21
11.8374680033396
 31
0.0
210
0.0
220
0.0
230
0.9999999999999998
 40
0.9848079999999999
 41
2.468552279829688
 42
2.483003559358896
  0
ELLIPSE
  5
135
330
1F
100
AcDbEntity
  8
1
100
AcDbEllipse
 10
432.4131079999999
 20
284.909999
 30
0.0
 11
0.0
 21
3.0
 31
0.0
210
0.0
220
0.0
230
1.0
 40
0.9848079999999999
 41
3.028751068311126
 42
3.229000931073723
  0
ELLIPSE
  5
136
330
1F
100
AcDbEntity
  8
1
100
AcDbEllipse
 10
431.824513
 20
284.97773
 30
0.0
 11
0.0
 21
3.0
 31
0.0
210
0.0
220
0.0
230
1.0
 40
0.9848079999999999
 41
2.828501018200311
 42
3.028751068311126
  0
ELLIPSE
  5
137
330
1F
100
AcDbEntity
  8
1
100
AcDbEllipse
 10
428.0935659999999
 20
294.784445
 30
0.0
 11
-0.0000000000000007
 21
-12.16775471632116
 31
0.0
210
0.0
220
0.0
230
0.9999999999999998
 40
0.9848079999999999
 41
5.566743809224485
 42
5.814436718918686
  0
ELLIPSE
  5
138
330
1F
100
AcDbEntity
  8
1
100
AcDbEllipse
 10
420.905674
 20
288.527299
 30
0.0
 11
0.0
 21
3.0
 31
0.0
210
0.0
220
0.0
230
1.0
 40
0.9848079999999999
 41
2.084831947755689
 42
2.908881173461323
  0
ELLIPSE
  5
139
330
1F
100
AcDbEntity
  8
1
100
AcDbEllipse
 10
419.649294
 20
289.347044
 30
0.0
 11
-0.0000000000000002
 21
-2.65567111143738
 31
0.0
210
0.0
220
0.0
230
1.0
 40
0.9848079999999999
 41
4.861346782905169
 42
5.75579750279688
  0
ELLIPSE
  5
13A
330
1F
100
AcDbEntity
  8
1
100
AcDbEllipse
 10
427.1710099999999
 20
281.6652180000001
 30
0.0
 11
-0.0000000000000007
 21
-10.8949126251961
 31
0.0
210
0.0
220
0.0
230
1.0
 40
0.9848079999999999
 41
0.7279116051646833
 42
0.8658740358752735
  0
ELLIPSE
  5
13B
330
1F
100
AcDbEntity
  8
1
100
AcDbEllipse
 10
426.646269
 20
275.545801
 30
0.0
 11
0.0
 21
2.0
 31
0.0
210
0.0
220
0.0
230
1.0
 40
0.9848079999999999
 41
0.1822123378554906
 42
0.7716534340648078
  0
ELLIPSE
  5
13C
330
1F
100
AcDbEntity
  8
1
100
AcDbEllipse
 10
436.117241
 20
278.742887
 30
0.0
 11
1.413897323650274
 21
4.110281055827373
 31
0.0
210
0.0
220
0.0
230
0.9999999999999998
 40
0.492418
 41
4.802056488509794
 42
5.447651152971123
  0
ELLIPSE
  5
13D
330
1F
100
AcDbEntity
  8
1
100
AcDbEllipse
 10
436.117241
 20
278.742887
 30
0.0
 11
1.413897323650274
 21
4.110281055827373
 31
0.0
210
0.0
220
0.0
230
0.9999999999999998
 40
0.492418
 41
2.905655738231064
 42
3.43246221090468
  0
ELLIPSE
  5
13E
330
1F
100
AcDbEntity
  8
1
100
AcDbEllipse
 10
427.6764059999999
 20
282.154007
 30
0.0
 11
-11.12015627046757
 21
1.241024477364708
 31
0.0
210
0.0
220
0.0
230
1.0
 40
0.019553
 41
3.979821173808737
 42
4.075459931086953
  0
ELLIPSE
  5
13F
330
1F
100
AcDbEntity
  8
1
100
AcDbEllipse
 10
436.117241
 20
278.742887
 30
0.0
 11
1.413897323650274
 21
4.110281055827373
 31
0.0
210
0.0
220
0.0
230
0.9999999999999998
 40
0.492418
 41
1.020523485307952
 42
1.455473470878694
  0
ELLIPSE
  5
140
330
1F
100
AcDbEntity
  8
1
100
AcDbEllipse
 10
438.2992299999999
 20
280.318768
 30
0.0
 11
-3.494943526304613
 21
-6.108235992398522
 31
0.0
210
0.0
220
0.0
230
1.0
 40
0.509287
 41
5.006267424956008
 42
6.105468128303156
  0
ELLIPSE
  5
141
330
1F
100
AcDbEntity
  8
1
100
AcDbEllipse
 10
425.932345
 20
275.545801
 30
0.0
 11
-0.0000000000000002
 21
-2.5
 31
0.0
210
0.0
220
0.0
230
1.0
 40
0.9848079999999999
 41
3.238736553884136
 42
5.807507040954521
  0
ELLIPSE
  5
142
330
1F
100
AcDbEntity
  8
1
100
AcDbEllipse
 10
427.6433269999999
 20
288.228208
 30
0.0
 11
-0.0000000000000002
 21
-2.850000000000001
 31
0.0
210
0.0
220
0.0
230
1.0
 40
0.9848079999999999
 41
3.141652161376281
 42
6.283146471565303
  0
ELLIPSE
  5
143
330
1F
100
AcDbEntity
  8
1
100
AcDbEllipse
 10
427.717811
 20
288.228208
 30
0.0
 11
0.0
 21
2.850000000000001
 31
0.0
210
0.0
220
0.0
230
1.0
 40
0.9848079999999999
 41
0.0
 42
6.283185307179585
  0
ELLIPSE
  5
144
330
1F
100
AcDbEntity
  8
1
100
AcDbEllipse
 10
427.700458
 20
289.739069
 30
0.0
 11
0.0
 21
-0.0953174225105373
 31
0.0
210
0.0
220
0.0
230
1.0
 40
0.9848079999999999
 41
0.8859425797523673
 42
1.56267449663303
  0
ELLIPSE
  5
145
330
1F
100
AcDbEntity
  8
1
100
AcDbEllipse
 10
427.88819
 20
289.737521
 30
0.0
 11
0.0
 21
-0.0953174225105371
 31
0.0
210
0.0
220
0.0
230
1.0
 40
0.9848079999999999
 41
3.503936457743926
 42
4.704267150222822
  0
ELLIPSE
  5
146
330
1F
100
AcDbEntity
  8
1
100
AcDbEllipse
 10
428.064678
 20
289.264771
 30
0.0
 11
0.0
 21
-0.6008944156305269
 31
0.0
210
0.0
220
0.0
230
0.9999999999999998
 40
0.9848080000000001
 41
2.239406413513685
 42
3.503936457743855
  0
ELLIPSE
  5
147
330
1F
100
AcDbEntity
  8
1
100
AcDbEllipse
 10
428.455369
 20
289.578177
 30
0.0
 11
0.0
 21
-0.0953174225105393
 31
0.0
210
0.0
220
0.0
230
0.9999999999999998
 40
0.9848080000000001
 41
1.03907572103481
 42
2.239406413513611
  0
ELLIPSE
  5
148
330
1F
100
AcDbEntity
  8
1
100
AcDbEllipse
 10
428.617188
 20
289.481521
 30
0.0
 11
0.0
 21
-0.0953174225105393
 31
0.0
210
0.0
220
0.0
230
0.9999999999999998
 40
0.9848080000000001
 41
4.180668374624526
 42
4.857400291505222
  0
ELLIPSE
  5
149
330
1F
100
AcDbEntity
  8
1
100
AcDbEllipse
 10
429.109858
 20
289.554579
 30
0.0
 11
0.0
 21
-0.6008944156305267
 31
0.0
210
0.0
220
0.0
230
1.0
 40
0.9848080000000001
 41
4.857400291505168
 42
6.121930335735342
  0
ELLIPSE
  5
14A
330
1F
100
AcDbEntity
  8
1
100
AcDbEllipse
 10
429.0299169999999
 20
289.055561
 30
0.0
 11
0.0
 21
-0.0953174225105373
 31
0.0
210
0.0
220
0.0
230
1.0
 40
0.9848079999999999
 41
6.121930335735715
 42
6.798662252616127
  0
ELLIPSE
  5
14B
330
1F
100
AcDbEntity
  8
1
100
AcDbEllipse
 10
429.122463
 20
288.889698
 30
0.0
 11
0.0
 21
-0.0953174225105371
 31
0.0
210
0.0
220
0.0
230
1.0
 40
0.9848079999999999
 41
2.456738906547271
 42
3.657069599026185
  0
ELLIPSE
  5
14C
330
1F
100
AcDbEntity
  8
1
100
AcDbEllipse
 10
428.807514
 20
288.498123
 30
0.0
 11
0.0
 21
-0.6008944156305269
 31
0.0
210
0.0
220
0.0
230
0.9999999999999998
 40
0.9848080000000001
 41
1.192208862317087
 42
2.45673890654727
  0
ELLIPSE
  5
14D
330
1F
100
AcDbEntity
  8
1
100
AcDbEllipse
 10
436.273291
 20
274.68009
 30
0.0
 11
-0.3820352256492306
 21
0.1185288419041608
 31
0.0
210
0.0
220
0.0
230
1.0
 40
0.052178
 41
4.894835652816794
 42
5.331167965815333
  0
ELLIPSE
  5
14E
330
1F
100
AcDbEntity
  8
1
100
AcDbEllipse
 10
427.193485
 20
281.643155
 30
0.0
 11
0.0
 21
10.88757339713799
 31
0.0
210
0.0
220
0.0
230
1.0
 40
0.9848079999999999
 41
3.867291225373153
 42
4.032154618301298
  0
ELLIPSE
  5
14F
330
1F
100
AcDbEntity
  8
1
100
AcDbEllipse
 10
427.193485
 20
281.643155
 30
0.0
 11
0.0
 21
10.88757339713799
 31
0.0
210
0.0
220
0.0
230
1.0
 40
0.9848079999999999
 41
3.662344914458113
 42
3.815469965790152
  0
ELLIPSE
  5
150
330
1F
100
AcDbEntity
  8
1
100
AcDbEllipse
 10
427.193485
 20
281.643155
 30
0.0
 11
0.0
 21
10.88757339713799
 31
0.0
210
0.0
220
0.0
230
1.0
 40
0.9848079999999999
 41
3.0965937078481
 42
3.618475931885609
  0
ELLIPSE
  5
151
330
1F
100
AcDbEntity
  8
1
100
AcDbEllipse
 10
435.299436
 20
274.983773
 30
0.0
 11
0.0
 21
0.2999999784146229
 31
0.0
210
0.0
220
0.0
230
1.0
 40
0.9848080000000001
 41
4.032415431751801
 42
4.406653066864539
  0
ELLIPSE
  5
152
330
1F
100
AcDbEntity
  8
1
100
AcDbEllipse
 10
435.781241
 20
277.174039
 30
0.0
 11
0.0
 21
-0.5000000000000037
 31
0.0
210
0.0
220
0.0
230
1.0
 40
0.9848079999999999
 41
1.428576279572734
 42
2.061059641528514
  0
ELLIPSE
  5
153
330
1F
100
AcDbEntity
  8
1
100
AcDbEllipse
 10
431.699414
 20
284.909999
 30
0.0
 11
0.0
 21
3.0
 31
0.0
210
0.0
220
0.0
230
1.0
 40
0.9848079999999999
 41
3.262528734661359
 42
3.337162040862128
  0
ELLIPSE
  5
154
330
1F
100
AcDbEntity
  8
1
100
AcDbEllipse
 10
427.6764059999999
 20
282.154007
 30
0.0
 11
-11.12015627046757
 21
1.241024477364708
 31
0.0
210
0.0
220
0.0
230
1.0
 40
0.019553
 41
3.321213198974408
 42
3.347442569835178
  0
ELLIPSE
  5
155
330
1F
100
AcDbEntity
  8
1
100
AcDbEllipse
 10
427.433855
 20
280.587814
 30
0.0
 11
-10.97878760148411
 21
1.915742852644459
 31
0.0
210
0.0
220
0.0
230
1.0
 40
0.179905
 41
3.002967121228941
 42
3.090482697460601
  0
ELLIPSE
  5
156
330
1F
100
AcDbEntity
  8
1
100
AcDbEllipse
 10
427.884704
 20
281.6652180000001
 30
0.0
 11
-0.0000000000000007
 21
-11.09724171327634
 31
0.0
210
0.0
220
0.0
230
1.0
 40
0.9848079999999999
 41
1.288473501784572
 42
1.324591984597903
  0
ELLIPSE
  5
157
330
1F
100
AcDbEntity
  8
1
100
AcDbEllipse
 10
427.5237989999999
 20
281.177324
 30
0.0
 11
10.96956779338536
 21
-2.204683047628654
 31
0.0
210
0.0
220
0.0
230
1.0
 40
0.034723
 41
6.24780804080046
 42
6.281653029571281
  0
ELLIPSE
  5
158
330
1F
100
AcDbEntity
  8
1
100
AcDbEllipse
 10
427.68825
 20
288.228208
 30
0.0
 11
-0.0000000000000002
 21
-3.167497732705186
 31
0.0
210
0.0
220
0.0
230
0.9999999999999998
 40
0.9848079999999999
 41
0.0
 42
6.283185307179585
  0
SPLINE
  5
159
330
1F
100
AcDbEntity
  8
1
100
AcDbSpline
210
0.0
220
0.0
230
1.0
 70
     8
 71
     3
 72
    10
 73
     6
 74
     0
 42
0.000000001
 43
0.0000000001
 40
0.0
 40
0.0
 40
0.0
 40
0.0
 40
0.5
 40
0.5
 40
1.0
 40
1.0
 40
1.0
 40
1.0
 10
428.5504691766683
 20
282.2759588706151
 30
0.0
 10
428.2631277985908
 20
282.3084626474603
 30
0.0
 10
427.9770025359295
 20
282.3484533411662
 30
0.0
 10
427.4070740632861
 20
282.4427297052831
 30
0.0
 10
427.1232710940735
 20
282.4970168590421
 30
0.0
 10
426.8405839272193
 20
282.5581726473227
 30
0.0
  0
SPLINE
  5
15A
330
1F
100
AcDbEntity
  8
1
100
AcDbSpline
210
0.0
220
0.0
230
1.0
 70
     8
 71
     3
 72
    52
 73
    48
 74
     0
 42
0.000000001
 43
0.0000000001
 40
0.0
 40
0.0
 40
0.0
 40
0.0
 40
0.0624999999999998
 40
0.0624999999999998
 40
0.1249999999999996
 40
0.1249999999999996
 40
0.1562499999999994
 40
0.1562499999999994
 40
0.1718749999999995
 40
0.1718749999999995
 40
0.1874999999999997
 40
0.1874999999999997
 40
0.2499999999999991
 40
0.2499999999999991
 40
0.3124999999999986
 40
0.3124999999999986
 40
0.3437499999999965
 40
0.3437499999999965
 40
0.3749999999999944
 40
0.3749999999999944
 40
0.4374999999999908
 40
0.4374999999999908
 40
0.4999999999999872
 40
0.4999999999999872
 40
0.5156249999999868
 40
0.5156249999999868
 40
0.5312499999999865
 40
0.5624999999999859
 40
0.5624999999999859
 40
0.6249999999999849
 40
0.6249999999999849
 40
0.6874999999999841
 40
0.6874999999999841
 40
0.7187499999999844
 40
0.7187499999999844
 40
0.7499999999999848
 40
0.7499999999999848
 40
0.8124999999999877
 40
0.8124999999999877
 40
0.8749999999999909
 40
0.8749999999999909
 40
0.9374999999999937
 40
0.9374999999999937
 40
0.9531249999999939
 40
0.9531249999999939
 40
0.9687499999999944
 40
1.0
 40
1.0
 40
1.0
 40
1.0
 10
426.8405839272193
 20
277.6072489310872
 30
0.0
 10
426.9379004315275
 20
277.5435809173571
 30
0.0
 10
427.0294781970765
 20
277.4751366712195
 30
0.0
 10
427.2023019797836
 20
277.3297214044071
 30
0.0
 10
427.2835404094768
 20
277.2527438489583
 30
0.0
 10
427.3980328875251
 20
277.1312566579831
 30
0.0
 10
427.4349654181296
 20
277.0897540702948
 30
0.0
 10
427.4885321407303
 20
277.0260100961635
 30
0.0
 10
427.5060984700888
 20
277.0044911222137
 30
0.0
 10
427.5404012207281
 20
276.9612406241861
 30
0.0
 10
427.5571645305168
 20
276.9394783854161
 30
0.0
 10
427.6390917296368
 20
276.8300041960954
 30
0.0
 10
427.6986116027527
 20
276.740312201227
 30
0.0
 10
427.8064942563946
 20
276.5571084791866
 30
0.0
 10
427.8548525394905
 20
276.4635949018571
 30
0.0
 10
427.9192874543406
 20
276.3206172194149
 30
0.0
 10
427.9394266581944
 20
276.2724457326974
 30
0.0
 10
427.9766390462897
 20
276.1762275547697
 30
0.0
 10
427.9937705002135
 20
276.1280610365079
 30
0.0
 10
428.0409063062221
 20
275.9834120823593
 30
0.0
 10
428.0666660306841
 20
275.8867812875045
 30
0.0
 10
428.1073625997707
 20
275.6932161268275
 30
0.0
 10
428.1222979444336
 20
275.5962815621692
 30
0.0
 10
428.1342459827711
 20
275.4749617234499
 30
0.0
 10
428.1362998499179
 20
275.4506639255052
 30
0.0
 10
428.1397173096178
 20
275.4022688413775
 30
0.0
 10
428.1438151769468
 20
275.3299236635138
 30
0.0
 10
428.1448779573088
 20
275.2583123210678
 30
0.0
 10
428.1430487134959
 20
275.1160527716341
 30
0.0
 10
428.1365690058932
 20
275.0224949850334
 30
0.0
 10
428.11325423109
 20
274.8379195369789
 30
0.0
 10
428.0964200263258
 20
274.7469017876773
 30
0.0
 10
428.0632081628571
 20
274.6123180454181
 30
0.0
 10
428.0507938068596
 20
274.5677378431621
 30
0.0
 10
428.0232848895333
 20
274.4794233017078
 30
0.0
 10
428.0082764592363
 20
274.4359562273345
 30
0.0
 10
427.9595221740713
 20
274.3075955118898
 30
0.0
 10
427.9220616449063
 20
274.2247359391616
 30
0.0
 10
427.8370619983201
 20
274.0644399781991
 30
0.0
 10
427.7895263093625
 20
273.9870023220237
 30
0.0
 10
427.6837173211205
 20
273.8377651892559
 30
0.0
 10
427.6254529206998
 20
273.7659620567519
 30
0.0
 10
427.5450807382405
 20
273.680047089969
 30
0.0
 10
427.528669884383
 20
273.6631043099306
 30
0.0
 10
427.4952954672393
 20
273.6298327405129
 30
0.0
 10
427.4443471461607
 20
273.5807854563006
 30
0.0
 10
427.3907153077507
 20
273.5343233213475
 30
0.0
 10
427.3537312405879
 20
273.5045159801812
 30
0.0
  0
SPLINE
  5
15B
330
1F
100
AcDbEntity
  8
1
100
AcDbSpline
210
0.0
220
0.0
230
1.0
 70
     8
 71
     3
 72
    92
 73
    88
 74
     0
 42
0.000000001
 43
0.0000000001
 40
0.0
 40
0.0
 40
0.0
 40
0.0
 40
0.0312500000000225
 40
0.0625000000000449
 40
0.0625000000000449
 40
0.0781250000000562
 40
0.0859375000000596
 40
0.0859375000000596
 40
0.0937500000000631
 40
0.0937500000000631
 40
0.12500000000009
 40
0.1562500000001168
 40
0.1562500000001168
 40
0.171875000000128
 40
0.171875000000128
 40
0.1796875000001313
 40
0.1796875000001313
 40
0.1875000000001345
 40
0.1875000000001345
 40
0.2187500000001343
 40
0.2500000000001339
 40
0.2500000000001339
 40
0.2656250000001317
 40
0.2656250000001317
 40
0.2812500000001295
 40
0.2812500000001295
 40
0.3125000000001248
 40
0.3125000000001248
 40
0.3437500000001202
 40
0.3437500000001202
 40
0.359375000000116
 40
0.359375000000116
 40
0.3671875000001155
 40
0.3671875000001155
 40
0.3750000000001152
 40
0.40625000000011
 40
0.40625000000011
 40
0.4375000000001049
 40
0.4375000000001049
 40
0.4531250000001024
 40
0.4531250000001024
 40
0.4687500000000996
 40
0.4687500000000996
 40
0.5000000000000956
 40
0.5000000000000956
 40
0.5312500000000916
 40
0.5312500000000916
 40
0.5390625000000907
 40
0.5390625000000907
 40
0.5468750000000897
 40
0.5625000000000872
 40
0.5625000000000872
 40
0.5937500000000819
 40
0.5937500000000819
 40
0.6250000000000768
 40
0.6250000000000768
 40
0.6406250000000739
 40
0.6406250000000739
 40
0.6562500000000713
 40
0.6562500000000713
 40
0.687500000000065
 40
0.687500000000065
 40
0.7187500000000587
 40
0.7187500000000587
 40
0.7343750000000555
 40
0.7343750000000555
 40
0.7500000000000524
 40
0.7500000000000524
 40
0.8125000000000369
 40
0.8125000000000369
 40
0.8437500000000303
 40
0.8437500000000303
 40
0.8750000000000238
 40
0.8750000000000238
 40
0.8906250000000206
 40
0.8906250000000206
 40
0.9062500000000172
 40
0.9062500000000172
 40
0.937500000000014
 40
0.937500000000014
 40
0.9687500000000108
 40
0.9687500000000108
 40
0.9843750000000072
 40
0.9843750000000072
 40
0.9921875000000035
 40
0.9921875000000035
 40
1.0
 40
1.0
 40
1.0
 40
1.0
 10
426.8405839272193
 20
277.6072489310872
 30
0.0
 10
426.7611888684301
 20
277.6591920801865
 30
0.0
 10
426.5980098828999
 20
277.7543503933575
 30
0.0
 10
426.4261434968957
 20
277.8320808252686
 30
0.0
 10
426.293909609095
 20
277.8836411515477
 30
0.0
 10
426.226957397727
 20
277.9077335594346
 30
0.0
 10
426.1587205874208
 20
277.929222464017
 30
0.0
 10
426.1129390308992
 20
277.9429591797004
 30
0.0
 10
426.0898702208936
 20
277.9495418110438
 30
0.0
 10
425.9741880550119
 20
277.9808460071777
 30
0.0
 10
425.788108335793
 20
278.0203833644496
 30
0.0
 10
425.6000768586152
 20
278.039221209096
 30
0.0
 10
425.4583059887462
 20
278.0454457435659
 30
0.0
 10
425.4109242319854
 20
278.046200259819
 30
0.0
 10
425.339659965055
 20
278.0453044020796
 30
0.0
 10
425.315873252212
 20
278.0446676271264
 30
0.0
 10
425.2682349358531
 20
278.0427071358421
 30
0.0
 10
425.2443414389981
 20
278.0413799665035
 30
0.0
 10
425.1253982242617
 20
278.0330486606684
 30
0.0
 10
424.9381062722695
 20
278.0089349849775
 30
0.0
 10
424.7567141204779
 20
277.9638938722343
 30
0.0
 10
424.6229315677946
 20
277.9221946732663
 30
0.0
 10
424.5787153286237
 20
277.9069720611914
 30
0.0
 10
424.4910599163356
 20
277.8738295527497
 30
0.0
 10
424.4474898136948
 20
277.8558438446394
 30
0.0
 10
424.3196698248803
 20
277.7985156259472
 30
0.0
 10
424.2378897249524
 20
277.7556955203298
 30
0.0
 10
424.0810278029328
 20
277.661258172258
 30
0.0
 10
424.0059467823098
 20
277.6096394512911
 30
0.0
 10
423.8984222452191
 20
277.5256699388844
 30
0.0
 10
423.8634322069187
 20
277.4965874613907
 30
0.0
 10
423.8122516622798
 20
277.4513103418022
 30
0.0
 10
423.7954553166145
 20
277.4359820417376
 30
0.0
 10
423.7625077544004
 20
277.4049766641919
 30
0.0
 10
423.6816565985106
 20
277.3265025885114
 30
0.0
 10
423.6082449349701
 20
277.2433637406396
 30
0.0
 10
423.4999440518119
 20
277.1048099273397
 30
0.0
 10
423.4503742105429
 20
277.0327657035139
 30
0.0
 10
423.3828385496785
 20
276.9207334797227
 30
0.0
 10
423.3614231329779
 20
276.8826338054398
 30
0.0
 10
423.3213258014709
 20
276.8060162317954
 30
0.0
 10
423.3025866528759
 20
276.7674154098439
 30
0.0
 10
423.2501435530776
 20
276.6508073786337
 30
0.0
 10
423.2202049098433
 20
276.5719975659026
 30
0.0
 10
423.1698052106632
 20
276.4125272997759
 30
0.0
 10
423.1493461333246
 20
276.3318660509148
 30
0.0
 10
423.1295105946987
 20
276.2300100709915
 30
0.0
 10
423.1258354286392
 20
276.2096061082606
 30
0.0
 10
423.1190852962
 20
276.168895465149
 30
0.0
 10
423.1098469274336
 20
276.1079063753878
 30
0.0
 10
423.1032020697806
 20
276.0471517691092
 30
0.0
 10
423.09322138844
 20
275.9259639794664
 30
0.0
 10
423.0909718914029
 20
275.8456010584605
 30
0.0
 10
423.0947023583765
 20
275.6857692019721
 30
0.0
 10
423.1006839118196
 20
275.6063001701067
 30
0.0
 10
423.1155701154573
 20
275.4877858098213
 30
0.0
 10
423.1215228163976
 20
275.4484080275296
 30
0.0
 10
423.1352501208676
 20
275.3704871609548
 30
0.0
 10
423.1430334970883
 20
275.3318656605671
 30
0.0
 10
423.1690331443711
 20
275.2169826409867
 30
0.0
 10
423.1898925917195
 20
275.1417012503876
 30
0.0
 10
423.23824967812
 20
274.9936019708038
 30
0.0
 10
423.2657482421043
 20
274.9207843789422
 30
0.0
 10
423.3118104174951
 20
274.8133228333729
 30
0.0
 10
423.3279682829447
 20
274.7777967429056
 30
0.0
 10
423.3618807416943
 20
274.707322741916
 30
0.0
 10
423.3796672132924
 20
274.6723176671579
 30
0.0
 10
423.4720840624903
 20
274.4996410234946
 30
0.0
 10
423.5571013986298
 20
274.3687502991454
 30
0.0
 10
423.7005593708879
 20
274.1821376219694
 30
0.0
 10
423.7510549294616
 20
274.1215638534383
 30
0.0
 10
423.8575462953226
 20
274.0035977436299
 30
0.0
 10
423.9135404705921
 20
273.9462050572031
 30
0.0
 10
424.0019228543514
 20
273.8625003245065
 30
0.0
 10
424.0321649378213
 20
273.8349577082183
 30
0.0
 10
424.0937644806285
 20
273.7810352588273
 30
0.0
 10
424.1251557798325
 20
273.7546200952333
 30
0.0
 10
424.2211475508323
 20
273.6770042164405
 30
0.0
 10
424.2875584036384
 20
273.6274280508084
 30
0.0
 10
424.4256051185414
 20
273.5326781924718
 30
0.0
 10
424.4972376448957
 20
273.4875026076141
 30
0.0
 10
424.6091050683904
 20
273.4232275766816
 30
0.0
 10
424.6471331062796
 20
273.4023855518769
 30
0.0
 10
424.7053743386293
 20
273.3720384031431
 30
0.0
 10
424.7249881684139
 20
273.362075476746
 30
0.0
 10
424.7646341673066
 20
273.3424640258673
 30
0.0
 10
424.7846938928639
 20
273.3328028794757
 30
0.0
 10
424.8048836961026
 20
273.3233453621224
 30
0.0
  0
SPLINE
  5
15C
330
1F
100
AcDbEntity
  8
1
100
AcDbSpline
210
0.0
220
0.0
230
1.0
 70
     8
 71
     3
 72
    10
 73
     6
 74
     0
 42
0.000000001
 43
0.0000000001
 40
0.0
 40
0.0
 40
0.0
 40
0.0
 40
0.5
 40
0.5
 40
1.0
 40
1.0
 40
1.0
 40
1.0
 10
424.3881451514641
 20
283.2839761095963
 30
0.0
 10
424.7871140423661
 20
283.132940170549
 30
0.0
 10
425.1910422329643
 20
282.9967761467234
 30
0.0
 10
426.0085760230928
 20
282.7546523117967
 30
0.0
 10
426.4221808620717
 20
282.64868885134
 30
0.0
 10
426.8405839272193
 20
282.5581726473227
 30
0.0
  0
SPLINE
  5
15D
330
1F
100
AcDbEntity
  8
1
100
AcDbSpline
210
0.0
220
0.0
230
1.0
 70
     8
 71
     2
 72
     9
 73
     6
 74
     0
 42
0.000000001
 43
0.0000000001
 40
0.0
 40
0.0
 40
0.0
 40
0.1967576641866337
 40
0.4959623725538294
 40
0.7951670809210252
 40
1.0
 40
1.0
 40
1.0
 10
413.8951368570761
 20
292.5692766940113
 30
0.0
 10
414.2214241845303
 20
291.683088963435
 30
0.0
 10
415.3020027985668
 20
289.5559910003917
 30
0.0
 10
417.0370526547121
 20
287.2681541159873
 30
0.0
 10
418.8144737654536
 20
285.638020330352
 30
0.0
 10
419.6086826016967
 20
285.072789476572
 30
0.0
  0
SPLINE
  5
15E
330
1F
100
AcDbEntity
  8
1
100
AcDbSpline
210
0.0
220
0.0
230
1.0
 70
     8
 71
     3
 72
     8
 73
     4
 74
     0
 42
0.000000001
 43
0.0000000001
 40
0.0
 40
0.0
 40
0.0
 40
0.0
 40
1.0
 40
1.0
 40
1.0
 40
1.0
 10
418.0967529026406
 20
285.645215591124
 30
0.0
 10
417.750561099876
 20
285.8004807030373
 30
0.0
 10
417.4043202072181
 20
285.9557605827748
 30
0.0
 10
417.0580420378291
 20
286.1110516765559
 30
0.0
  0
SPLINE
  5
15F
330
1F
100
AcDbEntity
  8
1
100
AcDbSpline
210
0.0
220
0.0
230
1.0
 70
     8
 71
     3
 72
     8
 73
     4
 74
     0
 42
0.000000001
 43
0.0000000001
 40
0.0
 40
0.0
 40
0.0
 40
0.0
 40
1.0
 40
1.0
 40
1.0
 40
1.0
 10
418.0967529026406
 20
271.1473623867844
 30
0.0
 10
417.7510612092301
 20
270.794697923366
 30
0.0
 10
417.404775985026
 20
270.4426427000206
 30
0.0
 10
417.0580420378291
 20
270.0910480762465
 30
0.0
  0
SPLINE
  5
160
330
1F
100
AcDbEntity
  8
1
100
AcDbSpline
210
0.0
220
0.0
230
1.0
 70
    12
 71
     2
 72
     6
 73
     3
 74
     0
 42
0.000000001
 43
0.0000000001
 40
0.0
 40
0.0
 40
0.0
 40
1.0
 40
1.0
 40
1.0
 10
415.4135063075631
 20
270.0753075259685
 30
0.0
 41
0.5000000291414644
 10
415.3913649777568
 20
270.0754215395697
 30
0.0
 41
0.4999999708585358
 10
415.3692249959912
 20
270.0755368409662
 30
0.0
 41
0.5000000291414644
  0
SPLINE
  5
161
330
1F
100
AcDbEntity
  8
1
100
AcDbSpline
210
0.0
220
0.0
230
1.0
 70
     8
 71
     3
 72
    81
 73
    77
 74
     0
 42
0.000000001
 43
0.0000000001
 40
0.0
 40
0.0
 40
0.0
 40
0.0
 40
0.0625000000000163
 40
0.0625000000000163
 40
0.1250000000000326
 40
0.1250000000000326
 40
0.1562500000000423
 40
0.1562500000000423
 40
0.1875000000000519
 40
0.1875000000000519
 40
0.2187500000000616
 40
0.2187500000000616
 40
0.226562500000062
 40
0.226562500000062
 40
0.2343750000000625
 40
0.2500000000000634
 40
0.2500000000000634
 40
0.2812500000000676
 40
0.2812500000000676
 40
0.3125000000000718
 40
0.3125000000000718
 40
0.3203125000000728
 40
0.3203125000000728
 40
0.3281250000000738
 40
0.3437500000000738
 40
0.3437500000000738
 40
0.3750000000000721
 40
0.3750000000000721
 40
0.4062500000000706
 40
0.4062500000000706
 40
0.4140625000000698
 40
0.4140625000000698
 40
0.4218750000000691
 40
0.4218750000000691
 40
0.4375000000000668
 40
0.4375000000000668
 40
0.4687500000000629
 40
0.4687500000000629
 40
0.4765625000000623
 40
0.4765625000000623
 40
0.4843750000000617
 40
0.4843750000000617
 40
0.5000000000000606
 40
0.5000000000000606
 40
0.5312500000000587
 40
0.5312500000000587
 40
0.546875000000057
 40
0.546875000000057
 40
0.5546875000000555
 40
0.5546875000000555
 40
0.5625000000000538
 40
0.5625000000000538
 40
0.5937500000000507
 40
0.5937500000000507
 40
0.6250000000000476
 40
0.6250000000000476
 40
0.6406250000000449
 40
0.6484375000000436
 40
0.6484375000000436
 40
0.6562500000000423
 40
0.6562500000000423
 40
0.6875000000000381
 40
0.6875000000000381
 40
0.7187500000000336
 40
0.7187500000000336
 40
0.7500000000000292
 40
0.7500000000000292
 40
0.8125000000000202
 40
0.8125000000000202
 40
0.8437500000000158
 40
0.8437500000000158
 40
0.8750000000000111
 40
0.8750000000000111
 40
0.9375000000000055
 40
0.9375000000000055
 40
1.0
 40
1.0
 40
1.0
 40
1.0
 10
412.6950721176934
 20
287.7435954505987
 30
0.0
 10
412.4748696517843
 20
287.8254286256106
 30
0.0
 10
412.2600687369678
 20
287.9136772244432
 30
0.0
 10
411.8421652053221
 20
288.1033689856892
 30
0.0
 10
411.6390497720533
 20
288.2047999466461
 30
0.0
 10
411.3442420528423
 20
288.3674615182987
 30
0.0
 10
411.2476234207162
 20
288.4234403593294
 30
0.0
 10
411.0579771407326
 20
288.5391152441703
 30
0.0
 10
410.9649481409179
 20
288.5988100649737
 30
0.0
 10
410.7828754243096
 20
288.7222113477169
 30
0.0
 10
410.6938294124102
 20
288.7859157294014
 30
0.0
 10
410.5853584446471
 20
288.8683269400461
 30
0.0
 10
410.5638207976171
 20
288.8849384095483
 30
0.0
 10
410.5212022484976
 20
288.918319454262
 30
0.0
 10
410.4579025944464
 20
288.9686714915052
 30
0.0
 10
410.3965276591259
 20
289.0198740848056
 30
0.0
 10
410.2764720955641
 20
289.1234465362006
 30
0.0
 10
410.2000166521933
 20
289.1940466881192
 30
0.0
 10
410.0551719348258
 20
289.3386200113648
 30
0.0
 10
409.9867762187985
 20
289.4125905789756
 30
0.0
 10
409.9071446277878
 20
289.5074369175094
 30
0.0
 10
409.8914940302083
 20
289.5265503210044
 30
0.0
 10
409.8609646023191
 20
289.5648266738431
 30
0.0
 10
409.8162867079101
 20
289.6223617871727
 30
0.0
 10
409.7750233783267
 20
289.6802591858885
 30
0.0
 10
409.6972631532842
 20
289.7965447705271
 30
0.0
 10
409.651759564268
 20
289.8747200100238
 30
0.0
 10
409.5749552469768
 20
290.032476532002
 30
0.0
 10
409.5436451795136
 20
290.1120566157686
 30
0.0
 10
409.5147739351141
 20
290.2125399031364
 30
0.0
 10
409.5095151722908
 20
290.2326872852313
 30
0.0
 10
409.5000731980108
 20
290.2730881480193
 30
0.0
 10
409.4959155973187
 20
290.2932375206487
 30
0.0
 10
409.4851784804887
 20
290.3533441743277
 30
0.0
 10
409.4803150252908
 20
290.3930404213132
 30
0.0
 10
409.4726402145718
 20
290.5110081903123
 30
0.0
 10
409.4767353078102
 20
290.5881590506321
 30
0.0
 10
409.4936204756274
 20
290.6827368526503
 30
0.0
 10
409.4975865420838
 20
290.7015593500211
 30
0.0
 10
409.5067058364807
 20
290.7390183009384
 30
0.0
 10
409.5118718178726
 20
290.7576938318073
 30
0.0
 10
409.5290631139958
 20
290.8131227629776
 30
0.0
 10
409.5427504664233
 20
290.8492248077436
 30
0.0
 10
409.5901164507408
 20
290.9551436538061
 30
0.0
 10
409.6300869052275
 20
291.022578062611
 30
0.0
 10
409.7014021905523
 20
291.1195127193792
 30
0.0
 10
409.7270705388061
 20
291.1511201165311
 30
0.0
 10
409.76828933007
 20
291.1975335095517
 30
0.0
 10
409.7824839035555
 20
291.21283776733
 30
0.0
 10
409.8115576684745
 20
291.2429251916884
 30
0.0
 10
409.8264598699104
 20
291.2577350330989
 30
0.0
 10
409.902708121361
 20
291.3306765591795
 30
0.0
 10
409.9692416629298
 20
291.3855020222565
 30
0.0
 10
410.1115234790495
 20
291.4893768108417
 30
0.0
 10
410.1872789584006
 20
291.538421187346
 30
0.0
 10
410.3068055164635
 20
291.6083551596894
 30
0.0
 10
410.3680467685704
 20
291.6424107592221
 30
0.0
 10
410.4313476349268
 20
291.6752069971293
 30
0.0
 10
410.4739904117783
 20
291.6968018711121
 30
0.0
 10
410.4955288875244
 20
291.7074622011812
 30
0.0
 10
410.6038854835354
 20
291.7599275691495
 30
0.0
 10
410.6930042597979
 20
291.7993991324356
 30
0.0
 10
410.8752727833079
 20
291.8742604475578
 30
0.0
 10
410.9684255781921
 20
291.9096467672654
 30
0.0
 10
411.1581475352124
 20
291.977008859853
 30
0.0
 10
411.2547185043093
 20
292.0089825974088
 30
0.0
 10
411.5488463948929
 20
292.1005572321109
 30
0.0
 10
411.7507856483883
 20
292.1558478326651
 30
0.0
 10
412.0604449418769
 20
292.2323212455509
 30
0.0
 10
412.1648473871998
 20
292.2567354611787
 30
0.0
 10
412.3754627427315
 20
292.3036055107565
 30
0.0
 10
412.4814985234746
 20
292.3260231470588
 30
0.0
 10
412.8015384437183
 20
292.3906088384288
 30
0.0
 10
413.0174647236337
 20
292.4301261533899
 30
0.0
 10
413.45343553009
 20
292.5036134410939
 30
0.0
 10
413.6734845630162
 20
292.5375761711671
 30
0.0
 10
413.8952339992266
 20
292.5692974100363
 30
0.0
  0
SPLINE
  5
162
330
1F
100
AcDbEntity
  8
1
100
AcDbSpline
210
0.0
220
0.0
230
1.0
 70
     8
 71
     3
 72
    33
 73
    29
 74
     0
 42
0.000000001
 43
0.0000000001
 40
0.0
 40
0.0
 40
0.0
 40
0.0
 40
0.0059090163102344
 40
0.0059090163102344
 40
0.0775371493084137
 40
0.0775371493084137
 40
0.1133512158075198
 40
0.1133512158075198
 40
0.1491652823066258
 40
0.1491652823066258
 40
0.2924215483030501
 40
0.2924215483030501
 40
0.3640496813012624
 40
0.3640496813012624
 40
0.4356778142994746
 40
0.4356778142994746
 40
0.5073059472976869
 40
0.5073059472976869
 40
0.5789340802958991
 40
0.6505622132941113
 40
0.6505622132941113
 40
0.7221903462923237
 40
0.7221903462923237
 40
0.7938184792905362
 40
0.7938184792905362
 40
0.8654466122887484
 40
0.8654466122887484
 40
1.0
 40
1.0
 40
1.0
 40
1.0
 10
416.8946029029928
 20
293.2262481919871
 30
0.0
 10
416.8922937814766
 20
293.2262900514235
 30
0.0
 10
416.8899872458358
 20
293.2263326709217
 30
0.0
 10
416.8597576440058
 20
293.2269018019719
 30
0.0
 10
416.8322268050149
 20
293.2275375057317
 30
0.0
 10
416.7915117174721
 20
293.2286400672309
 30
0.0
 10
416.7780120746568
 20
293.2290332597312
 30
0.0
 10
416.7513923375278
 20
293.2298607022424
 30
0.0
 10
416.7382590699591
 20
293.2302951966333
 30
0.0
 10
416.6734504017544
 20
293.2325614710313
 30
0.0
 10
416.6243257067272
 20
293.2346738111359
 30
0.0
 10
416.5545242684549
 20
293.2381128116847
 30
0.0
 10
416.5318330604662
 20
293.2393088224208
 30
0.0
 10
416.4882582759879
 20
293.2417342739259
 30
0.0
 10
416.4673548597563
 20
293.2429640555741
 30
0.0
 10
416.4272715731778
 20
293.2454265420296
 30
0.0
 10
416.4080825368036
 20
293.246660233198
 30
0.0
 10
416.3718779134055
 20
293.2490687793418
 30
0.0
 10
416.3377089918482
 20
293.2514267654753
 30
0.0
 10
416.3074721507547
 20
293.2536315789917
 30
0.0
 10
416.2791801272534
 20
293.2557347812606
 30
0.0
 10
416.2659916633264
 20
293.2567367292027
 30
0.0
 10
416.2416456800585
 20
293.258609016412
 30
0.0
 10
416.2305676822064
 20
293.2594731373961
 30
0.0
 10
416.2105565353504
 20
293.2610398540372
 30
0.0
 10
416.2016104818508
 20
293.2617434846971
 30
0.0
 10
416.1790339333034
 20
293.2635052419236
 30
0.0
 10
416.1683193285596
 20
293.2643199421813
 30
0.0
 10
416.1614608414098
 20
293.2647789565722
 30
0.0
  0
SPLINE
  5
163
330
1F
100
AcDbEntity
  8
1
100
AcDbSpline
210
0.0
220
0.0
230
1.0
 70
     8
 71
     3
 72
    30
 73
    26
 74
     0
 42
0.000000001
 43
0.0000000001
 40
0.0
 40
0.0
 40
0.0
 40
0.0
 40
0.0320620636231071
 40
0.0320620636231071
 40
0.170338911676945
 40
0.170338911676945
 40
0.3086157597307829
 40
0.3086157597307829
 40
0.3431849717442512
 40
0.3431849717442512
 40
0.3777541837577194
 40
0.4468926077846558
 40
0.4468926077846558
 40
0.5851694558385285
 40
0.5851694558385285
 40
0.6543078798654541
 40
0.6543078798654541
 40
0.7234463038923797
 40
0.7234463038923797
 40
0.8617231519462043
 40
0.8617231519462043
 40
0.8962923639596532
 40
0.8962923639596532
 40
0.9308615759731019
 40
1.0
 40
1.0
 40
1.0
 40
1.0
 10
416.1523804397186
 20
293.2651490566437
 30
0.0
 10
416.1523880516713
 20
293.2651034330326
 30
0.0
 10
416.1526376707667
 20
293.2650350818544
 30
0.0
 10
416.1552648854978
 20
293.2645501909598
 30
0.0
 10
416.1618715859021
 20
293.2637391878933
 30
0.0
 10
416.1837953150406
 20
293.2613601068457
 30
0.0
 10
416.199109980746
 20
293.2597916388118
 30
0.0
 10
416.2240358371382
 20
293.2574072879098
 30
0.0
 10
416.2293172354698
 20
293.2569088285383
 30
0.0
 10
416.2403659167152
 20
293.2558814038105
 30
0.0
 10
416.2577025846815
 20
293.2542912048849
 30
0.0
 10
416.2773067143466
 20
293.2525674000189
 30
0.0
 10
416.3195406966114
 20
293.2489776834375
 30
0.0
 10
416.3517040986831
 20
293.2463941495734
 30
0.0
 10
416.4064135435897
 20
293.2423855691535
 30
0.0
 10
416.4257935984573
 20
293.2410241153626
 30
0.0
 10
416.4659558980962
 20
293.2383455427871
 30
0.0
 10
416.4868275384068
 20
293.2370215052745
 30
0.0
 10
416.5518164341762
 20
293.233140854257
 30
0.0
 10
416.5982847291874
 20
293.230674384045
 30
0.0
 10
416.6606195697426
 20
293.2279047528776
 30
0.0
 10
416.6733348918398
 20
293.2273652495998
 30
0.0
 10
416.6990434945421
 20
293.226329023484
 30
0.0
 10
416.7379136347914
 20
293.2248428572998
 30
0.0
 10
416.7776928787715
 20
293.2235726826495
 30
0.0
 10
416.8046152312516
 20
293.2228320880861
 30
0.0
  0
SPLINE
  5
164
330
1F
100
AcDbEntity
  8
1
100
AcDbSpline
210
0.0
220
0.0
230
1.0
 70
     8
 71
     3
 72
    30
 73
    26
 74
     0
 42
0.000000001
 43
0.0000000001
 40
0.0
 40
0.0
 40
0.0
 40
0.0
 40
0.0858995989912775
 40
0.0858995989912775
 40
0.1717991979825549
 40
0.1717991979825549
 40
0.2576987969738324
 40
0.2576987969738324
 40
0.3435983959651099
 40
0.3435983959651099
 40
0.4294979949563875
 40
0.4294979949563875
 40
0.5153975939476649
 40
0.5153975939476649
 40
0.6012971929389423
 40
0.6012971929389423
 40
0.6871967919302198
 40
0.6871967919302198
 40
0.7730963909214973
 40
0.7730963909214973
 40
0.8589959899127746
 40
0.8589959899127746
 40
0.9448955889040522
 40
0.9448955889040522
 40
1.0
 40
1.0
 40
1.0
 40
1.0
 10
414.4066713821997
 20
270.0758545603308
 30
0.0
 10
414.3762311810966
 20
270.0758545577038
 30
0.0
 10
414.3459105931153
 20
270.0757944340579
 30
0.0
 10
414.2855019516755
 20
270.0755602427662
 30
0.0
 10
414.2553694034661
 20
270.0753858231633
 30
0.0
 10
414.1955341154293
 20
270.0749336178784
 30
0.0
 10
414.1659541518583
 20
270.0746569681269
 30
0.0
 10
414.10745442809
 20
270.0740185306232
 30
0.0
 10
414.0784726352366
 20
270.0736558330269
 30
0.0
 10
414.0214918123501
 20
270.0728681137935
 30
0.0
 10
413.9935302156445
 20
270.07244385083
 30
0.0
 10
413.9386498289353
 20
270.0715574806817
 30
0.0
 10
413.9116729257266
 20
270.0710942799336
 30
0.0
 10
413.8591526670479
 20
270.0701620506753
 30
0.0
 10
413.833593143885
 20
270.06969287473
 30
0.0
 10
413.7838698046611
 20
270.0687760067993
 30
0.0
 10
413.7596675112944
 20
270.0683276224091
 30
0.0
 10
413.713073157477
 20
270.0674891352492
 30
0.0
 10
413.6906373994431
 20
270.0670981924009
 30
0.0
 10
413.6474996809472
 20
270.0664030306478
 30
0.0
 10
413.6267894126036
 20
270.0660989152605
 30
0.0
 10
413.5875024306815
 20
270.0656135768259
 30
0.0
 10
413.5688751195626
 20
270.0654314358231
 30
0.0
 10
413.5399921545347
 20
270.0652567152325
 30
0.0
 10
413.5291400124938
 20
270.0652198343013
 30
0.0
 10
413.5187619993926
 20
270.0652180704868
 30
0.0
  0
SPLINE
  5
165
330
1F
100
AcDbEntity
  8
1
100
AcDbSpline
210
0.0
220
0.0
230
1.0
 70
    24
 71
     3
 72
     8
 73
     4
 74
     0
 42
0.000000001
 43
0.0000000001
 40
0.0
 40
0.0
 40
0.0
 40
0.0
 40
1.0
 40
1.0
 40
1.0
 40
1.0
 10
414.4066713821997
 20
270.0758545603308
 30
0.0
 10
414.6869998648518
 20
270.0758545845228
 30
0.0
 10
414.9673283475039
 20
270.0758546087148
 30
0.0
 10
415.2476568301562
 20
270.0758546329069
 30
0.0
  0
SPLINE
  5
166
330
1F
100
AcDbEntity
  8
1
100
AcDbSpline
210
0.0
220
0.0
230
1.0
 70
     8
 71
     3
 72
     9
 73
     5
 74
     0
 42
0.000000001
 43
0.0000000001
 40
0.0
 40
0.0
 40
0.0
 40
0.0
 40
0.5
 40
1.0
 40
1.0
 40
1.0
 40
1.0
 10
415.3692249959912
 20
270.0755368409662
 30
0.0
 10
415.3491001069458
 20
270.07564164809
 30
0.0
 10
415.3087141604093
 20
270.075800693237
 30
0.0
 10
415.2680556602933
 20
270.0758546346673
 30
0.0
 10
415.2476568301562
 20
270.0758546329069
 30
0.0
  0
SPLINE
  5
167
330
1F
100
AcDbEntity
  8
1
100
AcDbSpline
210
0.0
220
0.0
230
1.0
 70
     8
 71
     3
 72
    63
 73
    59
 74
     0
 42
0.000000001
 43
0.0000000001
 40
0.0
 40
0.0
 40
0.0
 40
0.0
 40
0.0134666724554899
 40
0.0134666724554899
 40
0.0759622762182968
 40
0.0759622762182968
 40
0.1384578799811036
 40
0.1384578799811036
 40
0.169705681862503
 40
0.169705681862503
 40
0.1853295828032028
 40
0.1853295828032028
 40
0.2009534837439024
 40
0.2009534837439024
 40
0.2634490875066899
 40
0.2634490875066899
 40
0.2946968893880836
 40
0.2946968893880836
 40
0.3259446912694774
 40
0.3571924931508711
 40
0.3571924931508711
 40
0.3728163940915679
 40
0.3728163940915679
 40
0.3884402950322648
 40
0.3884402950322648
 40
0.4509358987950522
 40
0.4509358987950522
 40
0.4821837006764367
 40
0.4821837006764367
 40
0.5134315025578215
 40
0.5134315025578215
 40
0.5759271063206088
 40
0.5759271063206088
 40
0.6071749082020024
 40
0.6071749082020024
 40
0.6384227100833961
 40
0.6384227100833961
 40
0.7009183138461835
 40
0.7009183138461835
 40
0.7165422147868842
 40
0.7165422147868842
 40
0.7321661157275848
 40
0.7321661157275848
 40
0.763413917608986
 40
0.763413917608986
 40
0.8259095213717886
 40
0.8259095213717886
 40
0.8415334223124817
 40
0.8415334223124817
 40
0.8571573232531751
 40
0.8884051251345614
 40
0.919652927015948
 40
0.919652927015948
 40
0.9352768279566413
 40
0.9352768279566413
 40
0.9509007288973345
 40
0.9509007288973345
 40
1.0
 40
1.0
 40
1.0
 40
1.0
 10
411.8319912320036
 20
293.2652179237629
 30
0.0
 10
411.831980353971
 20
293.2652185618136
 30
0.0
 10
411.8322060062284
 20
293.2652054634274
 30
0.0
 10
411.8347957685482
 20
293.2650550180488
 30
0.0
 10
411.8419200669808
 20
293.2646386691446
 30
0.0
 10
411.8664496919826
 20
293.2632540802542
 30
0.0
 10
411.8834197562168
 20
293.2623113619125
 30
0.0
 10
411.9155185933577
 20
293.2606241309329
 30
0.0
 10
411.927334444836
 20
293.2600160663008
 30
0.0
 10
411.9467581493228
 20
293.259048010705
 30
0.0
 10
411.9535168848484
 20
293.2587160300013
 30
0.0
 10
411.9674488564652
 20
293.258043325536
 30
0.0
 10
411.9746398072836
 20
293.2577017099258
 30
0.0
 10
412.01169366568
 20
293.2559741041723
 30
0.0
 10
412.0448219724925
 20
293.2545297884011
 30
0.0
 10
412.0996506725961
 20
293.2523938412413
 30
0.0
 10
412.1188393069108
 20
293.2516856524878
 30
0.0
 10
412.1581516041112
 20
293.2503280303334
 30
0.0
 10
412.1985756171963
 20
293.2490218411643
 30
0.0
 10
412.241160362222
 20
293.2478516887944
 30
0.0
 10
412.2739089317247
 20
293.2470372797515
 30
0.0
 10
412.2849603579721
 20
293.2467763436788
 30
0.0
 10
412.3073365013628
 20
293.2462775969668
 30
0.0
 10
412.3186902881569
 20
293.2460392449747
 30
0.0
 10
412.3756915051008
 20
293.2449193494329
 30
0.0
 10
412.4220975942471
 20
293.2442505837752
 30
0.0
 10
412.4928648935526
 20
293.243628070192
 30
0.0
 10
412.5166483882765
 20
293.2434839651762
 30
0.0
 10
412.5646120857585
 20
293.2433291205589
 30
0.0
 10
412.5888319998516
 20
293.2433192479892
 30
0.0
 10
412.6606337808429
 20
293.2434917205148
 30
0.0
 10
412.7078433139897
 20
293.2438733507749
 30
0.0
 10
412.7776754278298
 20
293.2448127517097
 30
0.0
 10
412.8007880283232
 20
293.2451870490496
 30
0.0
 10
412.8466706855863
 20
293.2460521831619
 30
0.0
 10
412.869167370905
 20
293.2465380494107
 30
0.0
 10
412.9349434533398
 20
293.2481231722884
 30
0.0
 10
412.9767059231749
 20
293.249353601486
 30
0.0
 10
413.0262272026911
 20
293.2510286073486
 30
0.0
 10
413.0359961842858
 20
293.2513704396674
 30
0.0
 10
413.0552567846918
 20
293.2520656410854
 30
0.0
 10
413.0647687927018
 20
293.2524198329218
 30
0.0
 10
413.0925810209138
 20
293.2534848707007
 30
0.0
 10
413.1102410526745
 20
293.2542009283961
 30
0.0
 10
413.1606178262501
 20
293.2563363958141
 30
0.0
 10
413.1907582336213
 20
293.2577436825434
 30
0.0
 10
413.2238759407059
 20
293.2593778118498
 30
0.0
 10
413.2302877809522
 20
293.2596992854325
 30
0.0
 10
413.2425309404753
 20
293.2603214053459
 30
0.0
 10
413.2600179339641
 20
293.2612230576726
 30
0.0
 10
413.2848528993868
 20
293.2625533644323
 30
0.0
 10
413.3001478371364
 20
293.2634036236746
 30
0.0
 10
413.3098609391685
 20
293.2639495240298
 30
0.0
 10
413.3128050762304
 20
293.2641161874662
 30
0.0
 10
413.3180919312471
 20
293.2644168940306
 30
0.0
 10
413.3204385894477
 20
293.2645511651666
 30
0.0
 10
413.328787098387
 20
293.2650304887953
 30
0.0
 10
413.3319495987051
 20
293.2652148063829
 30
0.0
 10
413.3319951340387
 20
293.2652179048774
 30
0.0
  0
SPLINE
  5
168
330
1F
100
AcDbEntity
  8
1
100
AcDbSpline
210
0.0
220
0.0
230
1.0
 70
     9
 71
     3
 72
   120
 73
   116
 74
     0
 42
0.000000001
 43
0.0000000001
 40
0.0
 40
0.0
 40
0.0
 40
0.0
 40
0.0312499999999695
 40
0.0312499999999695
 40
0.0468749999999526
 40
0.0468749999999526
 40
0.0624999999999358
 40
0.0624999999999358
 40
0.093749999999902
 40
0.093749999999902
 40
0.1015624999998939
 40
0.1015624999998939
 40
0.1093749999998859
 40
0.1249999999998718
 40
0.1406249999998576
 40
0.1406249999998576
 40
0.1562499999998435
 40
0.1562499999998435
 40
0.1874999999998106
 40
0.1874999999998106
 40
0.1953124999998039
 40
0.1953124999998039
 40
0.2031249999997973
 40
0.2031249999997973
 40
0.2187499999997842
 40
0.2187499999997842
 40
0.2499999999997501
 40
0.2499999999997501
 40
0.2578124999997416
 40
0.2578124999997416
 40
0.265624999999733
 40
0.281249999999716
 40
0.2968749999996989
 40
0.2968749999996989
 40
0.3046874999996954
 40
0.3046874999996954
 40
0.3124999999996917
 40
0.3124999999996917
 40
0.3437499999996771
 40
0.3437499999996771
 40
0.3593749999996746
 40
0.3593749999996746
 40
0.3671874999996783
 40
0.3671874999996783
 40
0.374999999999682
 40
0.374999999999682
 40
0.4062499999997157
 40
0.4062499999997157
 40
0.414062499999722
 40
0.414062499999722
 40
0.4218749999997282
 40
0.4218749999997282
 40
0.4374999999997404
 40
0.4374999999997404
 40
0.4687499999997655
 40
0.4687499999997655
 40
0.4765624999997717
 40
0.4765624999997717
 40
0.4843749999997778
 40
0.4999999999997903
 40
0.5156249999998028
 40
0.5156249999998028
 40
0.5234374999998068
 40
0.5234374999998068
 40
0.5312499999998109
 40
0.5312499999998109
 40
0.5624999999998304
 40
0.5624999999998304
 40
0.5781249999998402
 40
0.5781249999998402
 40
0.5859374999998451
 40
0.5859374999998451
 40
0.5937499999998503
 40
0.5937499999998503
 40
0.6249999999998703
 40
0.6249999999998703
 40
0.6406249999998791
 40
0.6406249999998791
 40
0.6562499999998878
 40
0.6718749999998966
 40
0.6718749999998966
 40
0.6796874999999009
 40
0.6796874999999009
 40
0.6874999999999054
 40
0.6874999999999054
 40
0.7187499999999227
 40
0.7187499999999227
 40
0.7343749999999276
 40
0.7343749999999276
 40
0.7499999999999324
 40
0.7499999999999324
 40
0.7812499999999334
 40
0.7812499999999334
 40
0.7968749999999386
 40
0.7968749999999386
 40
0.8124999999999436
 40
0.8124999999999436
 40
0.8437499999999541
 40
0.8437499999999541
 40
0.8593749999999545
 40
0.8593749999999545
 40
0.8749999999999547
 40
0.890624999999955
 40
0.890624999999955
 40
0.8984374999999552
 40
0.8984374999999552
 40
0.9062499999999554
 40
0.9062499999999554
 40
0.9374999999999648
 40
0.9374999999999648
 40
0.9531249999999735
 40
0.9531249999999735
 40
0.9687499999999824
 40
0.9687499999999824
 40
1.0
 40
1.0
 40
1.0
 40
1.0
 10
410.6709701209046
 20
270.0795781010488
 30
0.0
 10
410.6940597559403
 20
270.081457266604
 30
0.0
 10
410.7129190699632
 20
270.0836078067099
 30
0.0
 10
410.7349611905811
 20
270.087318489594
 30
0.0
 10
410.7412604888398
 20
270.0886365479363
 30
0.0
 10
410.7516815092906
 20
270.0914506584109
 30
0.0
 10
410.7557143026672
 20
270.0929226758627
 30
0.0
 10
410.7644064899856
 20
270.09753695604
 30
0.0
 10
410.7656924860012
 20
270.1008772324565
 30
0.0
 10
410.7615711884183
 20
270.1053962731785
 30
0.0
 10
410.7604534102629
 20
270.1063194646866
 30
0.0
 10
410.7576623950355
 20
270.1081799279577
 30
0.0
 10
410.7526382078463
 20
270.1109973637002
 30
0.0
 10
410.740186029793
 20
270.115819762839
 30
0.0
 10
410.7259638987518
 20
270.1197957404993
 30
0.0
 10
410.7095920999919
 20
270.1238209018108
 30
0.0
 10
410.7002824354892
 20
270.1258660764339
 30
0.0
 10
410.6697044705881
 20
270.1319286012645
 30
0.0
 10
410.6456977428853
 20
270.1359102125086
 30
0.0
 10
410.6112862029229
 20
270.1407362610861
 30
0.0
 10
410.6041816471186
 20
270.141693820598
 30
0.0
 10
410.5895227453585
 20
270.1435912795997
 30
0.0
 10
410.5819486208966
 20
270.1445334348656
 30
0.0
 10
410.5587594049728
 20
270.1473037466369
 30
0.0
 10
410.5426445991877
 20
270.1490810796275
 30
0.0
 10
410.4924006311353
 20
270.1541857625084
 30
0.0
 10
410.4563897522757
 20
270.1572878656121
 30
0.0
 10
410.4081716414397
 20
270.1606997577632
 30
0.0
 10
410.3983546696801
 20
270.1613592325646
 30
0.0
 10
410.3786021020733
 20
270.1626156258357
 30
0.0
 10
410.3487220407626
 20
270.1644116217399
 30
0.0
 10
410.2976930261345
 20
270.1669581792523
 30
0.0
 10
410.2555769326312
 20
270.1685026522118
 30
0.0
 10
410.2234983225285
 20
270.1694669467425
 30
0.0
 10
410.2127233904251
 20
270.1697560011832
 30
0.0
 10
410.1910065374768
 20
270.1702673677329
 30
0.0
 10
410.1800488212432
 20
270.1704897673531
 30
0.0
 10
410.1254130604637
 20
270.171421030614
 30
0.0
 10
410.0817695905123
 20
270.1716021476376
 30
0.0
 10
410.0163995089578
 20
270.1710438960368
 30
0.0
 10
409.9946254428823
 20
270.1707189628694
 30
0.0
 10
409.9619889492744
 20
270.170020437259
 30
0.0
 10
409.9510891572233
 20
270.1697515507647
 30
0.0
 10
409.9295100892921
 20
270.1691488252528
 30
0.0
 10
409.9188123522243
 20
270.1688147594256
 30
0.0
 10
409.8657747373781
 20
270.1669861604151
 30
0.0
 10
409.824775726341
 20
270.1650194541425
 30
0.0
 10
409.775315695975
 20
270.1619869223549
 30
0.0
 10
409.7655139004567
 20
270.1613515481835
 30
0.0
 10
409.7460939315807
 20
270.1600238231071
 30
0.0
 10
409.7364499046745
 20
270.1593294485455
 30
0.0
 10
409.7080385945885
 20
270.1571800561944
 30
0.0
 10
409.6897804983263
 20
270.1556592004569
 30
0.0
 10
409.637001103608
 20
270.1508636947472
 30
0.0
 10
409.6044550870342
 20
270.1473576615706
 30
0.0
 10
409.5671892957498
 20
270.1426628175574
 30
0.0
 10
409.5598901492633
 20
270.1417055550764
 30
0.0
 10
409.545740346751
 20
270.1397739613845
 30
0.0
 10
409.5252261992262
 20
270.1368563745931
 30
0.0
 10
409.4945180218648
 20
270.1319113651425
 30
0.0
 10
409.4736325402672
 20
270.1278998757232
 30
0.0
 10
409.4593782381929
 20
270.1248808340535
 30
0.0
 10
409.4548622078489
 20
270.1238727325028
 30
0.0
 10
409.4463114512603
 20
270.1218545674312
 30
0.0
 10
409.4422669679943
 20
270.1208418487287
 30
0.0
 10
409.4234059538362
 20
270.1158099109254
 30
0.0
 10
409.4127550020336
 20
270.1119257299173
 30
0.0
 10
409.403315111917
 20
270.1063540963854
 30
0.0
 10
409.4012659462306
 20
270.1045391845007
 30
0.0
 10
409.3998987931154
 20
270.1018846337233
 30
0.0
 10
409.3997292711809
 20
270.1010085879195
 30
0.0
 10
409.3999714853503
 20
270.0992973453114
 30
0.0
 10
409.4003808014719
 20
270.098461063449
 30
0.0
 10
409.4038431820719
 20
270.0943740573282
 30
0.0
 10
409.4111023642017
 20
270.0914059916676
 30
0.0
 10
409.4287505737609
 20
270.087369927601
 30
0.0
 10
409.4358204791531
 20
270.086087726108
 30
0.0
 10
409.4519773300901
 20
270.0837045070914
 30
0.0
 10
409.4701552321136
 20
270.0814934787569
 30
0.0
 10
409.4922561264074
 20
270.0795898269097
 30
0.0
 10
409.510301794141
 20
270.0782656259025
 30
0.0
 10
409.5165624557921
 20
270.0778415016531
 30
0.0
 10
409.5295798507569
 20
270.0770260583618
 30
0.0
 10
409.5363564287297
 20
270.0766337430542
 30
0.0
 10
409.5711810922066
 20
270.0747666333704
 30
0.0
 10
409.6020684662208
 20
270.0735661839155
 30
0.0
 10
409.6527000766276
 20
270.0720794648716
 30
0.0
 10
409.6702995149089
 20
270.0716368062836
 30
0.0
 10
409.7069664420576
 20
270.0708420790564
 30
0.0
 10
409.7258455314332
 20
270.0704943015646
 30
0.0
 10
409.7836227588998
 20
270.0695790579837
 30
0.0
 10
409.823832216198
 20
270.0691336924544
 30
0.0
 10
409.886656243851
 20
270.0686365738134
 30
0.0
 10
409.9081052040406
 20
270.06849965204
 30
0.0
 10
409.9510442662188
 20
270.0682805108916
 30
0.0
 10
409.9726122742429
 20
270.0681974527785
 30
0.0
 10
410.0376044109883
 20
270.0680174798896
 30
0.0
 10
410.081313937944
 20
270.0679876452118
 30
0.0
 10
410.147470304208
 20
270.0680763595775
 30
0.0
 10
410.1693760648684
 20
270.0681285031069
 30
0.0
 10
410.2126230278432
 20
270.0682797186988
 30
0.0
 10
410.2553973202342
 20
270.068478000142
 30
0.0
 10
410.297230744172
 20
270.0687829625343
 30
0.0
 10
410.3282446293717
 20
270.0690597246491
 30
0.0
 10
410.3385222886758
 20
270.0691600211755
 30
0.0
 10
410.3589542485103
 20
270.0693785156805
 30
0.0
 10
410.3691278260543
 20
270.0694970037259
 30
0.0
 10
410.4191565440008
 20
270.0701325703662
 30
0.0
 10
410.4568770226306
 20
270.0707799740671
 30
0.0
 10
410.510023437797
 20
270.0720477259499
 30
0.0
 10
410.5271625934363
 20
270.0725201892383
 30
0.0
 10
410.5602408542438
 20
270.0735862712711
 30
0.0
 10
410.5761970236296
 20
270.074181715128
 30
0.0
 10
410.6212419430624
 20
270.0761454849845
 30
0.0
 10
410.6478804858688
 20
270.0776989354936
 30
0.0
 10
410.6709701209045
 20
270.0795781010488
 30
0.0
  0
SPLINE
  5
169
330
1F
100
AcDbEntity
  8
1
100
AcDbSpline
210
0.0
220
0.0
230
1.0
 70
     8
 71
     3
 72
     8
 73
     4
 74
     0
 42
0.000000001
 43
0.0000000001
 40
0.0
 40
0.0
 40
0.0
 40
0.0
 40
1.0
 40
1.0
 40
1.0
 40
1.0
 10
440.0572759386356
 20
282.4033722147177
 30
0.0
 10
440.057789084402
 20
282.3961006630018
 30
0.0
 10
440.058165336735
 20
282.3888334455613
 30
0.0
 10
440.0584040888977
 20
282.3815705883776
 30
0.0
  0
SPLINE
  5
16A
330
1F
100
AcDbEntity
  8
1
100
AcDbSpline
210
0.0
220
0.0
230
1.0
 70
     8
 71
     3
 72
    10
 73
     6
 74
     0
 42
0.000000001
 43
0.0000000001
 40
0.0
 40
0.0
 40
0.0
 40
0.0
 40
0.5
 40
0.5
 40
1.0
 40
1.0
 40
1.0
 40
1.0
 10
440.0584040888976
 20
282.3815705883776
 30
0.0
 10
440.0584449762496
 20
282.3679201425444
 30
0.0
 10
440.0578201741462
 20
282.3545782493266
 30
0.0
 10
440.0552884740287
 20
282.3284880859002
 30
0.0
 10
440.0533611398715
 20
282.3156548384016
 30
0.0
 10
440.0508200037623
 20
282.3033980489921
 30
0.0
  0
SPLINE
  5
16C
330
1F
100
AcDbEntity
  8
1
100
AcDbSpline
210
0.0
220
0.0
230
1.0
 70
     8
 71
     3
 72
    14
 73
    10
 74
     0
 42
0.000000001
 43
0.0000000001
 40
0.0
 40
0.0
 40
0.0
 40
0.0
 40
0.5245554309075901
 40
0.5245554309075901
 40
0.7868331463613434
 40
0.7868331463613434
 40
0.9179720040881797
 40
0.9179720040881797
 40
1.0
 40
1.0
 40
1.0
 40
1.0
 10
415.6419818942991
 20
269.9471244062508
 30
0.0
 10
415.5664260513922
 20
269.9555786080556
 30
0.0
 10
415.4921005049429
 20
269.971147628353
 30
0.0
 10
415.3824371949763
 20
270.0050552108175
 30
0.0
 10
415.34618917429
 20
270.0181297453616
 30
0.0
 10
415.2922958825847
 20
270.0405101021673
 30
0.0
 10
415.2743793203321
 20
270.0484492877584
 30
0.0
 10
415.245627905298
 20
270.0620137099614
 30
0.0
 10
415.2346428259361
 20
270.0673958781387
 30
0.0
 10
415.2237364117359
 20
270.0729405620678
 30
0.0
  0
SPLINE
  5
16D
330
1F
100
AcDbEntity
  8
1
100
AcDbSpline
210
0.0
220
0.0
230
1.0
 70
     8
 71
     3
 72
    11
 73
     7
 74
     0
 42
0.000000001
 43
0.0000000001
 40
0.0
 40
0.0
 40
0.0
 40
0.0
 40
0.0017130859596309
 40
0.3440348901803998
 40
0.6870694591650109
 40
1.0
 40
1.0
 40
1.0
 40
1.0
 10
426.2199331437823
 20
277.0980305900426
 30
0.0
 10
426.2202247586153
 20
277.0982150844204
 30
0.0
 10
426.2787969584009
 20
277.1352530273911
 30
0.0
 10
426.3989377794423
 20
277.2037593157303
 30
0.0
 10
426.5812515524761
 20
277.2868025798727
 30
0.0
 10
426.7050066986374
 20
277.3305333559318
 30
0.0
 10
426.7647530335347
 20
277.3489383829942
 30
0.0
  0
SPLINE
  5
16E
330
1F
100
AcDbEntity
  8
1
100
AcDbSpline
210
0.0
220
0.0
230
1.0
 70
    12
 71
     2
 72
     6
 73
     3
 74
     0
 42
0.000000001
 43
0.0000000001
 40
0.0
 40
0.0
 40
0.0
 40
1.0
 40
1.0
 40
1.0
 10
426.7770598325998
 20
270.0673631721265
 30
0.0
 41
0.4999999906264979
 10
426.7780601279261
 20
270.0673182068849
 30
0.0
 41
0.5000000093735022
 10
426.7790604194946
 20
270.0672734304841
 30
0.0
 41
0.4999999906264979
  0
SPLINE
  5
16F
330
1F
100
AcDbEntity
  8
1
100
AcDbSpline
210
0.0
220
0.0
230
1.0
 70
     8
 71
     3
 72
    28
 73
    24
 74
     0
 42
0.000000001
 43
0.0000000001
 40
0.0
 40
0.0
 40
0.0
 40
0.0
 40
0.2500000000000007
 40
0.2500000000000007
 40
0.5000000000000014
 40
0.5000000000000014
 40
0.6250000000000018
 40
0.6250000000000018
 40
0.7500000000000023
 40
0.7500000000000023
 40
0.8125000000000021
 40
0.8125000000000021
 40
0.8750000000000021
 40
0.8750000000000021
 40
0.9062500000000015
 40
0.9062500000000015
 40
0.9375000000000012
 40
0.9375000000000012
 40
0.9687500000000007
 40
0.9687500000000007
 40
0.9843750000000003
 40
0.9843750000000003
 40
1.0
 40
1.0
 40
1.0
 40
1.0
 10
439.1548816171029
 20
277.4065544708625
 30
0.0
 10
439.1712026040727
 20
277.4069174895536
 30
0.0
 10
439.1874135710821
 20
277.406965905978
 30
0.0
 10
439.2194859883688
 20
277.4060533756218
 30
0.0
 10
439.2353518138649
 20
277.4051150365662
 30
0.0
 10
439.2586462736582
 20
277.4022866455792
 30
0.0
 10
439.2663231737954
 20
277.4011036539545
 30
0.0
 10
439.2813949186228
 20
277.397966943183
 30
0.0
 10
439.2887960182173
 20
277.396031040838
 30
0.0
 10
439.2994795023549
 20
277.3920382542444
 30
0.0
 10
439.3029695940692
 20
277.3905230530023
 30
0.0
 10
439.3097099032068
 20
277.3868991874937
 30
0.0
 10
439.3129682579872
 20
277.3848036702064
 30
0.0
 10
439.3174926183545
 20
277.3808151580177
 30
0.0
 10
439.318939869931
 20
277.3793416883401
 30
0.0
 10
439.3216214221045
 20
277.375935597962
 30
0.0
 10
439.3228639316111
 20
277.3740075905046
 30
0.0
 10
439.3249103140644
 20
277.3693133561336
 30
0.0
 10
439.3257590744081
 20
277.3665664403957
 30
0.0
 10
439.3260752404542
 20
277.360915698739
 30
0.0
 10
439.3260113071216
 20
277.3587833955189
 30
0.0
 10
439.3252227818658
 20
277.3537399800171
 30
0.0
 10
439.3244797762104
 20
277.3509070305552
 30
0.0
 10
439.3234211279488
 20
277.3480449208968
 30
0.0
  0
SPLINE
  5
170
330
1F
100
AcDbEntity
  8
1
100
AcDbSpline
210
0.0
220
0.0
230
1.0
 70
     8
 71
     3
 72
    49
 73
    45
 74
     0
 42
0.000000001
 43
0.0000000001
 40
0.0
 40
0.0
 40
0.0
 40
0.0
 40
0.0625000000000046
 40
0.0625000000000046
 40
0.093750000000007
 40
0.093750000000007
 40
0.1250000000000093
 40
0.1562500000000116
 40
0.1562500000000116
 40
0.1875000000000139
 40
0.1875000000000139
 40
0.2500000000000149
 40
0.2500000000000149
 40
0.3125000000000159
 40
0.3125000000000159
 40
0.3437500000000163
 40
0.3437500000000163
 40
0.3750000000000167
 40
0.4062500000000171
 40
0.4062500000000171
 40
0.4375000000000175
 40
0.4375000000000175
 40
0.468750000000018
 40
0.468750000000018
 40
0.5000000000000185
 40
0.5000000000000185
 40
0.5625000000000195
 40
0.5625000000000195
 40
0.5937500000000198
 40
0.5937500000000198
 40
0.6250000000000201
 40
0.6250000000000201
 40
0.7500000000000152
 40
0.7500000000000152
 40
0.8125000000000111
 40
0.8125000000000111
 40
0.8437500000000092
 40
0.8437500000000092
 40
0.8750000000000074
 40
0.9062500000000055
 40
0.9062500000000055
 40
0.9375000000000035
 40
0.9375000000000035
 40
1.0
 40
1.0
 40
1.0
 40
1.0
 10
426.7790604194946
 20
270.0672734304841
 30
0.0
 10
427.0013207166456
 20
270.0573341695293
 30
0.0
 10
427.2236179499437
 20
270.0539897631837
 30
0.0
 10
427.5571191145532
 20
270.0588494127327
 30
0.0
 10
427.6683365810438
 20
270.0621187065846
 30
0.0
 10
427.8905251609422
 20
270.0719477581092
 30
0.0
 10
428.1124828884933
 20
270.0850645253123
 30
0.0
 10
428.3339794435731
 20
270.1047491449135
 30
0.0
 10
428.5552450891326
 20
270.1277222951726
 30
0.0
 10
428.6657446828223
 20
270.1408527508042
 30
0.0
 10
428.996406127301
 20
270.1851189486756
 30
0.0
 10
429.2159349202153
 20
270.2211495189323
 30
0.0
 10
429.6528923757164
 20
270.30622447039
 30
0.0
 10
429.8699231028372
 20
270.3551885954112
 30
0.0
 10
430.1932996347385
 20
270.438263918295
 30
0.0
 10
430.3007638029443
 20
270.4675721571471
 30
0.0
 10
430.5146765123287
 20
270.5293240200527
 30
0.0
 10
430.7276246688158
 20
270.5942221897763
 30
0.0
 10
430.9386454651506
 20
270.6654072790475
 30
0.0
 10
431.1487009911665
 20
270.7397410153905
 30
0.0
 10
431.2531983886089
 20
270.7784664300164
 30
0.0
 10
431.4609341067673
 20
270.8589560391377
 30
0.0
 10
431.5642025178648
 20
270.9007307683207
 30
0.0
 10
431.7695404096406
 20
270.9873401638863
 30
0.0
 10
431.871641175101
 20
271.0321892775631
 30
0.0
 10
432.1759141031526
 20
271.1712340580381
 30
0.0
 10
432.3759072910601
 20
271.2698491115017
 30
0.0
 10
432.6716166197781
 20
271.4266439094642
 30
0.0
 10
432.7694915634165
 20
271.480400636617
 30
0.0
 10
432.9635276450029
 20
271.5907187148209
 30
0.0
 10
433.0597222322346
 20
271.6472969951668
 30
0.0
 10
433.5365806060596
 20
271.9372799401443
 30
0.0
 10
433.9051243847178
 20
272.1921727167374
 30
0.0
 10
434.4337707632233
 20
272.6056430741805
 30
0.0
 10
434.6058755366532
 20
272.7485642873774
 30
0.0
 10
434.8578673954066
 20
272.9705918456634
 30
0.0
 10
434.9408366998058
 20
273.0458786082876
 30
0.0
 10
435.1044616900551
 20
273.198769851825
 30
0.0
 10
435.2658387273566
 20
273.3540355027356
 30
0.0
 10
435.4227227323922
 20
273.514046933068
 30
0.0
 10
435.5773559167974
 20
273.6764357997252
 30
0.0
 10
435.6535057462816
 20
273.7587770649423
 30
0.0
 10
435.8782382409773
 20
274.008995485987
 30
0.0
 10
436.0231982075762
 20
274.1801596668527
 30
0.0
 10
436.16328603722
 20
274.3556850934331
 30
0.0
  0
SPLINE
  5
171
330
1F
100
AcDbEntity
  8
1
100
AcDbSpline
210
0.0
220
0.0
230
1.0
 70
     8
 71
     3
 72
     8
 73
     4
 74
     0
 42
0.000000001
 43
0.0000000001
 40
0.0
 40
0.0
 40
0.0
 40
0.0
 40
1.0
 40
1.0
 40
1.0
 40
1.0
 10
436.16328603722
 20
274.3556850934331
 30
0.0
 10
436.1896584451187
 20
274.3887243185383
 30
0.0
 10
436.2160952757316
 20
274.42176419146
 30
0.0
 10
436.2425898765176
 20
274.4548083208639
 30
0.0
  0
SPLINE
  5
172
330
1F
100
AcDbEntity
  8
1
100
AcDbSpline
210
0.0
220
0.0
230
1.0
 70
     8
 71
     3
 72
     8
 73
     4
 74
     0
 42
0.000000001
 43
0.0000000001
 40
0.0
 40
0.0
 40
0.0
 40
0.0
 40
1.0
 40
1.0
 40
1.0
 40
1.0
 10
436.3091979882603
 20
274.6914825516075
 30
0.0
 10
436.2847339781766
 20
274.612902573509
 30
0.0
 10
436.2625909430648
 20
274.533847746223
 30
0.0
 10
436.2425898765256
 20
274.4548083208575
 30
0.0
  0
SPLINE
  5
173
330
1F
100
AcDbEntity
  8
1
100
AcDbSpline
210
0.0
220
0.0
230
1.0
 70
     8
 71
     3
 72
    10
 73
     6
 74
     0
 42
0.000000001
 43
0.0000000001
 40
0.0
 40
0.0
 40
0.0
 40
0.0
 40
0.5
 40
0.5
 40
1.0
 40
1.0
 40
1.0
 40
1.0
 10
439.3490113515651
 20
285.9088439222438
 30
0.0
 10
439.3713866422668
 20
285.8472252667954
 30
0.0
 10
439.3928707820101
 20
285.7854068952425
 30
0.0
 10
439.4342719883837
 20
285.661386559993
 30
0.0
 10
439.4541873127129
 20
285.5991844696168
 30
0.0
 10
439.4733866190198
 20
285.5367954371123
 30
0.0
  0
SPLINE
  5
174
330
1F
100
AcDbEntity
  8
1
100
AcDbSpline
210
0.0
220
0.0
230
1.0
 70
     8
 71
     3
 72
    43
 73
    39
 74
     0
 42
0.000000001
 43
0.0000000001
 40
0.0
 40
0.0
 40
0.0
 40
0.0
 40
0.1249999999999819
 40
0.1249999999999819
 40
0.1874999999999633
 40
0.1874999999999633
 40
0.2187499999999635
 40
0.2187499999999635
 40
0.2499999999999638
 40
0.281249999999964
 40
0.281249999999964
 40
0.3124999999999643
 40
0.3124999999999643
 40
0.3749999999999834
 40
0.3749999999999834
 40
0.4375000000000026
 40
0.4375000000000026
 40
0.4687500000000033
 40
0.4687500000000033
 40
0.5000000000000043
 40
0.5000000000000043
 40
0.6249999999999911
 40
0.6249999999999911
 40
0.6874999999999915
 40
0.6874999999999915
 40
0.7187499999999919
 40
0.7187499999999919
 40
0.7499999999999921
 40
0.7499999999999921
 40
0.8124999999999925
 40
0.8124999999999925
 40
0.8749999999999928
 40
0.8749999999999928
 40
0.9062499999999932
 40
0.9062499999999932
 40
0.9374999999999936
 40
0.9374999999999936
 40
1.0
 40
1.0
 40
1.0
 40
1.0
 10
438.8010097633288
 20
281.2265708060938
 30
0.0
 10
438.8653558082408
 20
281.2238446355614
 30
0.0
 10
438.9308225318898
 20
281.2282420437102
 30
0.0
 10
439.0306850212176
 20
281.2454052027297
 30
0.0
 10
439.0642516323882
 20
281.2529004445929
 30
0.0
 10
439.1150376334538
 20
281.2669152711872
 30
0.0
 10
439.1320703732798
 20
281.2720614550807
 30
0.0
 10
439.1660038424347
 20
281.2832120716562
 30
0.0
 10
439.1998567067652
 20
281.2952318617434
 30
0.0
 10
439.2335483188339
 20
281.3089904583584
 30
0.0
 10
439.2671586425113
 20
281.3236255994805
 30
0.0
 10
439.2839477903578
 20
281.3313938492321
 30
0.0
 10
439.3339884322208
 20
281.3559333880871
 30
0.0
 10
439.3668834336558
 20
281.373914417505
 30
0.0
 10
439.4317404881098
 20
281.4131264497098
 30
0.0
 10
439.4637330992948
 20
281.4343924567632
 30
0.0
 10
439.510446630341
 20
281.4683739148822
 30
0.0
 10
439.5258288626481
 20
281.4800620102031
 30
0.0
 10
439.556214610639
 20
281.5041616662941
 30
0.0
 10
439.5712399298126
 20
281.5165921576508
 30
0.0
 10
439.6451643849469
 20
281.5803587026358
 30
0.0
 10
439.6996763868934
 20
281.635751528127
 30
0.0
 10
439.7747934866014
 20
281.7251352741159
 30
0.0
 10
439.7987150634729
 20
281.7559874324329
 30
0.0
 10
439.8328768880195
 20
281.8038940137301
 30
0.0
 10
439.8439353899454
 20
281.8200787646398
 30
0.0
 10
439.8653014371758
 20
281.8527297919082
 30
0.0
 10
439.8756250572856
 20
281.8692184764195
 30
0.0
 10
439.9055252396853
 20
281.9191706227547
 30
0.0
 10
439.9240765305093
 20
281.9532145748535
 30
0.0
 10
439.9579970181902
 20
282.0219532678397
 30
0.0
 10
439.973394690874
 20
282.056677149953
 30
0.0
 10
439.9941700457373
 20
282.1092896255109
 30
0.0
 10
440.0007038417783
 20
282.1269092359701
 30
0.0
 10
440.0129317859783
 20
282.1621358307996
 30
0.0
 10
440.0186354029304
 20
282.1797660845717
 30
0.0
 10
440.034526842724
 20
282.2327072333869
 30
0.0
 10
440.0435140481014
 20
282.2681588661518
 30
0.0
 10
440.0508200037623
 20
282.3033980489921
 30
0.0
  0
SPLINE
  5
175
330
1F
100
AcDbEntity
  8
1
100
AcDbSpline
210
0.0
220
0.0
230
1.0
 70
     8
 71
     3
 72
     8
 73
     4
 74
     0
 42
0.000000001
 43
0.0000000001
 40
0.0
 40
0.0
 40
0.0
 40
0.0
 40
1.0
 40
1.0
 40
1.0
 40
1.0
 10
432.1443246784231
 20
281.8588736763049
 30
0.0
 10
432.1309957018447
 20
281.8599064443058
 30
0.0
 10
432.1176668599567
 20
281.8609391957352
 30
0.0
 10
432.1043381554956
 20
281.8619719302566
 30
0.0
  0
SPLINE
  5
176
330
1F
100
AcDbEntity
  8
1
100
AcDbSpline
210
0.0
220
0.0
230
1.0
 70
     8
 71
     3
 72
     8
 73
     4
 74
     0
 42
0.000000001
 43
0.0000000001
 40
0.0
 40
0.0
 40
0.0
 40
0.0
 40
1.0
 40
1.0
 40
1.0
 40
1.0
 10
432.1043381554956
 20
271.99026540013
 30
0.0
 10
432.1176648937446
 20
271.9666100237074
 30
0.0
 10
432.1309937493744
 20
271.9429558952918
 30
0.0
 10
432.1443246784231
 20
271.9193029889717
 30
0.0
  0
SPLINE
  5
177
330
1F
100
AcDbEntity
  8
1
100
AcDbSpline
210
0.0
220
0.0
230
1.0
 70
     8
 71
     3
 72
     8
 73
     4
 74
     0
 42
0.000000001
 43
0.0000000001
 40
0.0
 40
0.0
 40
0.0
 40
0.0
 40
1.0
 40
1.0
 40
1.0
 40
1.0
 10
434.3093881878842
 20
281.5926817623451
 30
0.0
 10
433.5882258322892
 20
281.681371989394
 30
0.0
 10
432.8664748843857
 20
281.7701074808235
 30
0.0
 10
432.1443246784231
 20
281.8588736763049
 30
0.0
  0
SPLINE
  5
178
330
1F
100
AcDbEntity
  8
1
100
AcDbSpline
210
0.0
220
0.0
230
1.0
 70
     8
 71
     3
 72
     8
 73
     4
 74
     0
 42
0.000000001
 43
0.0000000001
 40
0.0
 40
0.0
 40
0.0
 40
0.0
 40
1.0
 40
1.0
 40
1.0
 40
1.0
 10
416.5598976063454
 20
292.3424696769425
 30
0.0
 10
416.5639870745117
 20
292.3211021852332
 30
0.0
 10
416.5683644315176
 20
292.298723433844
 30
0.0
 10
416.5732181373311
 20
292.2746108146537
 30
0.0
  0
SPLINE
  5
179
330
1F
100
AcDbEntity
  8
1
100
AcDbSpline
210
0.0
220
0.0
230
1.0
 70
     8
 71
     3
 72
     8
 73
     4
 74
     0
 42
0.000000001
 43
0.0000000001
 40
0.0
 40
0.0
 40
0.0
 40
0.0
 40
1.0
 40
1.0
 40
1.0
 40
1.0
 10
416.5576851515232
 20
292.4073529706711
 30
0.0
 10
416.5577023063789
 20
292.3856944332276
 30
0.0
 10
416.5584404966897
 20
292.3640664936648
 30
0.0
 10
416.5598976063469
 20
292.3424696769494
 30
0.0
  0
SPLINE
  5
17A
330
1F
100
AcDbEntity
  8
1
100
AcDbSpline
210
0.0
220
0.0
230
1.0
 70
     8
 71
     3
 72
    28
 73
    24
 74
     0
 42
0.000000001
 43
0.0000000001
 40
0.0
 40
0.0
 40
0.0
 40
0.0
 40
0.2499999999999997
 40
0.2499999999999997
 40
0.4999999999999994
 40
0.4999999999999994
 40
0.6249999999999995
 40
0.6249999999999995
 40
0.7499999999999993
 40
0.7499999999999993
 40
0.8124999999999968
 40
0.8124999999999968
 40
0.8749999999999941
 40
0.8749999999999941
 40
0.9062499999999948
 40
0.9062499999999948
 40
0.9374999999999953
 40
0.9374999999999953
 40
0.968749999999996
 40
0.968749999999996
 40
0.9843749999999978
 40
0.9843749999999978
 40
1.0
 40
1.0
 40
1.0
 40
1.0
 10
416.5598976063487
 20
292.3424696769255
 30
0.0
 10
416.5602611821062
 20
292.3441079450195
 30
0.0
 10
416.5606919070538
 20
292.3454174522312
 30
0.0
 10
416.5617651580339
 20
292.3469822452824
 30
0.0
 10
416.562402868823
 20
292.3472608733103
 30
0.0
 10
416.5636546496724
 20
292.346194040811
 30
0.0
 10
416.5641217360462
 20
292.3455872272752
 30
0.0
 10
416.5652157281977
 20
292.3435675598958
 30
0.0
 10
416.5658388858554
 20
292.342173322254
 30
0.0
 10
416.5669994286744
 20
292.3389415692059
 30
0.0
 10
416.5674244816453
 20
292.3376713130099
 30
0.0
 10
416.5683976860349
 20
292.3345083303342
 30
0.0
 10
416.5689431508813
 20
292.3326296158365
 30
0.0
 10
416.5699367496956
 20
292.3289232673085
 30
0.0
 10
416.5702978531109
 20
292.3275365980384
 30
0.0
 10
416.5711151883448
 20
292.3242794880623
 30
0.0
 10
416.5715706043573
 20
292.3224143818171
 30
0.0
 10
416.5726543294135
 20
292.3177970789893
 30
0.0
 10
416.5732794436533
 20
292.3150680361099
 30
0.0
 10
416.5745300690413
 20
292.3093426163803
 30
0.0
 10
416.5749974680166
 20
292.3071678513102
 30
0.0
 10
416.5760878458934
 20
292.3019742817473
 30
0.0
 10
416.5766932191609
 20
292.2990335754952
 30
0.0
 10
416.5772979031764
 20
292.2960385392948
 30
0.0
  0
SPLINE
  5
17E
330
1F
100
AcDbEntity
  8
1
100
AcDbSpline
210
0.0
220
0.0
230
1.0
 70
     8
 71
     3
 72
    12
 73
     8
 74
     0
 42
0.000000001
 43
0.0000000001
 40
0.0
 40
0.0
 40
0.0
 40
0.0
 40
0.4999999999999999
 40
0.4999999999999999
 40
0.75
 40
0.75
 40
1.0
 40
1.0
 40
1.0
 40
1.0
 10
420.4428308390768
 20
285.5283738291743
 30
0.0
 10
420.4165995522161
 20
285.5308396857434
 30
0.0
 10
420.3862011539408
 20
285.5375935721419
 30
0.0
 10
420.3324446182933
 20
285.5564841363282
 30
0.0
 10
420.3131566538124
 20
285.564252245379
 30
0.0
 10
420.2713450168531
 20
285.5833368924551
 30
0.0
 10
420.2488250204401
 20
285.5946489692593
 30
0.0
 10
420.2243340618882
 20
285.6081649694215
 30
0.0
  0
SPLINE
  5
17F
330
1F
100
AcDbEntity
  8
1
100
AcDbSpline
210
0.0
220
0.0
230
1.0
 70
     8
 71
     3
 72
    27
 73
    23
 74
     0
 42
0.000000001
 43
0.0000000001
 40
0.0
 40
0.0
 40
0.0
 40
0.0
 40
0.0624999999999993
 40
0.0624999999999993
 40
0.1249999999999986
 40
0.1874999999999979
 40
0.1874999999999979
 40
0.2187499999999974
 40
0.2187499999999974
 40
0.249999999999997
 40
0.249999999999997
 40
0.3749999999999939
 40
0.3749999999999939
 40
0.4999999999999907
 40
0.4999999999999907
 40
0.5624999999999893
 40
0.5624999999999893
 40
0.6249999999999876
 40
0.6249999999999876
 40
0.7499999999999919
 40
0.7499999999999919
 40
1.0
 40
1.0
 40
1.0
 40
1.0
 10
417.447653596753
 20
289.0710025640002
 30
0.0
 10
417.4515300193248
 20
289.0447732121047
 30
0.0
 10
417.4557082511703
 20
289.0183934922
 30
0.0
 10
417.4646178291208
 20
288.9656913682468
 30
0.0
 10
417.4739421508258
 20
288.9138451595719
 30
0.0
 10
417.4840153522963
 20
288.8635444295827
 30
0.0
 10
417.4918241995832
 20
288.8263429560913
 30
0.0
 10
417.4944695064572
 20
288.8140298795521
 30
0.0
 10
417.4998407339748
 20
288.7895700907806
 30
0.0
 10
417.5025725747593
 20
288.7773981772426
 30
0.0
 10
417.5163104684381
 20
288.7174222488338
 30
0.0
 10
417.5276008878355
 20
288.6719839383419
 30
0.0
 10
417.5506121593898
 20
288.5847538681082
 30
0.0
 10
417.5623343219261
 20
288.5429732096694
 30
0.0
 10
417.5801621040298
 20
288.4823739075381
 30
0.0
 10
417.586155458347
 20
288.4624927509961
 30
0.0
 10
417.5981112979776
 20
288.4236729123515
 30
0.0
 10
417.6040855127726
 20
288.4046930214761
 30
0.0
 10
417.6219986443231
 20
288.3488574694732
 30
0.0
 10
417.6339281217956
 20
288.3130973921537
 30
0.0
 10
417.6696878800004
 20
288.209145273373
 30
0.0
 10
417.6934899601836
 20
288.1442263686991
 30
0.0
 10
417.7172681849311
 20
288.0820762790368
 30
0.0
  0
SPLINE
  5
180
330
1F
100
AcDbEntity
  8
1
100
AcDbSpline
210
0.0
220
0.0
230
1.0
 70
     8
 71
     3
 72
    14
 73
    10
 74
     0
 42
0.000000001
 43
0.0000000001
 40
0.0
 40
0.0
 40
0.0
 40
0.0
 40
0.25
 40
0.25
 40
0.5
 40
0.5
 40
0.75
 40
0.75
 40
1.0
 40
1.0
 40
1.0
 40
1.0
 10
417.7172681849311
 20
288.0820762790368
 30
0.0
 10
417.753270598795
 20
287.9879753411637
 30
0.0
 10
417.7934544835663
 20
287.8963504446858
 30
0.0
 10
417.8814728821047
 20
287.7172318650726
 30
0.0
 10
417.9293132381072
 20
287.6297453055325
 30
0.0
 10
418.0322903753366
 20
287.4584994790595
 30
0.0
 10
418.0874298775638
 20
287.3747436098618
 30
0.0
 10
418.2048676401278
 20
287.2107984293926
 30
0.0
 10
418.2671671212227
 20
287.1306107421274
 30
0.0
 10
418.3330583921496
 20
287.0522129651529
 30
0.0
  0
SPLINE
  5
181
330
1F
100
AcDbEntity
  8
1
100
AcDbSpline
210
0.0
220
0.0
230
1.0
 70
     8
 71
     3
 72
     8
 73
     4
 74
     0
 42
0.000000001
 43
0.0000000001
 40
0.0
 40
0.0
 40
0.0
 40
0.0
 40
1.0
 40
1.0
 40
1.0
 40
1.0
 10
434.2694016649568
 20
279.9074504239525
 30
0.0
 10
434.2819932441653
 20
280.0225242794917
 30
0.0
 10
434.2953287269684
 20
280.1377200186383
 30
0.0
 10
434.3093881878842
 20
280.2530343767362
 30
0.0
  0
SPLINE
  5
182
330
1F
100
AcDbEntity
  8
1
100
AcDbSpline
210
0.0
220
0.0
230
1.0
 70
     8
 71
     3
 72
     8
 73
     4
 74
     0
 42
0.000000001
 43
0.0000000001
 40
0.0
 40
0.0
 40
0.0
 40
0.0
 40
1.0
 40
1.0
 40
1.0
 40
1.0
 10
434.3093881878842
 20
274.6213988121287
 30
0.0
 10
434.295282079953
 20
274.7167202873734
 30
0.0
 10
434.2819513667127
 20
274.8126606849023
 30
0.0
 10
434.2694016649568
 20
274.9092244880563
 30
0.0
  0
SPLINE
  5
183
330
1F
100
AcDbEntity
  8
1
100
AcDbSpline
210
0.0
220
0.0
230
1.0
 70
     8
 71
     3
 72
    10
 73
     6
 74
     0
 42
0.000000001
 43
0.0000000001
 40
0.0
 40
0.0
 40
0.0
 40
0.0
 40
0.5
 40
0.5
 40
1.0
 40
1.0
 40
1.0
 40
1.0
 10
432.1443246784231
 20
271.9193029889718
 30
0.0
 10
432.5085680290878
 20
272.1648990530348
 30
0.0
 10
432.8713508686869
 20
272.4126048975775
 30
0.0
 10
433.5933064964562
 20
272.9132314845259
 30
0.0
 10
433.9524825991395
 20
273.1661474389534
 30
0.0
 10
434.3093881878842
 20
273.422343263078
 30
0.0
  0
SPLINE
  5
184
330
1F
100
AcDbEntity
  8
1
100
AcDbSpline
210
0.0
220
0.0
230
1.0
 70
     8
 71
     3
 72
    15
 73
    11
 74
     0
 42
0.000000001
 43
0.0000000001
 40
0.0
 40
0.0
 40
0.0
 40
0.0
 40
0.2441415924228691
 40
0.2441415924228691
 40
0.370117993685756
 40
0.370117993685756
 40
0.4960943949486432
 40
0.4960943949486432
 40
0.7480471974743216
 40
1.0
 40
1.0
 40
1.0
 40
1.0
 10
427.9304546242006
 20
289.8430050773883
 30
0.0
 10
427.9597277599767
 20
289.8346010422898
 30
0.0
 10
427.9879561876072
 20
289.8240059203753
 30
0.0
 10
428.0292117823223
 20
289.8047197848495
 30
0.0
 10
428.0429823163036
 20
289.7975864487509
 30
0.0
 10
428.0699726469521
 20
289.7821672973258
 30
0.0
 10
428.0832397021196
 20
289.7738484254158
 30
0.0
 10
428.1218500816983
 20
289.7473427704816
 30
0.0
 10
428.1696621278903
 20
289.7082913619069
 30
0.0
 10
428.2104372290103
 20
289.6621535970847
 30
0.0
 10
428.2290052966372
 20
289.6372633914851
 30
0.0
  0
SPLINE
  5
185
330
1F
100
AcDbEntity
  8
1
100
AcDbSpline
210
0.0
220
0.0
230
1.0
 70
     8
 71
     3
 72
    20
 73
    16
 74
     0
 42
0.000000001
 43
0.0000000001
 40
0.0
 40
0.0
 40
0.0
 40
0.0
 40
0.178679000284942
 40
0.178679000284942
 40
0.3573580005698839
 40
0.3573580005698839
 40
0.4466975007123259
 40
0.4466975007123259
 40
0.5360370008547678
 40
0.5360370008547678
 40
0.714716001139583
 40
0.714716001139583
 40
0.8933950014243981
 40
0.8933950014243981
 40
1.0
 40
1.0
 40
1.0
 40
1.0
 10
427.4818568239288
 20
286.7776407349123
 30
0.0
 10
427.4997823456711
 20
286.8018173731798
 30
0.0
 10
427.5195464652326
 20
286.8242936081689
 30
0.0
 10
427.5628063664906
 20
286.8658940998829
 30
0.0
 10
427.5863002576438
 20
286.8850199379295
 30
0.0
 10
427.6246161007668
 20
286.9110249717103
 30
0.0
 10
427.6378264050381
 20
286.9191845172016
 30
0.0
 10
427.6648050265317
 20
286.9342954217885
 30
0.0
 10
427.6786201755839
 20
286.941279145984
 30
0.0
 10
427.7210495298314
 20
286.9605178205501
 30
0.0
 10
427.7506907262297
 20
286.9710853521777
 30
0.0
 10
427.8125555264773
 20
286.9873623320221
 30
0.0
 10
427.8438706229641
 20
286.9928416026507
 30
0.0
 10
427.8944407835668
 20
286.9975835355444
 30
0.0
 10
427.9134697927111
 20
286.9984616295541
 30
0.0
 10
427.932622444266
 20
286.9984355462282
 30
0.0
  0
SPLINE
  5
186
330
1F
100
AcDbEntity
  8
1
100
AcDbSpline
210
0.0
220
0.0
230
1.0
 70
     8
 71
     3
 72
    10
 73
     6
 74
     0
 42
0.000000001
 43
0.0000000001
 40
0.0
 40
0.0
 40
0.0
 40
0.0
 40
0.5
 40
0.5
 40
1.0
 40
1.0
 40
1.0
 40
1.0
 10
427.4644565819553
 20
286.7181209139674
 30
0.0
 10
427.4638631248908
 20
286.7288707334585
 30
0.0
 10
427.4650321657069
 20
286.7393776384701
 30
0.0
 10
427.470938103139
 20
286.7597268299587
 30
0.0
 10
427.4755272825871
 20
286.769103910511
 30
0.0
 10
427.4818568239288
 20
286.7776407349123
 30
0.0
  0
SPLINE
  5
187
330
1F
100
AcDbEntity
  8
1
100
AcDbSpline
210
0.0
220
0.0
230
1.0
 70
     8
 71
     3
 72
    20
 73
    16
 74
     0
 42
0.000000001
 43
0.0000000001
 40
0.0
 40
0.0
 40
0.0
 40
0.0
 40
0.1250000000000311
 40
0.1250000000000311
 40
0.2500000000000622
 40
0.2500000000000622
 40
0.3750000000000933
 40
0.3750000000000933
 40
0.5000000000001244
 40
0.5000000000001244
 40
0.6250000000001555
 40
0.6250000000001555
 40
0.7500000000001866
 40
0.7500000000001866
 40
1.0
 40
1.0
 40
1.0
 40
1.0
 10
427.4644565819553
 20
286.7181209139674
 30
0.0
 10
427.4647162160033
 20
286.7134179298481
 30
0.0
 10
427.4646332121019
 20
286.7087485391836
 30
0.0
 10
427.4637865654627
 20
286.6994766614583
 30
0.0
 10
427.463016645565
 20
286.6948687807591
 30
0.0
 10
427.4608280260923
 20
286.6859379415256
 30
0.0
 10
427.4594084071867
 20
286.6815868590513
 30
0.0
 10
427.4559084346627
 20
286.6731177733455
 30
0.0
 10
427.4538074173
 20
286.6689693561466
 30
0.0
 10
427.4490153524681
 20
286.6611176986732
 30
0.0
 10
427.446328910793
 20
286.6574073658955
 30
0.0
 10
427.4403705358826
 20
286.6504226175264
 30
0.0
 10
427.4370749894178
 20
286.6471284774231
 30
0.0
 10
427.4264084849987
 20
286.6380915517922
 30
0.0
 10
427.4184363675678
 20
286.6332821948505
 30
0.0
 10
427.4095525850466
 20
286.6297667293147
 30
0.0
  0
SPLINE
  5
188
330
1F
100
AcDbEntity
  8
1
100
AcDbSpline
210
0.0
220
0.0
230
1.0
 70
     8
 71
     3
 72
    12
 73
     8
 74
     0
 42
0.000000001
 43
0.0000000001
 40
0.0
 40
0.0
 40
0.0
 40
0.0
 40
0.1678350857012236
 40
0.1678350857012236
 40
0.5839175428506107
 40
0.5839175428506107
 40
1.0
 40
1.0
 40
1.0
 40
1.0
 10
426.9962203722625
 20
289.4579800592743
 30
0.0
 10
426.9838593745959
 20
289.4579976971122
 30
0.0
 10
426.9715121694249
 20
289.4584286224014
 30
0.0
 10
426.9286060428855
 20
289.4613768144696
 30
0.0
 10
426.8990117770587
 20
289.4659715008773
 30
0.0
 10
426.8415487733528
 20
289.4797795235764
 30
0.0
 10
426.8136810534916
 20
289.4889952903119
 30
0.0
 10
426.7866366716593
 20
289.5005328195777
 30
0.0
  0
SPLINE
  5
189
330
1F
100
AcDbEntity
  8
1
100
AcDbSpline
210
0.0
220
0.0
230
1.0
 70
     8
 71
     3
 72
     8
 73
     4
 74
     0
 42
0.000000001
 43
0.0000000001
 40
0.0
 40
0.0
 40
0.0
 40
0.0
 40
1.0
 40
1.0
 40
1.0
 40
1.0
 10
426.7866366716593
 20
289.5005328195777
 30
0.0
 10
426.7782796359922
 20
289.5040980533547
 30
0.0
 10
426.7707441604131
 20
289.5088941392668
 30
0.0
 10
426.7640623170976
 20
289.5148057882122
 30
0.0
  0
SPLINE
  5
18A
330
1F
100
AcDbEntity
  8
1
100
AcDbSpline
210
0.0
220
0.0
230
1.0
 70
     8
 71
     3
 72
     8
 73
     4
 74
     0
 42
0.000000001
 43
0.0000000001
 40
0.0
 40
0.0
 40
0.0
 40
0.0
 40
1.0
 40
1.0
 40
1.0
 40
1.0
 10
427.4095525850466
 20
286.6297667293147
 30
0.0
 10
427.3938460614331
 20
286.6235513877842
 30
0.0
 10
427.3779200651088
 20
286.6180792605261
 30
0.0
 10
427.3617780283243
 20
286.6133442742578
 30
0.0
  0
SPLINE
  5
18B
330
1F
100
AcDbEntity
  8
1
100
AcDbSpline
210
0.0
220
0.0
230
1.0
 70
     8
 71
     3
 72
     8
 73
     4
 74
     0
 42
0.000000001
 43
0.0000000001
 40
0.0
 40
0.0
 40
0.0
 40
0.0
 40
1.0
 40
1.0
 40
1.0
 40
1.0
 10
439.1548816171122
 20
277.4065544708782
 30
0.0
 10
439.1434594110848
 20
277.386426607138
 30
0.0
 10
439.1322364900171
 20
277.3652945645684
 30
0.0
 10
439.1213693329564
 20
277.3424382908295
 30
0.0
  0
SPLINE
  5
18C
330
1F
100
AcDbEntity
  8
1
100
AcDbSpline
210
0.0
220
0.0
230
1.0
 70
     8
 71
     3
 72
    40
 73
    36
 74
     0
 42
0.000000001
 43
0.0000000001
 40
0.0
 40
0.0
 40
0.0
 40
0.0
 40
0.0312499999999882
 40
0.0312499999999882
 40
0.0624999999999765
 40
0.0624999999999765
 40
0.124999999999978
 40
0.124999999999978
 40
0.1874999999999796
 40
0.1874999999999796
 40
0.2499999999999811
 40
0.2499999999999811
 40
0.3124999999999828
 40
0.3124999999999828
 40
0.3749999999999843
 40
0.3749999999999843
 40
0.4374999999999859
 40
0.4374999999999859
 40
0.4999999999999875
 40
0.4999999999999875
 40
0.562499999999989
 40
0.562499999999989
 40
0.6249999999999906
 40
0.6249999999999906
 40
0.6874999999999922
 40
0.6874999999999922
 40
0.7499999999999938
 40
0.7499999999999938
 40
0.8124999999999953
 40
0.8124999999999953
 40
0.8749999999999968
 40
0.8749999999999968
 40
0.9374999999999984
 40
0.9374999999999984
 40
1.0
 40
1.0
 40
1.0
 40
1.0
 10
438.3812898256003
 20
278.5781728409457
 30
0.0
 10
438.397095035572
 20
278.5750010187809
 30
0.0
 10
438.4128815899355
 20
278.5714315564339
 30
0.0
 10
438.4441946082163
 20
278.5635200453535
 30
0.0
 10
438.4597373413632
 20
278.5591797867048
 30
0.0
 10
438.5060256103272
 20
278.5450088137376
 30
0.0
 10
438.5365001678876
 20
278.5340009445915
 30
0.0
 10
438.5961926785703
 20
278.5090212145706
 30
0.0
 10
438.6253514630744
 20
278.4950833335103
 30
0.0
 10
438.6822982522546
 20
278.464315542739
 30
0.0
 10
438.7100919993608
 20
278.447469316324
 30
0.0
 10
438.7637230409693
 20
278.4112249444649
 30
0.0
 10
438.7896369570932
 20
278.3917890637207
 30
0.0
 10
438.8396463498491
 20
278.3502642694317
 30
0.0
 10
438.8635542924105
 20
278.3283297249247
 30
0.0
 10
438.9091516092677
 20
278.2821793146083
 30
0.0
 10
438.9309029493952
 20
278.2578861557776
 30
0.0
 10
438.9718446094503
 20
278.2073681202275
 30
0.0
 10
438.991038460751
 20
278.1811567696668
 30
0.0
 10
439.0268742652822
 20
278.1268291664426
 30
0.0
 10
439.0435093020756
 20
278.0987021292154
 30
0.0
 10
439.0738573248186
 20
278.0411446644785
 30
0.0
 10
439.0876219595905
 20
278.0116414224879
 30
0.0
 10
439.1123065908208
 20
277.9511714885676
 30
0.0
 10
439.1231268129263
 20
277.920448626468
 30
0.0
 10
439.1417496281467
 20
277.8580496973585
 30
0.0
 10
439.1495675200824
 20
277.8262824191157
 30
0.0
 10
439.162037249861
 20
277.7623061595751
 30
0.0
 10
439.1667006021684
 20
277.7300988735043
 30
0.0
 10
439.1728866591338
 20
277.6652474059672
 30
0.0
 10
439.1743975300898
 20
277.6326055579705
 30
0.0
 10
439.1742365860156
 20
277.5676034793864
 30
0.0
 10
439.1725755042179
 20
277.5351471842752
 30
0.0
 10
439.1660682602607
 20
277.4703655134549
 30
0.0
 10
439.1612486228154
 20
277.4382983159943
 30
0.0
 10
439.1548816171078
 20
277.4065544708857
 30
0.0
  0
SPLINE
  5
18D
330
1F
100
AcDbEntity
  8
1
100
AcDbSpline
210
0.0
220
0.0
230
1.0
 70
     8
 71
     3
 72
     8
 73
     4
 74
     0
 42
0.000000001
 43
0.0000000001
 40
0.0
 40
0.0
 40
0.0
 40
0.0
 40
1.0
 40
1.0
 40
1.0
 40
1.0
 10
436.9087324897184
 20
276.9668186703964
 30
0.0
 10
436.9423469905393
 20
276.9586389356831
 30
0.0
 10
436.9759509092081
 20
276.9504181200227
 30
0.0
 10
437.0095455594285
 20
276.9421613233417
 30
0.0
  0
SPLINE
  5
18E
330
1F
100
AcDbEntity
  8
1
100
AcDbSpline
210
0.0
220
0.0
230
1.0
 70
     8
 71
     3
 72
     8
 73
     4
 74
     0
 42
0.000000001
 43
0.0000000001
 40
0.0
 40
0.0
 40
0.0
 40
0.0
 40
1.0
 40
1.0
 40
1.0
 40
1.0
 10
437.0095455594285
 20
276.9421613233417
 30
0.0
 10
437.0226955205973
 20
276.981172601765
 30
0.0
 10
437.0362685265162
 20
277.0199706428436
 30
0.0
 10
437.0502316576216
 20
277.0585720398111
 30
0.0
  0
SPLINE
  5
18F
330
1F
100
AcDbEntity
  8
1
100
AcDbSpline
210
0.0
220
0.0
230
1.0
 70
     8
 71
     3
 72
    43
 73
    39
 74
     0
 42
0.000000001
 43
0.0000000001
 40
0.0
 40
0.0
 40
0.0
 40
0.0
 40
0.0368737990946484
 40
0.0368737990946484
 40
0.1056685277307334
 40
0.1056685277307334
 40
0.140065892048788
 40
0.140065892048788
 40
0.1744632563668426
 40
0.2088606206848972
 40
0.2088606206848972
 40
0.2432579850029518
 40
0.2432579850029518
 40
0.3120527136390616
 40
0.3120527136390616
 40
0.3464500779571166
 40
0.3464500779571166
 40
0.3808474422751715
 40
0.4152448065932264
 40
0.4152448065932264
 40
0.4496421709112813
 40
0.4496421709112813
 40
0.5872316281834579
 40
0.5872316281834579
 40
0.621628992501505
 40
0.621628992501505
 40
0.6560263568195523
 40
0.6560263568195523
 40
0.7248210854556411
 40
0.7248210854556411
 40
0.7592184497736866
 40
0.7592184497736866
 40
0.7936158140917323
 40
0.8280131784097777
 40
0.8280131784097777
 40
0.8624105427278234
 40
0.8624105427278234
 40
1.0
 40
1.0
 40
1.0
 40
1.0
 10
436.480120584698
 20
278.259242478918
 30
0.0
 10
436.4971184930293
 20
278.2532411113827
 30
0.0
 10
436.5139456410191
 20
278.2467745834149
 30
0.0
 10
436.5616785271243
 20
278.226913368105
 30
0.0
 10
436.5921569760843
 20
278.212354807901
 30
0.0
 10
436.6369371445379
 20
278.1879638528328
 30
0.0
 10
436.6516902333218
 20
278.1794137377968
 30
0.0
 10
436.6806242056725
 20
278.1615982149113
 30
0.0
 10
436.7090484961825
 20
278.1430342388871
 30
0.0
 10
436.736449425282
 20
278.1229676431526
 30
0.0
 10
436.7633323648258
 20
278.1021405622843
 30
0.0
 10
436.7765280922625
 20
278.091333844923
 30
0.0
 10
436.8151017731311
 20
278.057948792015
 30
0.0
 10
436.8395364109525
 20
278.0343611259748
 30
0.0
 10
436.8742441471129
 20
277.9969603233693
 30
0.0
 10
436.8855022480762
 20
277.9841383707368
 30
0.0
 10
436.9072389474658
 20
277.9579552316368
 30
0.0
 10
436.9282198967119
 20
277.9312109217881
 30
0.0
 10
436.9476901006851
 20
277.9033449903411
 30
0.0
 10
436.9663988940271
 20
277.8749138482875
 30
0.0
 10
436.9753889989821
 20
277.8603847087776
 30
0.0
 10
437.0180551249808
 20
277.7869312516866
 30
0.0
 10
437.0451870688535
 20
277.7253133639494
 30
0.0
 10
437.0705097650003
 20
277.6447895059647
 30
0.0
 10
437.0751401978763
 20
277.6285078269667
 30
0.0
 10
437.0835185827223
 20
277.5955849042509
 30
0.0
 10
437.0872734663871
 20
277.5789040025605
 30
0.0
 10
437.0971132498255
 20
277.5286808164805
 30
0.0
 10
437.1017928538507
 20
277.4949423746888
 30
0.0
 10
437.1060182793915
 20
277.4439541049413
 30
0.0
 10
437.1069602212598
 20
277.426868940755
 30
0.0
 10
437.1079012399555
 20
277.392737351462
 30
0.0
 10
437.1079037147382
 20
277.3586329208025
 30
0.0
 10
437.106049457903
 20
277.3245822809221
 30
0.0
 10
437.1032692654271
 20
277.2905584948174
 30
0.0
 10
437.1014114155097
 20
277.2735306192647
 30
0.0
 10
437.0898709676803
 20
277.1889640250617
 30
0.0
 10
437.0735232136454
 20
277.1229620819361
 30
0.0
 10
437.0502316576216
 20
277.0585720398111
 30
0.0
  0
SPLINE
  5
190
330
1F
100
AcDbEntity
  8
1
100
AcDbSpline
210
0.0
220
0.0
230
1.0
 70
     8
 71
     3
 72
    12
 73
     8
 74
     0
 42
0.000000001
 43
0.0000000001
 40
0.0
 40
0.0
 40
0.0
 40
0.0
 40
0.5000000000000016
 40
0.5000000000000016
 40
0.7500000000000008
 40
0.7500000000000008
 40
1.0
 40
1.0
 40
1.0
 40
1.0
 10
436.7529305916548
 20
277.0027390676603
 30
0.0
 10
436.7763685585274
 20
276.9976833712879
 30
0.0
 10
436.8011265925544
 20
276.9921528121799
 30
0.0
 10
436.8401619000886
 20
276.983158747175
 30
0.0
 10
436.8534929142194
 20
276.9800433827531
 30
0.0
 10
436.880814738029
 20
276.9735682544628
 30
0.0
 10
436.8947044656088
 20
276.9702322423063
 30
0.0
 10
436.9087324897184
 20
276.9668186703964
 30
0.0
  0
SPLINE
  5
191
330
1F
100
AcDbEntity
  8
1
100
AcDbSpline
210
0.0
220
0.0
230
1.0
 70
     8
 71
     3
 72
    10
 73
     6
 74
     0
 42
0.000000001
 43
0.0000000001
 40
0.0
 40
0.0
 40
0.0
 40
0.0
 40
0.5
 40
0.5
 40
1.0
 40
1.0
 40
1.0
 40
1.0
 10
436.2686738854177
 20
277.1031680858994
 30
0.0
 10
436.349611571499
 20
277.0872955461016
 30
0.0
 10
436.4303961792186
 20
277.0708395391951
 30
0.0
 10
436.5917882043316
 20
277.0372521541113
 30
0.0
 10
436.6723911384974
 20
277.0201118638321
 30
0.0
 10
436.7529305916548
 20
277.0027390676603
 30
0.0
  0
SPLINE
  5
192
330
1F
100
AcDbEntity
  8
1
100
AcDbSpline
210
0.0
220
0.0
230
1.0
 70
     8
 71
     3
 72
    18
 73
    14
 74
     0
 42
0.000000001
 43
0.0000000001
 40
0.0
 40
0.0
 40
0.0
 40
0.0
 40
0.2500000000000013
 40
0.2500000000000013
 40
0.375000000000002
 40
0.375000000000002
 40
0.5000000000000028
 40
0.5000000000000028
 40
0.6250000000000036
 40
0.6250000000000036
 40
0.7500000000000043
 40
0.7500000000000043
 40
1.0
 40
1.0
 40
1.0
 40
1.0
 10
429.0573537534024
 20
288.2760270293176
 30
0.0
 10
429.0534892044121
 20
288.2667982717354
 30
0.0
 10
429.0481495751283
 20
288.2582685041361
 30
0.0
 10
429.0385617452471
 20
288.2471181802298
 30
0.0
 10
429.0350882359333
 20
288.2436471635656
 30
0.0
 10
429.0275821308648
 20
288.2372006667201
 30
0.0
 10
429.0235831973574
 20
288.2342615534783
 30
0.0
 10
429.0153016598059
 20
288.2290563894989
 30
0.0
 10
429.0109924655478
 20
288.2267671309676
 30
0.0
 10
429.0020425375359
 20
288.2228062420601
 30
0.0
 10
428.9973636425702
 20
288.2211266558928
 30
0.0
 10
428.9832009014229
 20
288.2171567874527
 30
0.0
 10
428.9735471555693
 20
288.2158663977028
 30
0.0
 10
428.9636804645867
 20
288.2159428637205
 30
0.0
  0
SPLINE
  5
193
330
1F
100
AcDbEntity
  8
1
100
AcDbSpline
210
0.0
220
0.0
230
1.0
 70
     8
 71
     3
 72
    10
 73
     6
 74
     0
 42
0.000000001
 43
0.0000000001
 40
0.0
 40
0.0
 40
0.0
 40
0.0
 40
0.5
 40
0.5
 40
1.0
 40
1.0
 40
1.0
 40
1.0
 10
428.9009657496587
 20
288.195422643721
 30
0.0
 10
428.9100194424429
 20
288.2022548139933
 30
0.0
 10
428.9200018922302
 20
288.2073952690423
 30
0.0
 10
428.9414248768646
 20
288.2143478283926
 30
0.0
 10
428.9524147798747
 20
288.2160301718209
 30
0.0
 10
428.9636804645867
 20
288.2159428637205
 30
0.0
  0
SPLINE
  5
194
330
1F
100
AcDbEntity
  8
1
100
AcDbSpline
210
0.0
220
0.0
230
1.0
 70
     8
 71
     3
 72
    27
 73
    23
 74
     0
 42
0.000000001
 43
0.0000000001
 40
0.0
 40
0.0
 40
0.0
 40
0.0
 40
0.1249999999999578
 40
0.1249999999999578
 40
0.1874999999999355
 40
0.1874999999999355
 40
0.2499999999999131
 40
0.2499999999999131
 40
0.3749999999998979
 40
0.3749999999998979
 40
0.4374999999999015
 40
0.4374999999999015
 40
0.4999999999999049
 40
0.4999999999999049
 40
0.6249999999999251
 40
0.6249999999999251
 40
0.6874999999999377
 40
0.6874999999999377
 40
0.7499999999999499
 40
0.7499999999999499
 40
0.8749999999999749
 40
1.0
 40
1.0
 40
1.0
 40
1.0
 10
428.8818195998653
 20
288.9635222863153
 30
0.0
 10
428.906811877002
 20
288.9434561426785
 30
0.0
 10
428.9299361448691
 20
288.9216314583522
 30
0.0
 10
428.9618677687281
 20
288.8863007153109
 30
0.0
 10
428.9720503929962
 20
288.8740895195351
 30
0.0
 10
428.9914750178993
 20
288.8487814510864
 30
0.0
 10
429.0007381861374
 20
288.8356436576008
 30
0.0
 10
429.026662185035
 20
288.7955169888022
 30
0.0
 10
429.0416155424551
 20
288.7676523715058
 30
0.0
 10
429.0606096955723
 20
288.7242122163788
 30
0.0
 10
429.0663657447648
 20
288.7094570132425
 30
0.0
 10
429.0767039220366
 20
288.6793851213692
 30
0.0
 10
429.0813020040353
 20
288.6639958934179
 30
0.0
 10
429.0931001367682
 20
288.617659257442
 30
0.0
 10
429.0983656634193
 20
288.5864895176873
 30
0.0
 10
429.1024808145823
 20
288.5393298245191
 30
0.0
 10
429.1032189438596
 20
288.5235420920647
 30
0.0
 10
429.1034111588674
 20
288.4918293121052
 30
0.0
 10
429.1028602734673
 20
288.4758453015217
 30
0.0
 10
429.0992535158535
 20
288.4281013333675
 30
0.0
 10
429.0893508612901
 20
288.3656460248535
 30
0.0
 10
429.0696960964173
 20
288.3055012297918
 30
0.0
 10
429.0573537534024
 20
288.2760270293176
 30
0.0
  0
SPLINE
  5
195
330
1F
100
AcDbEntity
  8
1
100
AcDbSpline
210
0.0
220
0.0
230
1.0
 70
     8
 71
     3
 72
    20
 73
    16
 74
     0
 42
0.000000001
 43
0.0000000001
 40
0.0
 40
0.0
 40
0.0
 40
0.0
 40
0.1250000000000104
 40
0.1250000000000104
 40
0.2500000000000208
 40
0.2500000000000208
 40
0.3750000000000312
 40
0.3750000000000312
 40
0.5000000000000416
 40
0.5000000000000416
 40
0.625000000000052
 40
0.625000000000052
 40
0.7500000000000623
 40
0.7500000000000623
 40
1.0
 40
1.0
 40
1.0
 40
1.0
 10
428.7584014732915
 20
287.4625426096224
 30
0.0
 10
428.7626909306658
 20
287.4601580443633
 30
0.0
 10
428.766779519165
 20
287.4574906416999
 30
0.0
 10
428.7745575269992
 20
287.4515939468762
 30
0.0
 10
428.7782481388721
 20
287.448356505349
 30
0.0
 10
428.7850535583685
 20
287.4414687146959
 30
0.0
 10
428.788192791656
 20
287.4378018794551
 30
0.0
 10
428.7939354425261
 20
287.4300154268622
 30
0.0
 10
428.7965553842597
 20
287.4258607375345
 30
0.0
 10
428.8011067489025
 20
287.4172795007407
 30
0.0
 10
428.8030471215985
 20
287.4128524309053
 30
0.0
 10
428.8062507011563
 20
287.4037234347963
 30
0.0
 10
428.8075196236011
 20
287.3989893421892
 30
0.0
 10
428.8101899812981
 20
287.3845705562614
 30
0.0
 10
428.8104675984013
 20
287.3748709752389
 30
0.0
 10
428.8091483177344
 20
287.3650812129868
 30
0.0
  0
SPLINE
  5
196
330
1F
100
AcDbEntity
  8
1
100
AcDbSpline
210
0.0
220
0.0
230
1.0
 70
     8
 71
     3
 72
    10
 73
     6
 74
     0
 42
0.000000001
 43
0.0000000001
 40
0.0
 40
0.0
 40
0.0
 40
0.0
 40
0.5
 40
0.5
 40
1.0
 40
1.0
 40
1.0
 40
1.0
 10
428.7584014732915
 20
287.4625426096224
 30
0.0
 10
428.7485967364416
 20
287.4679931906231
 30
0.0
 10
428.7398884655501
 20
287.4748588680021
 30
0.0
 10
428.7248411895671
 20
287.4913608175793
 30
0.0
 10
428.7188416685148
 20
287.5006071549996
 30
0.0
 10
428.7144574562283
 20
287.5109132607816
 30
0.0
  0
SPLINE
  5
197
330
1F
100
AcDbEntity
  8
1
100
AcDbSpline
210
0.0
220
0.0
230
1.0
 70
     8
 71
     3
 72
     8
 73
     4
 74
     0
 42
0.000000001
 43
0.0000000001
 40
0.0
 40
0.0
 40
0.0
 40
0.0
 40
1.0
 40
1.0
 40
1.0
 40
1.0
 10
428.7213036265161
 20
288.9602334442639
 30
0.0
 10
428.7160082695573
 20
288.9602308314833
 30
0.0
 10
428.7106981870188
 20
288.9606426487024
 30
0.0
 10
428.7053727097187
 20
288.9614803285125
 30
0.0
  0
SPLINE
  5
198
330
1F
100
AcDbEntity
  8
1
100
AcDbSpline
210
0.0
220
0.0
230
1.0
 70
     8
 71
     3
 72
    24
 73
    20
 74
     0
 42
0.000000001
 43
0.0000000001
 40
0.0
 40
0.0
 40
0.0
 40
0.0
 40
0.1249999999999949
 40
0.1249999999999949
 40
0.2499999999999897
 40
0.2499999999999897
 40
0.3124999999999891
 40
0.3124999999999891
 40
0.3749999999999887
 40
0.3749999999999887
 40
0.499999999999991
 40
0.499999999999991
 40
0.6249999999999931
 40
0.6249999999999931
 40
0.7499999999999955
 40
0.7499999999999955
 40
0.8749999999999978
 40
0.8749999999999978
 40
1.0
 40
1.0
 40
1.0
 40
1.0
 10
428.7144574562283
 20
287.5109132607816
 30
0.0
 10
428.7020407681279
 20
287.5401015602207
 30
0.0
 10
428.6920604128531
 20
287.5699389201821
 30
0.0
 10
428.6769759267218
 20
287.6309524344112
 30
0.0
 10
428.6718694065793
 20
287.6621278852318
 30
0.0
 10
428.6681735469356
 20
287.7100112194584
 30
0.0
 10
428.6676193893696
 20
287.7260604967617
 30
0.0
 10
428.6678767544978
 20
287.7579463475314
 30
0.0
 10
428.6686832216272
 20
287.773841978812
 30
0.0
 10
428.6731393525665
 20
287.821389542885
 30
0.0
 10
428.6788254351385
 20
287.8529522313149
 30
0.0
 10
428.695876307477
 20
287.9154940300638
 30
0.0
 10
428.7069824439003
 20
287.9455581382351
 30
0.0
 10
428.7340559245548
 20
288.0034137769806
 30
0.0
 10
428.7500308082499
 20
288.0312145289373
 30
0.0
 10
428.7868909191713
 20
288.0844710115912
 30
0.0
 10
428.8072338911293
 20
288.1091524505348
 30
0.0
 10
428.8514493462411
 20
288.1549541293363
 30
0.0
 10
428.8753237049233
 20
288.1760724382378
 30
0.0
 10
428.9009657496587
 20
288.195422643721
 30
0.0
  0
SPLINE
  5
199
330
1F
100
AcDbEntity
  8
1
100
AcDbSpline
210
0.0
220
0.0
230
1.0
 70
     8
 71
     3
 72
    24
 73
    20
 74
     0
 42
0.000000001
 43
0.0000000001
 40
0.0
 40
0.0
 40
0.0
 40
0.0
 40
0.1708125157591232
 40
0.1708125157591232
 40
0.2562187736386936
 40
0.2562187736386936
 40
0.3416250315182639
 40
0.3416250315182639
 40
0.5124375472774371
 40
0.5124375472774371
 40
0.5978438051570255
 40
0.5978438051570255
 40
0.6832500630366141
 40
0.6832500630366141
 40
0.8540625787957907
 40
0.8540625787957907
 40
0.9394688366754095
 40
0.9394688366754095
 40
1.0
 40
1.0
 40
1.0
 40
1.0
 10
428.8091483177344
 20
287.3650812129868
 30
0.0
 10
428.8049288463197
 20
287.3337704972179
 30
0.0
 10
428.7982247007222
 20
287.3031338473129
 30
0.0
 10
428.7845082438786
 20
287.2581801313708
 30
0.0
 10
428.7793232197627
 20
287.243363180222
 30
0.0
 10
428.7677038853193
 20
287.2140720842331
 30
0.0
 10
428.7612454338545
 20
287.1995591510591
 30
0.0
 10
428.7402883933851
 20
287.1572328308422
 30
0.0
 10
428.7241510254221
 20
287.1304160431109
 30
0.0
 10
428.6967512452632
 20
287.0922599454868
 30
0.0
 10
428.6870831890851
 20
287.0798876900785
 30
0.0
 10
428.6666559852704
 20
287.0558503114112
 30
0.0
 10
428.6558428899905
 20
287.0441347867334
 30
0.0
 10
428.6222221287443
 20
287.010590130221
 30
0.0
 10
428.5982196116596
 20
286.9902841743509
 30
0.0
 10
428.5599038661471
 20
286.9628176683212
 30
0.0
 10
428.5467447439379
 20
286.954163310961
 30
0.0
 10
428.523588626126
 20
286.9402426247161
 30
0.0
 10
428.5137602614074
 20
286.9347107216751
 30
0.0
 10
428.5037672865913
 20
286.9294576873007
 30
0.0
  0
SPLINE
  5
19A
330
1F
100
AcDbEntity
  8
1
100
AcDbSpline
210
0.0
220
0.0
230
1.0
 70
     8
 71
     3
 72
    18
 73
    14
 74
     0
 42
0.000000001
 43
0.0000000001
 40
0.0
 40
0.0
 40
0.0
 40
0.0
 40
0.2500000000000306
 40
0.2500000000000306
 40
0.3750000000000255
 40
0.3750000000000255
 40
0.5000000000000205
 40
0.5000000000000205
 40
0.6250000000000153
 40
0.6250000000000153
 40
0.7500000000000103
 40
0.7500000000000103
 40
1.0
 40
1.0
 40
1.0
 40
1.0
 10
428.2290052966372
 20
289.6372633914851
 30
0.0
 10
428.2348190808626
 20
289.6294701042357
 30
0.0
 10
428.2392579957364
 20
289.6208017707963
 30
0.0
 10
428.2436800631109
 20
289.6073119373482
 30
0.0
 10
428.2447978148758
 20
289.6027079890645
 30
0.0
 10
428.2463149763471
 20
289.5932846465912
 30
0.0
 10
428.2467012267992
 20
289.5885112285388
 30
0.0
 10
428.2467497291003
 20
289.5790657641871
 30
0.0
 10
428.2464176732698
 20
289.5743601469573
 30
0.0
 10
428.2450512185826
 20
289.5649834397778
 30
0.0
 10
428.2440033759615
 20
289.560276832532
 30
0.0
 10
428.2398813715746
 20
289.5465873188858
 30
0.0
 10
428.2358643028439
 20
289.5379640623211
 30
0.0
 10
428.230568207195
 20
289.5298489406969
 30
0.0
  0
SPLINE
  5
19B
330
1F
100
AcDbEntity
  8
1
100
AcDbSpline
210
0.0
220
0.0
230
1.0
 70
     8
 71
     3
 72
    24
 73
    20
 74
     0
 42
0.000000001
 43
0.0000000001
 40
0.0
 40
0.0
 40
0.0
 40
0.0
 40
0.1249999999999716
 40
0.1249999999999716
 40
0.2499999999999432
 40
0.2499999999999432
 40
0.3124999999999297
 40
0.3124999999999297
 40
0.3749999999999162
 40
0.3749999999999162
 40
0.4999999999999329
 40
0.4999999999999329
 40
0.6249999999999498
 40
0.6249999999999498
 40
0.7499999999999665
 40
0.7499999999999665
 40
0.8749999999999833
 40
0.8749999999999833
 40
1.0
 40
1.0
 40
1.0
 40
1.0
 10
428.7053727097187
 20
288.9614803285124
 30
0.0
 10
428.6735102021736
 20
288.9664921946361
 30
0.0
 10
428.6423792024605
 20
288.9738535595695
 30
0.0
 10
428.5815652804974
 20
288.9932670776489
 30
0.0
 10
428.5518816679883
 20
289.0053169467951
 30
0.0
 10
428.5085205735633
 20
289.0271956005438
 30
0.0
 10
428.4943556033181
 20
289.0350849944937
 30
0.0
 10
428.4669457908296
 20
289.0518596963967
 30
0.0
 10
428.453647325679
 20
289.0607715244858
 30
0.0
 10
428.414973286923
 20
289.0890802935684
 30
0.0
 10
428.3907755928935
 20
289.1100760967446
 30
0.0
 10
428.3459621304661
 20
289.1563400825657
 30
0.0
 10
428.325996194128
 20
289.1809247209345
 30
0.0
 10
428.2906561285766
 20
289.2328402967607
 30
0.0
 10
428.2752778266613
 20
289.2601827086016
 30
0.0
 10
428.2491883072849
 20
289.317640170891
 30
0.0
 10
428.2388521592988
 20
289.3469161669271
 30
0.0
 10
428.2231329067079
 20
289.4065257717045
 30
0.0
 10
428.2177524882857
 20
289.4368598822282
 30
0.0
 10
428.2148303438987
 20
289.4677476606556
 30
0.0
  0
SPLINE
  5
19C
330
1F
100
AcDbEntity
  8
1
100
AcDbSpline
210
0.0
220
0.0
230
1.0
 70
     8
 71
     3
 72
    10
 73
     6
 74
     0
 42
0.000000001
 43
0.0000000001
 40
0.0
 40
0.0
 40
0.0
 40
0.0
 40
0.5
 40
0.5
 40
1.0
 40
1.0
 40
1.0
 40
1.0
 10
428.2148303438987
 20
289.4677476606556
 30
0.0
 10
428.2137985615251
 20
289.4786538518354
 30
0.0
 10
428.214704676014
 20
289.489476881958
 30
0.0
 10
428.2201300863573
 20
289.5106601557895
 30
0.0
 10
428.2245212575256
 20
289.5205832976122
 30
0.0
 10
428.230568207195
 20
289.5298489406969
 30
0.0
  0
SPLINE
  5
19D
330
1F
100
AcDbEntity
  8
NOCUT
100
AcDbSpline
210
0.0
220
0.0
230
1.0
 70
     8
 71
     3
 72
    21
 73
    17
 74
     0
 42
0.000000001
 43
0.0000000001
 40
0.0
 40
0.0
 40
0.0
 40
0.0
 40
0.0002441406250002
 40
0.0002441406250002
 40
0.0004882812500004
 40
0.0009765625000009
 40
0.0019531250000019
 40
0.0039062500000026
 40
0.0078125000000026
 40
0.0156250000000027
 40
0.0312500000000027
 40
0.0625000000000028
 40
0.125000000000003
 40
0.2500000000000022
 40
0.5000000000000018
 40
1.0
 40
1.0
 40
1.0
 40
1.0
 10
282.581950580201
 20
281.665278943979
 30
0.0
 10
282.581657100708
 20
281.6658690452277
 30
0.0
 10
282.5812968339964
 20
281.6664205868828
 30
0.0
 10
282.5806391531223
 20
281.6675599581057
 30
0.0
 10
282.5796525291733
 20
281.669268955682
 30
0.0
 10
282.5773503193058
 20
281.6732565662793
 30
0.0
 10
282.5727458567095
 20
281.6812317627281
 30
0.0
 10
282.563536909918
 20
281.6971821431551
 30
0.0
 10
282.5451190054939
 20
281.7290828977503
 30
0.0
 10
282.5082831912149
 20
281.7928844038052
 30
0.0
 10
282.4346115599386
 20
281.9204874143457
 30
0.0
 10
282.2872682960264
 20
282.1756934346417
 30
0.0
 10
281.9925817675219
 20
282.686105474841
 30
0.0
 10
281.403208710173
 20
283.7069295550433
 30
0.0
 10
280.2244625953051
 20
285.7485777153499
 30
0.0
 10
279.2141087825227
 20
287.4985618527331
 30
0.0
 10
278.5405395740009
 20
288.665217944322
 30
0.0
  0
SPLINE
  5
19E
330
1F
100
AcDbEntity
  8
NOCUT
100
AcDbSpline
210
0.0
220
0.0
230
1.0
 70
    24
 71
     3
 72
    10
 73
     6
 74
     0
 42
0.000000001
 43
0.0000000001
 40
0.0
 40
0.0
 40
0.0
 40
0.0
 40
0.3969921502980329
 40
0.3969921502980329
 40
1.0
 40
1.0
 40
1.0
 40
1.0
 10
230.3244052369791
 20
290.1652179443383
 30
0.0
 10
230.0149804784442
 20
290.343864411974
 30
0.0
 10
229.7055557199092
 20
290.5225108796096
 30
0.0
 10
228.9261328565033
 20
290.9725108796131
 30
0.0
 10
228.4561347516322
 20
291.243864411981
 30
0.0
 10
227.9861366467611
 20
291.5152179443488
 30
0.0
  0
SPLINE
  5
19F
330
1F
100
AcDbEntity
  8
NOCUT
100
AcDbSpline
210
0.0
220
0.0
230
1.0
 70
    24
 71
     3
 72
     8
 73
     4
 74
     0
 42
0.000000001
 43
0.0000000001
 40
0.0
 40
0.0
 40
0.0
 40
0.0
 40
1.0
 40
1.0
 40
1.0
 40
1.0
 10
227.9861366467611
 20
291.5152179443488
 30
0.0
 10
227.8514215839502
 20
291.7485512776835
 30
0.0
 10
227.7167065211393
 20
291.9818846110183
 30
0.0
 10
227.5819914583284
 20
292.2152179443531
 30
0.0
  0
SPLINE
  5
1A0
330
1F
100
AcDbEntity
  8
NOCUT
100
AcDbSpline
210
0.0
220
0.0
230
1.0
 70
     8
 71
     3
 72
    41
 73
    37
 74
     0
 42
0.000000001
 43
0.0000000001
 40
0.0
 40
0.0
 40
0.0
 40
0.0
 40
0.0625000000000314
 40
0.0625000000000314
 40
0.093750000000046
 40
0.093750000000046
 40
0.1250000000000606
 40
0.1250000000000606
 40
0.250000000000133
 40
0.250000000000133
 40
0.3125000000001663
 40
0.3125000000001663
 40
0.3437500000001816
 40
0.3437500000001816
 40
0.3750000000001971
 40
0.3750000000001971
 40
0.5000000000002195
 40
0.5000000000002195
 40
0.5312500000002139
 40
0.5312500000002139
 40
0.5625000000002083
 40
0.5625000000002083
 40
0.6250000000001802
 40
0.6250000000001802
 40
0.7500000000001239
 40
0.7500000000001239
 40
0.7812500000001004
 40
0.7812500000001004
 40
0.8125000000000767
 40
0.8125000000000767
 40
0.8750000000000511
 40
0.9375000000000254
 40
0.9375000000000254
 40
0.9687500000000127
 40
0.9687500000000127
 40
1.0
 40
1.0
 40
1.0
 40
1.0
 10
227.5819914583284
 20
292.9152179443569
 30
0.0
 10
227.5819914583284
 20
292.9543018762164
 30
0.0
 10
227.5838963124671
 20
292.9933572811423
 30
0.0
 10
227.5896394872225
 20
293.0518971696353
 30
0.0
 10
227.5920357115708
 20
293.0714032499132
 30
0.0
 10
227.5978072656109
 20
293.1104007474707
 30
0.0
 10
227.6011934135547
 20
293.1299438676938
 30
0.0
 10
227.6204891825579
 20
293.2269427885439
 30
0.0
 10
227.6432878469913
 20
293.3018349960485
 30
0.0
 10
227.6881572193216
 20
293.4102495820947
 30
0.0
 10
227.7049052390062
 20
293.4457290434485
 30
0.0
 10
227.7327863066643
 20
293.4979337732585
 30
0.0
 10
227.7425697667644
 20
293.5152121438242
 30
0.0
 10
227.7628886741341
 20
293.5491106857068
 30
0.0
 10
227.7734286859223
 20
293.5657460519603
 30
0.0
 10
227.8279965029975
 20
293.6473822563719
 30
0.0
 10
227.8775744061584
 20
293.7078050768098
 30
0.0
 10
227.9469398528249
 20
293.7772354044916
 30
0.0
 10
227.9611859157401
 20
293.7908138214593
 30
0.0
 10
227.9904373683239
 20
293.8173443220557
 30
0.0
 10
228.0054752527838
 20
293.8303203187599
 30
0.0
 10
228.051259827756
 20
293.8678933227011
 30
0.0
 10
228.0827989686678
 20
293.8912610858141
 30
0.0
 10
228.1803807597319
 20
293.956460458684
 30
0.0
 10
228.249359290633
 20
293.9934352786099
 30
0.0
 10
228.3406424095716
 20
294.0312831844052
 30
0.0
 10
228.3591648748259
 20
294.0384306433123
 30
0.0
 10
228.3963094808935
 20
294.0517206936247
 30
0.0
 10
228.414982312474
 20
294.0578854671649
 30
0.0
 10
228.471297400196
 20
294.0749628841986
 30
0.0
 10
228.5471737014299
 20
294.0939610379028
 30
0.0
 10
228.6246109524247
 20
294.1055021192587
 30
0.0
 10
228.6832844225494
 20
294.1113129160304
 30
0.0
 10
228.7029416791489
 20
294.1127748293165
 30
0.0
 10
228.7424590105935
 20
294.1147297391628
 30
0.0
 10
228.7622827536715
 20
294.1152179443625
 30
0.0
 10
228.7819914583284
 20
294.1152179443625
 30
0.0
  0
SPLINE
  5
1A1
330
1F
100
AcDbEntity
  8
NOCUT
100
AcDbSpline
210
0.0
220
0.0
230
1.0
 70
    24
 71
     3
 72
     8
 73
     4
 74
     0
 42
0.000000001
 43
0.0000000001
 40
0.0
 40
0.0
 40
0.0
 40
0.0
 40
1.0
 40
1.0
 40
1.0
 40
1.0
 10
235.729059479084
 20
294.1152179443624
 30
0.0
 10
235.9800368054987
 20
294.3661952707781
 30
0.0
 10
236.2310141319135
 20
294.617172597194
 30
0.0
 10
236.4819914583284
 20
294.8681499236097
 30
0.0
  0
SPLINE
  5
1A2
330
1F
100
AcDbEntity
  8
NOCUT
100
AcDbSpline
210
0.0
220
0.0
230
1.0
 70
    24
 71
     3
 72
    12
 73
     8
 74
     0
 42
0.000000001
 43
0.0000000001
 40
0.0
 40
0.0
 40
0.0
 40
0.0
 40
0.0265795254324821
 40
0.0265795254324821
 40
0.872247418804925
 40
0.872247418804925
 40
1.0
 40
1.0
 40
1.0
 40
1.0
 10
236.4819914583284
 20
294.8681499236097
 30
0.0
 10
236.7663923804559
 20
294.8755351350028
 30
0.0
 10
237.0507933025835
 20
294.8829203463962
 30
0.0
 10
246.3838406837962
 20
295.1252772534587
 30
0.0
 10
255.4324871428813
 20
295.360248949128
 30
0.0
 10
265.8480862207538
 20
295.6307171332709
 30
0.0
 10
267.2150388395411
 20
295.6662136217444
 30
0.0
 10
268.5819914583284
 20
295.701710110218
 30
0.0
  0
SPLINE
  5
1A3
330
1F
100
AcDbEntity
  8
NOCUT
100
AcDbSpline
210
0.0
220
0.0
230
1.0
 70
    24
 71
     3
 72
    10
 73
     6
 74
     0
 42
0.000000001
 43
0.0000000001
 40
0.0
 40
0.0
 40
0.0
 40
0.0
 40
0.8720829649166097
 40
0.8720829649166097
 40
1.0
 40
1.0
 40
1.0
 40
1.0
 10
268.5819914583284
 20
295.2015415594715
 30
0.0
 10
277.5935154291333
 20
295.4355492729522
 30
0.0
 10
286.6050393999383
 20
295.6695569864328
 30
0.0
 10
296.9383727332716
 20
295.937888926047
 30
0.0
 10
298.2601820958
 20
295.9722131521806
 30
0.0
 10
299.5819914583283
 20
296.0065373783142
 30
0.0
  0
SPLINE
  5
1A4
330
1F
100
AcDbEntity
  8
NOCUT
100
AcDbSpline
210
0.0
220
0.0
230
1.0
 70
    24
 71
     3
 72
    10
 73
     6
 74
     0
 42
0.000000001
 43
0.0000000001
 40
0.0
 40
0.0
 40
0.0
 40
0.0
 40
0.8718591271995432
 40
0.8718591271995432
 40
1.0
 40
1.0
 40
1.0
 40
1.0
 10
299.5819914583283
 20
296.5067059290605
 30
0.0
 10
308.7365122939236
 20
296.7444269289366
 30
0.0
 10
317.8910331295187
 20
296.9821479288127
 30
0.0
 10
328.3910331295187
 20
297.2548078029366
 30
0.0
 10
329.7365122939236
 20
297.2897466771847
 30
0.0
 10
331.0819914583284
 20
297.3246855514325
 30
0.0
  0
SPLINE
  5
1A5
330
1F
100
AcDbEntity
  8
NOCUT
100
AcDbSpline
210
0.0
220
0.0
230
1.0
 70
    24
 71
     3
 72
    10
 73
     6
 74
     0
 42
0.000000001
 43
0.0000000001
 40
0.0
 40
0.0
 40
0.0
 40
0.0
 40
0.8557026165861636
 40
0.8557026165861636
 40
1.0
 40
1.0
 40
1.0
 40
1.0
 10
336.5819914583283
 20
296.6652179443713
 30
0.0
 10
340.4326532329663
 20
295.6954216455708
 30
0.0
 10
344.2833150076041
 20
294.7256253467699
 30
0.0
 10
348.7833150076039
 20
293.5922920134315
 30
0.0
 10
349.4326532329662
 20
293.4287549788951
 30
0.0
 10
350.0819914583283
 20
293.2652179443587
 30
0.0
  0
SPLINE
  5
1A6
330
1F
100
AcDbEntity
  8
NOCUT
100
AcDbSpline
210
0.0
220
0.0
230
1.0
 70
    24
 71
     3
 72
    10
 73
     6
 74
     0
 42
0.000000001
 43
0.0000000001
 40
0.0
 40
0.0
 40
0.0
 40
0.0
 40
0.9479769046047492
 40
0.9479769046047492
 40
1.0
 40
1.0
 40
1.0
 40
1.0
 10
417.0580420378291
 20
293.2652179443587
 30
0.0
 10
417.3862666746303
 20
292.936993307556
 30
0.0
 10
417.7144913114315
 20
292.6087686707532
 30
0.0
 10
418.0607282663686
 20
292.262531715814
 30
0.0
 10
418.0787405845046
 20
292.2445193976779
 30
0.0
 10
418.0967529026406
 20
292.2265070795417
 30
0.0
  0
SPLINE
  5
1A7
330
1F
100
AcDbEntity
  8
NOCUT
100
AcDbSpline
210
0.0
220
0.0
230
1.0
 70
    24
 71
     3
 72
    10
 73
     6
 74
     0
 42
0.000000001
 43
0.0000000001
 40
0.0
 40
0.0
 40
0.0
 40
0.0
 40
0.7401019893476139
 40
0.7401019893476139
 40
1.0
 40
1.0
 40
1.0
 40
1.0
 10
418.0967529026406
 20
292.2265070795417
 30
0.0
 10
420.2538618145774
 20
292.3773468287692
 30
0.0
 10
422.4109707265141
 20
292.5281865779968
 30
0.0
 10
425.3255810680403
 20
292.7319959872383
 30
0.0
 10
426.0830824976298
 20
292.7849656472525
 30
0.0
 10
426.8405839272193
 20
292.8379353072666
 30
0.0
  0
SPLINE
  5
1A8
330
1F
100
AcDbEntity
  8
NOCUT
100
AcDbSpline
210
0.0
220
0.0
230
1.0
 70
    24
 71
     3
 72
     8
 73
     4
 74
     0
 42
0.000000001
 43
0.0000000001
 40
0.0
 40
0.0
 40
0.0
 40
0.0
 40
1.0
 40
1.0
 40
1.0
 40
1.0
 10
432.1043381554956
 20
291.9291040314468
 30
0.0
 10
432.1378773407431
 20
291.9871956043404
 30
0.0
 10
432.1714165259908
 20
292.045287177234
 30
0.0
 10
432.2049557112384
 20
292.1033787501277
 30
0.0
  0
SPLINE
  5
1A9
330
1F
100
AcDbEntity
  8
NOCUT
100
AcDbSpline
210
0.0
220
0.0
230
1.0
 70
    24
 71
     3
 72
     8
 73
     4
 74
     0
 42
0.000000001
 43
0.0000000001
 40
0.0
 40
0.0
 40
0.0
 40
0.0
 40
1.0
 40
1.0
 40
1.0
 40
1.0
 10
434.3700192206994
 20
290.8533787501192
 30
0.0
 10
434.3364800354518
 20
290.7952871772255
 30
0.0
 10
434.3029408502043
 20
290.7371956043318
 30
0.0
 10
434.2694016649568
 20
290.6791040314382
 30
0.0
  0
LINE
  5
1AA
330
1F
100
AcDbEntity
  8
4
100
AcDbLine
 10
329.081991
 20
281.6652180000001
 30
0.0
 11
444.096753
 21
281.6652180000001
 31
0.0
  0
LINE
  5
1AB
330
1F
100
AcDbEntity
  8
SK4
100
AcDbLine
 10
225.581991
 20
281.6652180000001
 30
0.0
 11
332.081991
 21
281.6652180000001
 31
0.0
  0
MTEXT
  5
1AF
330
1F
100
AcDbEntity
  8
SK6
100
AcDbMText
 10
315.948829
 20
254.373824
 30
0.0
 40
3.5
 41
0.0
 71
     7
 72
     5
  1
\W0.7607;25L2R110E04-SZP25
  7
cesky
 73
     2
 44
0.8433729999999998
  0
MTEXT
  5
2F3
330
1F
100
AcDbEntity
  8
2
100
AcDbMText
 10
453.6301980000001
 20
281.131617
 30
0.0
 40
3.5
 41
0.0
 71
     7
 72
     5
  1
\W0.7045;25
  7
cesky
 11
0.0000000000000001
 21
1.0
 31
0.0
 73
     2
 44
0.8433729999999998
  0
MTEXT
  5
2F4
330
1F
100
AcDbEntity
  8
2
100
AcDbMText
 10
453.6301980000001
 20
274.394117
 30
0.0
 40
3.5
 41
0.0
 71
     7
 72
     5
  1
\W3.0115;\H2.63;%%c\H3.50;
  7
cesky
 11
0.0000000000000001
 21
1.0
 31
0.0
 73
     2
 44
0.8433729999999998
  0
LINE
  5
2F5
330
1F
100
AcDbEntity
  8
2
100
AcDbLine
 10
441.581991
 20
294.1652180000001
 30
0.0
 11
454.8176139999999
 21
294.1652180000001
 31
0.0
  0
LINE
  5
2F6
330
1F
100
AcDbEntity
  8
2
100
AcDbLine
 10
453.817614
 20
294.1652180000001
 30
0.0
 11
453.817614
 21
274.236617
 31
0.0
  0
SOLID
  5
2F7
330
1F
100
AcDbEntity
  8
2
100
AcDbTrace
 10
453.817614
 20
294.1652180000001
 30
0.0
 11
454.434759
 21
290.66522
 31
0.0
 12
453.2004699999999
 22
290.665216
 32
0.0
 13
453.2004699999999
 23
290.665216
 33
0.0
  0
MTEXT
  5
2F8
330
1F
100
AcDbEntity
  8
2
100
AcDbMText
 10
424.4419889999999
 20
300.530857
 30
0.0
 40
3.5
 41
0.0
 71
     7
 72
     5
  1
\W0.8459;22,3
  7
cesky
 73
     2
 44
0.8433729999999998
  0
LINE
  5
2F9
330
1F
100
AcDbEntity
  8
2
100
AcDbLine
 10
440.081991
 20
295.665218
 30
0.0
 11
440.081991
 21
301.65669
 31
0.0
  0
LINE
  5
2FA
330
1F
100
AcDbEntity
  8
2
100
AcDbLine
 10
417.4809859999999
 20
293.473096
 30
0.0
 11
417.4809859999999
 21
301.65669
 31
0.0
  0
LINE
  5
2FB
330
1F
100
AcDbEntity
  8
2
100
AcDbLine
 10
440.081991
 20
300.65669
 30
0.0
 11
417.4809859999999
 21
300.65669
 31
0.0
  0
SOLID
  5
2FC
330
1F
100
AcDbEntity
  8
2
100
AcDbTrace
 10
440.081991
 20
300.65669
 30
0.0
 11
436.581994
 21
300.039546
 31
0.0
 12
436.581989
 22
301.273835
 32
0.0
 13
436.581989
 23
301.273835
 33
0.0
  0
SOLID
  5
2FD
330
1F
100
AcDbEntity
  8
2
100
AcDbTrace
 10
417.4809859999999
 20
300.65669
 30
0.0
 11
420.980984
 21
301.273835
 31
0.0
 12
420.9809889999999
 22
300.039546
 32
0.0
 13
420.9809889999999
 23
300.039546
 33
0.0
  0
MTEXT
  5
2FE
330
1F
100
AcDbEntity
  8
SK2
100
AcDbMText
 10
382.004991
 20
312.95835
 30
0.0
 40
3.5
 41
0.0
 71
     7
 72
     5
  1
\W0.8488;110
  7
cesky
 73
     2
 44
0.8433729999999998
  0
LINE
  5
2FF
330
1F
100
AcDbEntity
  8
SK2
100
AcDbLine
 10
440.081991
 20
295.665218
 30
0.0
 11
440.081991
 21
314.084184
 31
0.0
  0
LINE
  5
300
330
1F
100
AcDbEntity
  8
SK2
100
AcDbLine
 10
330.081991
 20
281.6652180000001
 30
0.0
 11
330.081991
 21
314.084184
 31
0.0
  0
LINE
  5
301
330
1F
100
AcDbEntity
  8
SK2
100
AcDbLine
 10
440.081991
 20
313.084184
 30
0.0
 11
330.081991
 21
313.084184
 31
0.0
  0
SOLID
  5
302
330
1F
100
AcDbEntity
  8
SK2
100
AcDbTrace
 10
440.081991
 20
313.084184
 30
0.0
 11
436.581994
 21
312.467039
 31
0.0
 12
436.581989
 22
313.701328
 32
0.0
 13
436.581989
 23
313.701328
 33
0.0
  0
SOLID
  5
303
330
1F
100
AcDbEntity
  8
SK2
100
AcDbTrace
 10
330.081991
 20
313.084184
 30
0.0
 11
333.581989
 21
313.701328
 31
0.0
 12
333.581994
 22
312.467039
 32
0.0
 13
333.581994
 23
312.467039
 33
0.0
  0
MTEXT
  5
304
330
1F
100
AcDbEntity
  8
SK2
100
AcDbMText
 10
328.229991
 20
323.238815
 30
0.0
 40
3.5
 41
0.0
 71
     7
 72
     5
  1
\W0.8654;212,5
  7
cesky
 73
     2
 44
0.8433729999999998
  0
LINE
  5
305
330
1F
100
AcDbEntity
  8
SK2
100
AcDbLine
 10
440.081991
 20
295.665218
 30
0.0
 11
440.081991
 21
324.364648
 31
0.0
  0
LINE
  5
306
330
1F
100
AcDbEntity
  8
SK2
100
AcDbLine
 10
227.581991
 20
281.6652180000001
 30
0.0
 11
227.581991
 21
324.364648
 31
0.0
  0
LINE
  5
307
330
1F
100
AcDbEntity
  8
SK2
100
AcDbLine
 10
440.081991
 20
323.364648
 30
0.0
 11
227.581991
 21
323.364648
 31
0.0
  0
SOLID
  5
308
330
1F
100
AcDbEntity
  8
SK2
100
AcDbTrace
 10
440.081991
 20
323.364648
 30
0.0
 11
436.581994
 21
322.747504
 31
0.0
 12
436.581989
 22
323.981793
 32
0.0
 13
436.581989
 23
323.981793
 33
0.0
  0
SOLID
  5
309
330
1F
100
AcDbEntity
  8
SK2
100
AcDbTrace
 10
227.581991
 20
323.364648
 30
0.0
 11
231.081989
 21
323.981793
 31
0.0
 12
231.081994
 22
322.747504
 32
0.0
 13
231.081994
 23
322.747504
 33
0.0
  0
ELLIPSE
  5
30E
330
1F
100
AcDbEntity
  8
CUT
100
AcDbEllipse
 10
438.569694
 20
281.27057
 30
0.0
 11
-0.2697908154999104
 21
0.0315639048010674
 31
0.0
210
0.0
220
0.0
230
1.0
 40
0.101961
 41
1.589402086693099
 42
2.200267324899883
  0
ELLIPSE
  5
30F
330
1F
100
AcDbEntity
  8
CUT
100
AcDbEllipse
 10
428.010932
 20
281.663694
 30
0.0
 11
0.0
 21
12.27070460253211
 31
0.0
210
0.0
220
0.0
230
1.0
 40
0.9848079999999999
 41
5.0656487766818
 42
6.327423354577536
  0
ELLIPSE
  5
310
330
1F
100
AcDbEntity
  8
CUT
100
AcDbEllipse
 10
417.523711
 20
292.493056
 30
0.0
 11
0.0
 21
0.9809999999999998
 31
0.0
210
0.0
220
0.0
230
1.0
 40
0.9848079999999999
 41
0.0442380473979558
 42
1.7730044786164
  0
ELLIPSE
  5
311
330
1F
100
AcDbEntity
  8
CUT
100
AcDbEllipse
 10
428.4153719999999
 20
294.760401
 30
0.0
 11
0.0
 21
12.27070460253211
 31
0.0
210
0.0
220
0.0
230
1.0
 40
0.9848079999999999
 41
1.773004478616402
 42
3.028751068308256
  0
ELLIPSE
  5
312
330
1F
100
AcDbEntity
  8
CUT
100
AcDbEllipse
 10
428.091894
 20
281.545923
 30
0.0
 11
-0.8332304596006082
 21
12.96595453795424
 31
0.0
210
0.0
220
0.0
230
1.0
 40
0.9232889999999999
 41
4.719187974321195
 42
4.965433314960526
  0
LINE
  5
313
330
1F
100
AcDbEntity
  8
CUT
100
AcDbLine
 10
427.054654
 20
282.567736
 30
0.0
 11
438.571496
 21
281.24248
 31
0.0
  0
LINE
  5
314
330
1F
100
AcDbEntity
  8
CUT
100
AcDbLine
 10
438.725923
 20
281.229752
 30
0.0
 11
438.8010099999999
 21
281.226571
 31
0.0
  0
LINE
  5
315
330
1F
100
AcDbEntity
  8
CUT
100
AcDbLine
 10
427.4765209999999
 20
293.922393
 30
0.0
 11
417.4809859999999
 21
293.473096
 31
0.0
  0
LINE
  5
316
330
1F
100
AcDbEntity
  8
CUT
100
AcDbLine
 10
439.4733866190198
 20
285.5367954371123
 30
0.0
 11
439.4733866190198
 21
285.5367954371123
 31
0.0
  0
ARC
  5
317
330
1F
100
AcDbEntity
  8
CUT
100
AcDbCircle
 10
431.8189579812102
 20
283.1847445545261
 30
0.0
 40
8.007647664925947
100
AcDbArc
 50
17.08113275900483
 51
19.88828070138028
  0
LINE
  5
318
330
1F
100
AcDbEntity
  8
CUT
100
AcDbLine
 10
440.0584040888977
 20
282.3815705883776
 30
0.0
 11
440.0584040888977
 21
282.3815705883776
 31
0.0
  0
ARC
  5
319
330
1F
100
AcDbEntity
  8
CUT
100
AcDbCircle
 10
439.4777214963155
 20
282.3624525007888
 30
0.0
 40
0.5809972242627712
100
AcDbArc
 50
1.885694903587269
 51
4.038693213391567
  0
ARC
  5
31A
330
1F
100
AcDbEntity
  8
CUT
100
AcDbCircle
 10
438.8357586305675
 20
282.1961756105392
 30
0.0
 40
0.9702272726418112
100
AcDbArc
 50
267.9475022177385
 51
287.2604978648714
  0
ARC
  5
31B
330
1F
100
AcDbEntity
  8
CUT
100
AcDbCircle
 10
438.7253563405073
 20
282.5236077161332
 30
0.0
 40
1.315697883274486
100
AcDbArc
 50
287.6208960915098
 51
315.9685078073197
  0
ARC
  5
31C
330
1F
100
AcDbEntity
  8
CUT
100
AcDbCircle
 10
438.6542727553931
 20
282.6180328137006
 30
0.0
 40
1.432553706218931
100
AcDbArc
 50
315.2293389509534
 51
344.0320810958109
  0
ARC
  5
31D
330
1F
100
AcDbEntity
  8
CUT
100
AcDbCircle
 10
438.8292600311169
 20
282.5575368160727
 30
0.0
 40
1.247716025264753
100
AcDbArc
 50
344.4923463043511
 51
348.2475755181941
  0
ARC
  5
31E
330
1F
100
AcDbEntity
  8
CUT
100
AcDbCircle
 10
439.6976919879785
 20
282.3760808727632
 30
0.0
 40
0.3605304264590492
100
AcDbArc
 50
348.3694795909638
 51
355.2705816545704
  0
ARC
  5
31F
330
1F
100
AcDbEntity
  8
CUT
100
AcDbCircle
 10
439.6557829067197
 20
282.3800462550279
 30
0.0
 40
0.402624067748712
100
AcDbArc
 50
355.1999313161177
 51
0.2169221443878749
  0
ENDSEC
  0
SECTION
  2
OBJECTS
  0
DICTIONARY
  5
C
330
0
100
AcDbDictionary
281
     1
  3
ACAD_CIP_PREVIOUS_PRODUCT_INFO
350
276
  3
ACAD_COLOR
350
270
  3
ACAD_DETAILVIEWSTYLE
350
26C
  3
ACAD_FIELDLIST
350
2E0
  3
ACAD_GROUP
350
D
  3
ACAD_IMAGE_DICT
350
DC
  3
ACAD_IMAGE_VARS
350
275
  3
ACAD_LAYOUT
350
1A
  3
ACAD_MATERIAL
350
43
  3
ACAD_MLEADERSTYLE
350
6B
  3
ACAD_MLINESTYLE
350
17
  3
ACAD_PLOTSETTINGS
350
19
  3
ACAD_PLOTSTYLENAME
350
E
  3
ACAD_SCALELIST
350
47
  3
ACAD_SECTIONVIEWSTYLE
350
26D
  3
ACAD_TABLESTYLE
350
69
  3
ACAD_VISUALSTYLE
350
2A
  3
ACDB_RECOMPOSE_DATA
350
3AA
  3
AcDbVariableDictionary
350
229
  3
AcDsDecomposeData
350
3B0
  3
AcmDictionary
350
2A2
  3
AMG
350
277
  3
AMGSNAPSETTINGS
350
2EA
  0
DICTIONARY
  5
3A0
330
2
100
AcDbDictionary
280
     1
281
     1
  3
ACAD_LAYERSTATES
360
3A1
  0
DICTIONARY
  5
383
330
10
100
AcDbDictionary
280
     1
281
     1
  3
ADSK_XREC_LAYER_RECONCILED
360
384
  0
DICTIONARY
  5
385
330
76
100
AcDbDictionary
280
     1
281
     1
  3
ADSK_XREC_LAYER_RECONCILED
360
386
  0
DICTIONARY
  5
387
330
320
100
AcDbDictionary
280
     1
281
     1
  3
ADSK_XREC_LAYER_RECONCILED
360
388
  0
DICTIONARY
  5
389
330
321
100
AcDbDictionary
280
     1
281
     1
  3
ADSK_XREC_LAYER_RECONCILED
360
38A
  0
DICTIONARY
  5
38B
330
322
100
AcDbDictionary
280
     1
281
     1
  3
ADSK_XREC_LAYER_RECONCILED
360
38C
  0
DICTIONARY
  5
38D
330
324
100
AcDbDictionary
280
     1
281
     1
  3
ADSK_XREC_LAYER_RECONCILED
360
38E
  0
DICTIONARY
  5
38F
330
325
100
AcDbDictionary
280
     1
281
     1
  3
ADSK_XREC_LAYER_RECONCILED
360
390
  0
DICTIONARY
  5
391
330
327
100
AcDbDictionary
280
     1
281
     1
  3
ADSK_XREC_LAYER_RECONCILED
360
392
  0
DICTIONARY
  5
393
330
328
100
AcDbDictionary
280
     1
281
     1
  3
ADSK_XREC_LAYER_RECONCILED
360
394
  0
DICTIONARY
  5
395
330
329
100
AcDbDictionary
280
     1
281
     1
  3
ADSK_XREC_LAYER_RECONCILED
360
396
  0
DICTIONARY
  5
397
330
32A
100
AcDbDictionary
280
     1
281
     1
  3
ADSK_XREC_LAYER_RECONCILED
360
398
  0
DICTIONARY
  5
399
330
32B
100
AcDbDictionary
280
     1
281
     1
  3
ADSK_XREC_LAYER_RECONCILED
360
39A
  0
DICTIONARY
  5
39B
330
32C
100
AcDbDictionary
280
     1
281
     1
  3
ADSK_XREC_LAYER_RECONCILED
360
39C
  0
DICTIONARY
  5
2F1
330
1F
100
AcDbDictionary
280
     1
281
     1
  3
ACAD_SORTENTS
360
2F2
  0
XRECORD
  5
276
102
{ACAD_REACTORS
330
C
102
}
330
C
100
AcDbXrecord
280
     1
300
AMECH_PP
300
2019
300
87089AMECH_PP_2019_0F
  0
DICTIONARY
  5
270
102
{ACAD_REACTORS
330
C
102
}
330
C
100
AcDbDictionary
281
     1
  0
DICTIONARY
  5
26C
102
{ACAD_REACTORS
330
C
102
}
330
C
100
AcDbDictionary
281
     1
  3
Metric50
350
272
  0
FIELDLIST
  5
2E0
102
{ACAD_REACTORS
330
C
102
}
330
C
100
AcDbIdSet
 90
        3
330
2DE
330
2DF
330
2E1
100
AcDbFieldList
  0
DICTIONARY
  5
D
102
{ACAD_REACTORS
330
C
102
}
330
C
100
AcDbDictionary
281
     1
  3
NULOVY_BOD
350
32D
  0
DICTIONARY
  5
DC
102
{ACAD_REACTORS
330
C
102
}
330
C
100
AcDbDictionary
281
     1
  3
25L2R110E04-SZP25_115009558ndi000_00-2D_DormerPramet_jpg
350
DD
  0
RASTERVARIABLES
  5
275
102
{ACAD_REACTORS
330
C
102
}
330
C
100
AcDbRasterVariables
 90
        0
 70
     1
 71
     1
 72
     1
  0
DICTIONARY
  5
1A
102
{ACAD_REACTORS
330
C
102
}
330
C
100
AcDbDictionary
281
     1
  3
Layout1
350
1E
  3
Layout2
350
26
  3
Model
350
22
  0
DICTIONARY
  5
43
102
{ACAD_REACTORS
330
C
102
}
330
C
100
AcDbDictionary
281
     1
  3
ByBlock
350
45
  3
ByLayer
350
44
  3
Global
350
46
  0
DICTIONARY
  5
6B
102
{ACAD_REACTORS
330
C
102
}
330
C
100
AcDbDictionary
281
     1
  3
Standard
350
6C
  0
DICTIONARY
  5
17
102
{ACAD_REACTORS
330
C
102
}
330
C
100
AcDbDictionary
281
     1
  3
Standard
350
18
  0
DICTIONARY
  5
19
102
{ACAD_REACTORS
330
C
102
}
330
C
100
AcDbDictionary
281
     1
  0
ACDBDICTIONARYWDFLT
  5
E
102
{ACAD_REACTORS
330
C
102
}
330
C
100
AcDbDictionary
281
     1
  3
Normal
350
F
100
AcDbDictionaryWithDefault
340
F
  0
DICTIONARY
  5
47
102
{ACAD_REACTORS
330
C
102
}
330
C
100
AcDbDictionary
281
     1
  3
A0
350
48
  3
A1
350
49
  3
A2
350
4A
  3
A3
350
4B
  3
A4
350
4C
  3
A5
350
4D
  3
A6
350
4E
  3
A7
350
4F
  3
A8
350
50
  3
A9
350
51
  3
B0
350
52
  3
B1
350
53
  3
B2
350
54
  3
B3
350
55
  3
B4
350
56
  3
B5
350
57
  3
B6
350
58
  3
B7
350
59
  3
B8
350
5A
  3
B9
350
5B
  3
C0
350
5C
  3
C1
350
5D
  3
C2
350
5E
  3
C3
350
5F
  3
C4
350
60
  3
C5
350
61
  3
C6
350
62
  3
C7
350
63
  3
C8
350
64
  3
C9
350
65
  3
D0
350
66
  3
D1
350
67
  3
D2
350
68
  0
DICTIONARY
  5
26D
102
{ACAD_REACTORS
330
C
102
}
330
C
100
AcDbDictionary
281
     1
  3
Metric50
350
271
  0
DICTIONARY
  5
69
102
{ACAD_REACTORS
330
C
102
}
330
C
100
AcDbDictionary
281
     1
  3
Standard
350
6A
  0
DICTIONARY
  5
2A
102
{ACAD_REACTORS
330
C
102
}
330
C
100
AcDbDictionary
281
     1
  3
2dWireframe
350
2F
  3
Basic
350
32
  3
Brighten
350
36
  3
ColorChange
350
3A
  3
Conceptual
350
34
  3
Dim
350
35
  3
EdgeColorOff
350
3D
  3
Facepattern
350
39
  3
Flat
350
2B
  3
FlatWithEdges
350
2C
  3
Gouraud
350
2D
  3
GouraudWithEdges
350
2E
  3
Hidden
350
31
  3
JitterOff
350
3B
  3
Linepattern
350
38
  3
OverhangOff
350
3C
  3
Realistic
350
33
  3
Shaded
350
42
  3
Shaded with edges
350
41
  3
Shades of Gray
350
3E
  3
Sketchy
350
3F
  3
Thicken
350
37
  3
Wireframe
350
30
  3
X-Ray
350
40
  0
XRECORD
  5
3AA
102
{ACAD_REACTORS
330
C
102
}
330
C
100
AcDbXrecord
280
     1
 90
        1
330
6A
  0
DICTIONARY
  5
229
102
{ACAD_REACTORS
330
C
102
}
330
C
100
AcDbDictionary
281
     1
  3
CANNOSCALE
350
22A
  3
CMLEADERSTYLE
350
26B
  3
CTABLESTYLE
350
26A
  3
CVIEWDETAILSTYLE
350
3A6
  3
CVIEWSECTIONSTYLE
350
3A7
  3
MSLTSCALE
350
22B
  3
XCLIPFRAME
350
3A8
  0
DICTIONARY
  5
3B0
102
{ACAD_REACTORS
330
C
102
}
330
C
100
AcDbDictionary
281
     1
  3
AcDsRecords
350
3B2
  3
AcDsSchemas
350
3B1
1001
ACAD
1070
     2
  0
DICTIONARY
  5
2A2
102
{ACAD_REACTORS
330
C
102
}
330
C
100
AcDbDictionary
281
     1
  3
AcmStdDictionary
350
2A9
  0
DICTIONARY
  5
277
102
{ACAD_REACTORS
330
C
102
}
330
C
100
AcDbDictionary
281
     1
  0
DICTIONARY
  5
2EA
102
{ACAD_REACTORS
330
C
102
}
330
C
100
AcDbDictionary
281
     1
  0
DICTIONARY
  5
3A1
102
{ACAD_REACTORS
330
3A0
102
}
330
3A0
100
AcDbDictionary
281
     1
  0
XRECORD
  5
384
102
{ACAD_REACTORS
330
383
102
}
330
383
100
AcDbXrecord
280
     1
290
     1
  0
XRECORD
  5
386
102
{ACAD_REACTORS
330
385
102
}
330
385
100
AcDbXrecord
280
     1
290
     1
  0
XRECORD
  5
388
102
{ACAD_REACTORS
330
387
102
}
330
387
100
AcDbXrecord
280
     1
290
     1
  0
XRECORD
  5
38A
102
{ACAD_REACTORS
330
389
102
}
330
389
100
AcDbXrecord
280
     1
290
     1
  0
XRECORD
  5
38C
102
{ACAD_REACTORS
330
38B
102
}
330
38B
100
AcDbXrecord
280
     1
290
     1
  0
XRECORD
  5
38E
102
{ACAD_REACTORS
330
38D
102
}
330
38D
100
AcDbXrecord
280
     1
290
     1
  0
XRECORD
  5
390
102
{ACAD_REACTORS
330
38F
102
}
330
38F
100
AcDbXrecord
280
     1
290
     1
  0
XRECORD
  5
392
102
{ACAD_REACTORS
330
391
102
}
330
391
100
AcDbXrecord
280
     1
290
     1
  0
XRECORD
  5
394
102
{ACAD_REACTORS
330
393
102
}
330
393
100
AcDbXrecord
280
     1
290
     1
  0
XRECORD
  5
396
102
{ACAD_REACTORS
330
395
102
}
330
395
100
AcDbXrecord
280
     1
290
     1
  0
XRECORD
  5
398
102
{ACAD_REACTORS
330
397
102
}
330
397
100
AcDbXrecord
280
     1
290
     1
  0
XRECORD
  5
39A
102
{ACAD_REACTORS
330
399
102
}
330
399
100
AcDbXrecord
280
     1
290
     1
  0
XRECORD
  5
39C
102
{ACAD_REACTORS
330
39B
102
}
330
39B
100
AcDbXrecord
280
     1
290
     1
  0
SORTENTSTABLE
  5
2F2
102
{ACAD_REACTORS
330
2F1
102
}
330
2F1
100
AcDbSortentsTable
330
1F
331
2F3
  5
1E5
331
2F4
  5
1FD
331
2F5
  5
2F3
331
2F6
  5
2F4
331
2F7
  5
2F5
331
2F8
  5
2F6
331
2F9
  5
2F7
331
2FA
  5
2F8
331
2FB
  5
2F9
331
2FC
  5
2FA
331
2FD
  5
2FB
331
313
  5
31D
331
314
  5
31E
331
315
  5
31F
331
316
  5
313
331
317
  5
314
331
318
  5
315
331
319
  5
316
331
31A
  5
317
331
31B
  5
318
331
31C
  5
319
331
31D
  5
31A
331
31E
  5
31B
331
31F
  5
31C
  0
ACDBDETAILVIEWSTYLE
  5
272
102
{ACAD_XDICTIONARY
360
3E6
102
}
102
{ACAD_REACTORS
330
26C
330
2D4
102
}
330
26C
100
AcDbModelDocViewStyle
 70
     0
  3
Metric50
290
     0
100
AcDbDetailViewStyle
 70
     0
 71
     0
 90
        3
 71
     1
340
11
 62
   256
 40
5.0
340
0
 62
   256
 40
5.0
300

 40
0.0
280
     1
 71
     2
340
16
 90
       25
 62
   256
 71
     3
340
11
 62
   256
 40
5.0
 90
        0
 40
15.0
 90
        1
300
%<\AcVar ViewDetailId>% (%<\AcVar ViewScale \f "%sn">%)
 71
     4
340
16
 90
       25
 62
   256
340
16
 90
       25
 62
   256
280
     0
  0
GROUP
  5
32D
102
{ACAD_REACTORS
330
D
102
}
330
D
100
AcDbGroup
300

 70
     0
 71
     1
340
73
  0
IMAGEDEF
  5
DD
102
{ACAD_REACTORS
330
DC
330
E0
102
}
330
DC
100
AcDbRasterImageDef
 90
        0
  1
R:\Katalog\Data\ZP\25L2R110E04-SZP25\25L2R110E04-SZP25_115009558ndi000_00-2D_DormerPramet.jpg
 10
2089.0
 20
531.0
 11
0.0004786979415989
 21
0.0004786979415989
280
     1
281
     0
  0
LAYOUT
  5
1E
102
{ACAD_REACTORS
330
1A
102
}
330
1A
100
AcDbPlotSettings
  1

  2
none_device
  4

  6

 40
0.0
 41
0.0
 42
0.0
 43
0.0
 44
0.0
 45
0.0
 46
0.0
 47
0.0
 48
0.0
 49
0.0
140
0.0
141
0.0
142
1.0
143
1.0
 70
   688
 72
     0
 73
     0
 74
     5
  7

 75
    16
147
1.0
 76
     0
 77
     2
 78
   300
148
0.0
149
0.0
100
AcDbLayout
  1
Layout1
 70
     1
 71
     1
 10
-0.5
 20
-0.5
 11
5.0
 21
5.0
 12
0.0
 22
0.0
 32
0.0
 14
-0.5
 24
-0.5
 34
-0.5
 15
5.0
 25
5.0
 35
5.0
146
0.0
 13
0.0
 23
0.0
 33
0.0
 16
1.0
 26
0.0
 36
0.0
 17
0.0
 27
1.0
 37
0.0
 76
     0
330
1B
  0
LAYOUT
  5
26
102
{ACAD_REACTORS
330
1A
102
}
330
1A
100
AcDbPlotSettings
  1

  2
none_device
  4

  6

 40
0.0
 41
0.0
 42
0.0
 43
0.0
 44
0.0
 45
0.0
 46
0.0
 47
0.0
 48
0.0
 49
0.0
140
0.0
141
0.0
142
1.0
143
1.0
 70
   688
 72
     0
 73
     0
 74
     5
  7

 75
    16
147
1.0
 76
     0
 77
     2
 78
   300
148
0.0
149
0.0
100
AcDbLayout
  1
Layout2
 70
     1
 71
     2
 10
0.0
 20
0.0
 11
0.0
 21
0.0
 12
0.0
 22
0.0
 32
0.0
 14
0.0
 24
0.0
 34
0.0
 15
0.0
 25
0.0
 35
0.0
146
0.0
 13
0.0
 23
0.0
 33
0.0
 16
1.0
 26
0.0
 36
0.0
 17
0.0
 27
1.0
 37
0.0
 76
     0
330
23
  0
LAYOUT
  5
22
102
{ACAD_REACTORS
330
1A
102
}
330
1A
100
AcDbPlotSettings
  1

  2
none_device
  4
Letter_(8.50_x_11.00_Inches)
  6

 40
6.349999999999999
 41
6.349999999999999
 42
6.350005
 43
6.350005
 44
215.9
 45
279.4
 46
0.0
 47
0.0
 48
0.0
 49
0.0
140
0.0
141
0.0
142
1.0
143
1.0
 70
  1712
 72
     0
 73
     0
 74
     0
  7

 75
     0
147
1.0
 76
     0
 77
     2
 78
   300
148
0.0
149
0.0
100
AcDbLayout
  1
Model
 70
     1
 71
     0
 10
-0.5
 20
-0.5
 11
5.0
 21
5.0
 12
0.0
 22
0.0
 32
0.0
 14
-0.5
 24
-0.5
 34
-0.5
 15
5.0
 25
5.0
 35
5.0
146
0.0
 13
0.0
 23
0.0
 33
0.0
 16
1.0
 26
0.0
 36
0.0
 17
0.0
 27
1.0
 37
0.0
 76
     0
330
1F
331
29
  0
MATERIAL
  5
45
102
{ACAD_XDICTIONARY
360
25F
102
}
102
{ACAD_REACTORS
330
43
102
}
330
43
100
AcDbMaterial
  1
ByBlock
  0
MATERIAL
  5
44
102
{ACAD_XDICTIONARY
360
25D
102
}
102
{ACAD_REACTORS
330
43
102
}
330
43
100
AcDbMaterial
  1
ByLayer
  0
MATERIAL
  5
46
102
{ACAD_XDICTIONARY
360
261
102
}
102
{ACAD_REACTORS
330
43
102
}
330
43
100
AcDbMaterial
  1
Global
  0
MLEADERSTYLE
  5
6C
102
{ACAD_REACTORS
330
6B
102
}
330
6B
100
AcDbMLeaderStyle
170
     2
171
     1
172
     0
 90
        2
 40
0.0
 41
0.0
173
     1
 91
-1056964608
340
14
 92
       -2
290
     1
 42
0.09
291
     1
 43
0.36
  3
Standard
 44
0.18
300

342
11
174
     1
178
     6
175
     1
176
     0
 93
-1056964608
 45
0.18
292
     0
297
     0
 46
0.18
 94
-1056964608
 47
1.0
 49
1.0
140
1.0
293
     1
141
0.0
294
     1
177
     0
142
1.0
295
     0
296
     0
143
0.125
1001
ACAD_MLEADERVER
1070
     2
  0
MLINESTYLE
  5
18
102
{ACAD_REACTORS
330
17
102
}
330
17
100
AcDbMlineStyle
  2
STANDARD
 70
     0
  3

 62
   256
 51
90.0
 52
90.0
 71
     2
 49
0.5
 62
   256
  6
BYLAYER
 49
-0.5
 62
   256
  6
BYLAYER
  0
ACDBPLACEHOLDER
  5
F
102
{ACAD_REACTORS
330
E
102
}
330
E
  0
SCALE
  5
48
102
{ACAD_REACTORS
330
47
102
}
330
47
100
AcDbScale
 70
     0
300
1:1
140
1.0
141
1.0
290
     1
  0
SCALE
  5
49
102
{ACAD_REACTORS
330
47
102
}
330
47
100
AcDbScale
 70
     0
300
1:2
140
1.0
141
2.0
290
     0
  0
SCALE
  5
4A
102
{ACAD_REACTORS
330
47
102
}
330
47
100
AcDbScale
 70
     0
300
1:4
140
1.0
141
4.0
290
     0
  0
SCALE
  5
4B
102
{ACAD_REACTORS
330
47
102
}
330
47
100
AcDbScale
 70
     0
300
1:5
140
1.0
141
5.0
290
     0
  0
SCALE
  5
4C
102
{ACAD_REACTORS
330
47
102
}
330
47
100
AcDbScale
 70
     0
300
1:8
140
1.0
141
8.0
290
     0
  0
SCALE
  5
4D
102
{ACAD_REACTORS
330
47
102
}
330
47
100
AcDbScale
 70
     0
300
1:10
140
1.0
141
10.0
290
     0
  0
SCALE
  5
4E
102
{ACAD_REACTORS
330
47
102
}
330
47
100
AcDbScale
 70
     0
300
1:16
140
1.0
141
16.0
290
     0
  0
SCALE
  5
4F
102
{ACAD_REACTORS
330
47
102
}
330
47
100
AcDbScale
 70
     0
300
1:20
140
1.0
141
20.0
290
     0
  0
SCALE
  5
50
102
{ACAD_REACTORS
330
47
102
}
330
47
100
AcDbScale
 70
     0
300
1:30
140
1.0
141
30.0
290
     0
  0
SCALE
  5
51
102
{ACAD_REACTORS
330
47
102
}
330
47
100
AcDbScale
 70
     0
300
1:40
140
1.0
141
40.0
290
     0
  0
SCALE
  5
52
102
{ACAD_REACTORS
330
47
102
}
330
47
100
AcDbScale
 70
     0
300
1:50
140
1.0
141
50.0
290
     0
  0
SCALE
  5
53
102
{ACAD_REACTORS
330
47
102
}
330
47
100
AcDbScale
 70
     0
300
1:100
140
1.0
141
100.0
290
     0
  0
SCALE
  5
54
102
{ACAD_REACTORS
330
47
102
}
330
47
100
AcDbScale
 70
     0
300
2:1
140
2.0
141
1.0
290
     0
  0
SCALE
  5
55
102
{ACAD_REACTORS
330
47
102
}
330
47
100
AcDbScale
 70
     0
300
4:1
140
4.0
141
1.0
290
     0
  0
SCALE
  5
56
102
{ACAD_REACTORS
330
47
102
}
330
47
100
AcDbScale
 70
     0
300
8:1
140
8.0
141
1.0
290
     0
  0
SCALE
  5
57
102
{ACAD_REACTORS
330
47
102
}
330
47
100
AcDbScale
 70
     0
300
10:1
140
10.0
141
1.0
290
     0
  0
SCALE
  5
58
102
{ACAD_REACTORS
330
47
102
}
330
47
100
AcDbScale
 70
     0
300
100:1
140
100.0
141
1.0
290
     0
  0
SCALE
  5
59
102
{ACAD_REACTORS
330
47
102
}
330
47
100
AcDbScale
 70
     0
300
1/128" = 1'-0"
140
0.007812
141
12.0
290
     0
  0
SCALE
  5
5A
102
{ACAD_REACTORS
330
47
102
}
330
47
100
AcDbScale
 70
     0
300
1/64" = 1'-0"
140
0.015625
141
12.0
290
     0
  0
SCALE
  5
5B
102
{ACAD_REACTORS
330
47
102
}
330
47
100
AcDbScale
 70
     0
300
1/32" = 1'-0"
140
0.03125
141
12.0
290
     0
  0
SCALE
  5
5C
102
{ACAD_REACTORS
330
47
102
}
330
47
100
AcDbScale
 70
     0
300
1/16" = 1'-0"
140
0.0625
141
12.0
290
     0
  0
SCALE
  5
5D
102
{ACAD_REACTORS
330
47
102
}
330
47
100
AcDbScale
 70
     0
300
3/32" = 1'-0"
140
0.09375
141
12.0
290
     0
  0
SCALE
  5
5E
102
{ACAD_REACTORS
330
47
102
}
330
47
100
AcDbScale
 70
     0
300
1/8" = 1'-0"
140
0.125
141
12.0
290
     0
  0
SCALE
  5
5F
102
{ACAD_REACTORS
330
47
102
}
330
47
100
AcDbScale
 70
     0
300
3/16" = 1'-0"
140
0.1875
141
12.0
290
     0
  0
SCALE
  5
60
102
{ACAD_REACTORS
330
47
102
}
330
47
100
AcDbScale
 70
     0
300
1/4" = 1'-0"
140
0.25
141
12.0
290
     0
  0
SCALE
  5
61
102
{ACAD_REACTORS
330
47
102
}
330
47
100
AcDbScale
 70
     0
300
3/8" = 1'-0"
140
0.375
141
12.0
290
     0
  0
SCALE
  5
62
102
{ACAD_REACTORS
330
47
102
}
330
47
100
AcDbScale
 70
     0
300
1/2" = 1'-0"
140
0.5
141
12.0
290
     0
  0
SCALE
  5
63
102
{ACAD_REACTORS
330
47
102
}
330
47
100
AcDbScale
 70
     0
300
3/4" = 1'-0"
140
0.75
141
12.0
290
     0
  0
SCALE
  5
64
102
{ACAD_REACTORS
330
47
102
}
330
47
100
AcDbScale
 70
     0
300
1" = 1'-0"
140
1.0
141
12.0
290
     0
  0
SCALE
  5
65
102
{ACAD_REACTORS
330
47
102
}
330
47
100
AcDbScale
 70
     0
300
1-1/2" = 1'-0"
140
1.5
141
12.0
290
     0
  0
SCALE
  5
66
102
{ACAD_REACTORS
330
47
102
}
330
47
100
AcDbScale
 70
     0
300
3" = 1'-0"
140
3.0
141
12.0
290
     0
  0
SCALE
  5
67
102
{ACAD_REACTORS
330
47
102
}
330
47
100
AcDbScale
 70
     0
300
6" = 1'-0"
140
6.0
141
12.0
290
     0
  0
SCALE
  5
68
102
{ACAD_REACTORS
330
47
102
}
330
47
100
AcDbScale
 70
     0
300
1'-0" = 1'-0"
140
12.0
141
12.0
290
     0
  0
ACDBSECTIONVIEWSTYLE
  5
271
102
{ACAD_XDICTIONARY
360
3E4
102
}
102
{ACAD_REACTORS
330
26D
330
2D3
102
}
330
26D
100
AcDbModelDocViewStyle
 70
     0
  3
Metric50
290
     0
100
AcDbSectionViewStyle
 70
     0
 71
     0
 90
      102
 71
     1
340
11
 62
   256
 40
5.0
340
0
340
0
 62
   256
 40
5.0
300
I, O, Q, S, X, Z
 40
10.0
 90
        0
 40
2.5
 90
        0
 71
     2
340
16
 90
       25
 62
   256
340
16
 90
       50
 62
   256
 40
5.0
 40
2.5
 40
5.0
 71
     3
340
11
 62
   256
 40
5.0
 90
        0
 40
15.0
 90
        1
300
%<\AcVar ViewSectionStartId>%-%<\AcVar ViewSectionEndId>% (%<\AcVar ViewScale \f "%sn">%)
 71
     4
 62
   256
 62
   257
300
ANSI31
 40
1.0
 90
        0
290
     0
290
     0
 90
        6
 40
0.0
 40
1.570796326794896
 40
0.2617993877991494
 40
1.308996938995747
 40
-0.2617993877991494
 40
1.832595714594046
  0
TABLESTYLE
  5
6A
102
{ACAD_XDICTIONARY
360
263
102
}
102
{ACAD_REACTORS
330
69
102
}
330
69
100
AcDbTableStyle
  3
Standard
 70
     0
 71
     0
 40
0.06
 41
0.06
280
     0
281
     0
  7
Standard
140
0.18
170
     2
 62
     0
 63
     7
283
     0
274
    -2
284
     1
 64
     0
275
    -2
285
     1
 65
     0
276
    -2
286
     1
 66
     0
277
    -2
287
     1
 67
     0
278
    -2
288
     1
 68
     0
279
    -2
289
     1
 69
     0
  7
Standard
140
0.25
170
     5
 62
     0
 63
     7
283
     0
274
    -2
284
     1
 64
     0
275
    -2
285
     1
 65
     0
276
    -2
286
     1
 66
     0
277
    -2
287
     1
 67
     0
278
    -2
288
     1
 68
     0
279
    -2
289
     1
 69
     0
  7
Standard
140
0.18
170
     5
 62
     0
 63
     7
283
     0
274
    -2
284
     1
 64
     0
275
    -2
285
     1
 65
     0
276
    -2
286
     1
 66
     0
277
    -2
287
     1
 67
     0
278
    -2
288
     1
 68
     0
279
    -2
289
     1
 69
     0
  0
VISUALSTYLE
  5
2F
102
{ACAD_XDICTIONARY
360
3BB
102
}
102
{ACAD_REACTORS
330
2A
102
}
330
2A
100
AcDbVisualStyle
  2

 70
     4
 71
     0
 72
     2
 73
     0
 90
        0
 40
-0.6
 41
-30.0
 62
     5
 63
     7
421
 16777215
 74
     1
 91
        4
 64
     7
 65
   257
 75
     1
175
     1
 42
1.0
 92
        0
 66
   257
 43
1.0
 76
     1
 77
     6
 78
     2
 67
     7
 79
     5
170
     0
171
     0
290
     0
174
     0
 93
        1
 44
0.0
173
     0
291
     0
 45
0.0
1001
ACAD
1000
AcDbSavedByObjectVersion
1070
     0
  0
VISUALSTYLE
  5
32
102
{ACAD_XDICTIONARY
360
3C1
102
}
102
{ACAD_REACTORS
330
2A
102
}
330
2A
100
AcDbVisualStyle
  2

 70
     7
 71
     1
 72
     0
 73
     1
 90
        0
 40
-0.6
 41
-30.0
 62
     5
 63
     7
421
 16777215
 74
     0
 91
        4
 64
     7
 65
   257
 75
     1
175
     1
 42
1.0
 92
        8
 66
     7
 43
1.0
 76
     1
 77
     6
 78
     2
 67
     7
 79
     5
170
     0
171
     0
290
     0
174
     0
 93
        1
 44
0.0
173
     0
291
     1
 45
0.0
1001
ACAD
1000
AcDbSavedByObjectVersion
1070
     0
  0
VISUALSTYLE
  5
36
102
{ACAD_XDICTIONARY
360
3C9
102
}
102
{ACAD_REACTORS
330
2A
102
}
330
2A
100
AcDbVisualStyle
  2

 70
    12
 71
     2
 72
     2
 73
     0
 90
        0
 40
-0.6
 41
-30.0
 62
     5
 63
     7
421
 16777215
 74
     1
 91
        4
 64
     7
 65
   257
 75
     1
175
     1
 42
1.0
 92
        8
 66
     7
 43
1.0
 76
     1
 77
     6
 78
     2
 67
     7
 79
     5
170
     0
171
     0
290
     0
174
     0
 93
        1
 44
50.0
173
     0
291
     1
 45
0.0
1001
ACAD
1000
AcDbSavedByObjectVersion
1070
     0
  0
VISUALSTYLE
  5
3A
102
{ACAD_XDICTIONARY
360
3D1
102
}
102
{ACAD_REACTORS
330
2A
102
}
330
2A
100
AcDbVisualStyle
  2

 70
    16
 71
     2
 72
     2
 73
     3
 90
        0
 40
-0.6
 41
-30.0
 62
     5
 63
     8
421
  8421504
 74
     1
 91
        4
 64
     7
 65
   257
 75
     1
175
     1
 42
1.0
 92
        8
 66
     8
424
  8421504
 43
1.0
 76
     1
 77
     6
 78
     2
 67
     7
 79
     5
170
     0
171
     0
290
     0
174
     0
 93
        1
 44
0.0
173
     0
291
     1
 45
0.0
1001
ACAD
1000
AcDbSavedByObjectVersion
1070
     0
  0
VISUALSTYLE
  5
34
102
{ACAD_XDICTIONARY
360
3C5
102
}
102
{ACAD_REACTORS
330
2A
102
}
330
2A
100
AcDbVisualStyle
  2

 70
     9
 71
     3
 72
     2
 73
     0
 90
        0
 40
-0.6
 41
-30.0
 62
     5
 63
     7
421
 16777215
 74
     2
 91
        2
 64
     7
 65
   257
 75
     1
175
     1
 42
179.0
 92
        8
 66
     7
 43
1.0
 76
     1
 77
     6
 78
     2
 67
     7
 79
     3
170
     0
171
     0
290
     0
174
     0
 93
        1
 44
0.0
173
     0
291
     0
 45
0.0
1001
ACAD
1000
AcDbSavedByObjectVersion
1070
     0
  0
VISUALSTYLE
  5
35
102
{ACAD_XDICTIONARY
360
3C7
102
}
102
{ACAD_REACTORS
330
2A
102
}
330
2A
100
AcDbVisualStyle
  2

 70
    11
 71
     2
 72
     2
 73
     0
 90
        0
 40
-0.6
 41
-30.0
 62
     5
 63
     7
421
 16777215
 74
     1
 91
        4
 64
     7
 65
   257
 75
     1
175
     1
 42
1.0
 92
        8
 66
     7
 43
1.0
 76
     1
 77
     6
 78
     2
 67
     7
 79
     5
170
     0
171
     0
290
     0
174
     0
 93
        1
 44
-50.0
173
     0
291
     1
 45
0.0
1001
ACAD
1000
AcDbSavedByObjectVersion
1070
     0
  0
VISUALSTYLE
  5
3D
102
{ACAD_XDICTIONARY
360
3D7
102
}
102
{ACAD_REACTORS
330
2A
102
}
330
2A
100
AcDbVisualStyle
  2

 70
    22
 71
     2
 72
     2
 73
     0
 90
        0
 40
-0.6
 41
-30.0
 62
     5
 63
     7
421
 16777215
 74
     1
 91
        4
 64
     7
 65
   257
 75
     1
175
     1
 42
1.0
 92
        8
 66
     7
 43
1.0
 76
     1
 77
     6
 78
     2
 67
     7
 79
     5
170
     0
171
     0
290
     0
174
     0
 93
        1
 44
0.0
173
     0
291
     1
 45
0.0
1001
ACAD
1000
AcDbSavedByObjectVersion
1070
     0
  0
VISUALSTYLE
  5
39
102
{ACAD_XDICTIONARY
360
3CF
102
}
102
{ACAD_REACTORS
330
2A
102
}
330
2A
100
AcDbVisualStyle
  2

 70
    15
 71
     2
 72
     2
 73
     0
 90
        0
 40
-0.6
 41
-30.0
 62
     5
 63
     7
421
 16777215
 74
     1
 91
        4
 64
     7
 65
   257
 75
     1
175
     1
 42
1.0
 92
        8
 66
     7
 43
1.0
 76
     1
 77
     6
 78
     2
 67
     7
 79
     5
170
     0
171
     0
290
     0
174
     0
 93
        1
 44
0.0
173
     0
291
     1
 45
0.0
1001
ACAD
1000
AcDbSavedByObjectVersion
1070
     0
  0
VISUALSTYLE
  5
2B
102
{ACAD_XDICTIONARY
360
3B3
102
}
102
{ACAD_REACTORS
330
2A
102
}
330
2A
100
AcDbVisualStyle
  2

 70
     0
 71
     2
 72
     1
 73
     1
 90
        2
 40
-0.6
 41
30.0
 62
     5
 63
     7
421
 16777215
 74
     0
 91
        0
 64
     7
 65
   257
 75
     1
175
     1
 42
1.0
 92
        8
 66
     7
 43
1.0
 76
     1
 77
     6
 78
     2
 67
     7
 79
     5
170
     0
171
     0
290
     0
174
     0
 93
       13
 44
0.0
173
     0
291
     1
 45
0.0
1001
ACAD
1000
AcDbSavedByObjectVersion
1070
     0
  0
VISUALSTYLE
  5
2C
102
{ACAD_XDICTIONARY
360
3B5
102
}
102
{ACAD_REACTORS
330
2A
102
}
330
2A
100
AcDbVisualStyle
  2

 70
     1
 71
     2
 72
     1
 73
     1
 90
        2
 40
-0.6
 41
30.0
 62
     5
 63
     7
421
 16777215
 74
     1
 91
        0
 64
     7
 65
   257
 75
     1
175
     1
 42
1.0
 92
        0
 66
   257
 43
1.0
 76
     1
 77
     6
 78
     2
 67
     7
 79
     5
170
     0
171
     0
290
     0
174
     0
 93
       13
 44
0.0
173
     0
291
     1
 45
0.0
1001
ACAD
1000
AcDbSavedByObjectVersion
1070
     0
  0
VISUALSTYLE
  5
2D
102
{ACAD_XDICTIONARY
360
3B7
102
}
102
{ACAD_REACTORS
330
2A
102
}
330
2A
100
AcDbVisualStyle
  2

 70
     2
 71
     2
 72
     2
 73
     1
 90
        2
 40
-0.6
 41
30.0
 62
     5
 63
     7
421
 16777215
 74
     0
 91
        0
 64
     7
 65
   257
 75
     1
175
     1
 42
1.0
 92
        0
 66
     7
 43
1.0
 76
     1
 77
     6
 78
     2
 67
     7
 79
     5
170
     0
171
     0
290
     0
174
     0
 93
       13
 44
0.0
173
     0
291
     1
 45
0.0
1001
ACAD
1000
AcDbSavedByObjectVersion
1070
     0
  0
VISUALSTYLE
  5
2E
102
{ACAD_XDICTIONARY
360
3B9
102
}
102
{ACAD_REACTORS
330
2A
102
}
330
2A
100
AcDbVisualStyle
  2

 70
     3
 71
     2
 72
     2
 73
     1
 90
        2
 40
-0.6
 41
30.0
 62
     5
 63
     7
421
 16777215
 74
     1
 91
        0
 64
     7
 65
   257
 75
     1
175
     1
 42
1.0
 92
        0
 66
   257
 43
1.0
 76
     1
 77
     6
 78
     2
 67
     7
 79
     5
170
     0
171
     0
290
     0
174
     0
 93
       13
 44
0.0
173
     0
291
     1
 45
0.0
1001
ACAD
1000
AcDbSavedByObjectVersion
1070
     0
  0
VISUALSTYLE
  5
31
102
{ACAD_XDICTIONARY
360
3BF
102
}
102
{ACAD_REACTORS
330
2A
102
}
330
2A
100
AcDbVisualStyle
  2

 70
     6
 71
     1
 72
     2
 73
     2
 90
        0
 40
-0.6
 41
-30.0
 62
     5
 63
     7
421
 16777215
 74
     2
 91
        2
 64
     7
 65
   257
 75
     2
175
     1
 42
40.0
 92
        0
 66
   257
 43
1.0
 76
     1
 77
     6
 78
     2
 67
     7
 79
     3
170
     0
171
     0
290
     0
174
     0
 93
        1
 44
0.0
173
     0
291
     0
 45
0.0
1001
ACAD
1000
AcDbSavedByObjectVersion
1070
     0
  0
VISUALSTYLE
  5
3B
102
{ACAD_XDICTIONARY
360
3D3
102
}
102
{ACAD_REACTORS
330
2A
102
}
330
2A
100
AcDbVisualStyle
  2

 70
    20
 71
     2
 72
     2
 73
     0
 90
        0
 40
-0.6
 41
-30.0
 62
     5
 63
     7
421
 16777215
 74
     1
 91
        4
 64
     7
 65
   257
 75
     1
175
     1
 42
1.0
 92
       10
 66
     7
 43
1.0
 76
     1
 77
     6
 78
     2
 67
     7
 79
     5
170
     0
171
     0
290
     0
174
     0
 93
        1
 44
0.0
173
     0
291
     1
 45
0.0
1001
ACAD
1000
AcDbSavedByObjectVersion
1070
     0
  0
VISUALSTYLE
  5
38
102
{ACAD_XDICTIONARY
360
3CD
102
}
102
{ACAD_REACTORS
330
2A
102
}
330
2A
100
AcDbVisualStyle
  2

 70
    14
 71
     2
 72
     2
 73
     0
 90
        0
 40
-0.6
 41
-30.0
 62
     5
 63
     7
421
 16777215
 74
     1
 91
        4
 64
     7
 65
   257
 75
     7
175
     7
 42
1.0
 92
        8
 66
     7
 43
1.0
 76
     1
 77
     6
 78
     2
 67
     7
 79
     5
170
     0
171
     0
290
     0
174
     0
 93
        1
 44
0.0
173
     0
291
     1
 45
0.0
1001
ACAD
1000
AcDbSavedByObjectVersion
1070
     0
  0
VISUALSTYLE
  5
3C
102
{ACAD_XDICTIONARY
360
3D5
102
}
102
{ACAD_REACTORS
330
2A
102
}
330
2A
100
AcDbVisualStyle
  2

 70
    21
 71
     2
 72
     2
 73
     0
 90
        0
 40
-0.6
 41
-30.0
 62
     5
 63
     7
421
 16777215
 74
     1
 91
        4
 64
     7
 65
   257
 75
     1
175
     1
 42
1.0
 92
        9
 66
     7
 43
1.0
 76
     1
 77
     6
 78
     2
 67
     7
 79
     5
170
     0
171
     0
290
     0
174
     0
 93
        1
 44
0.0
173
     0
291
     1
 45
0.0
1001
ACAD
1000
AcDbSavedByObjectVersion
1070
     0
  0
VISUALSTYLE
  5
33
102
{ACAD_XDICTIONARY
360
3C3
102
}
102
{ACAD_REACTORS
330
2A
102
}
330
2A
100
AcDbVisualStyle
  2

 70
     8
 71
     2
 72
     3
 73
     0
 90
        2
 40
-0.6
 41
30.0
 62
     5
 63
     7
421
 16777215
 74
     0
 91
        0
 64
     7
 65
   257
 75
     1
175
     1
 42
1.0
 92
        8
 66
   257
 43
1.0
 76
     1
 77
     6
 78
     2
 67
     7
 79
     3
170
     0
171
     0
290
     0
174
     0
 93
       13
 44
0.0
173
     0
291
     0
 45
0.0
1001
ACAD
1000
AcDbSavedByObjectVersion
1070
     0
  0
VISUALSTYLE
  5
42
102
{ACAD_XDICTIONARY
360
3E1
102
}
102
{ACAD_REACTORS
330
2A
102
}
330
2A
100
AcDbVisualStyle
  2

 70
    27
 71
     2
 72
     2
 73
     1
 90
        2
 40
-0.6
 41
30.0
 62
     5
 63
     7
421
 16777215
 74
     0
 91
        4
 64
     7
 65
   257
 75
     1
175
     1
 42
1.0
 92
        8
 66
   257
 43
1.0
 76
     1
 77
     6
 78
     2
 67
     8
425
  7895160
 79
     3
170
     0
171
     0
290
     0
174
     0
 93
        5
 44
0.0
173
     0
291
     0
 45
0.0
1001
ACAD
1000
AcDbSavedByObjectVersion
1070
     0
  0
VISUALSTYLE
  5
41
102
{ACAD_XDICTIONARY
360
3DF
102
}
102
{ACAD_REACTORS
330
2A
102
}
330
2A
100
AcDbVisualStyle
  2

 70
    26
 71
     2
 72
     2
 73
     1
 90
        2
 40
-0.6
 41
30.0
 62
     5
 63
     7
421
 16777215
 74
     1
 91
        2
 64
     7
 65
   257
 75
     2
175
     1
 42
1.0
 92
        8
 66
   257
 43
1.0
 76
     1
 77
     6
 78
     2
 67
     7
 79
     3
170
     0
171
     0
290
     0
174
     0
 93
        5
 44
0.0
173
     0
291
     0
 45
0.0
1001
ACAD
1000
AcDbSavedByObjectVersion
1070
     0
  0
VISUALSTYLE
  5
3E
102
{ACAD_XDICTIONARY
360
3D9
102
}
102
{ACAD_REACTORS
330
2A
102
}
330
2A
100
AcDbVisualStyle
  2

 70
    23
 71
     2
 72
     2
 73
     3
 90
        0
 40
-0.6
 41
-30.0
 62
     5
 63
     7
421
 16777215
 74
     2
 91
        2
 64
     7
 65
     7
 75
     1
175
     1
 42
40.0
 92
        8
 66
     7
 43
1.0
 76
     1
 77
     6
 78
     2
 67
     7
 79
     3
170
     0
171
     0
290
     0
174
     0
 93
        1
 44
0.0
173
     0
291
     0
 45
0.0
1001
ACAD
1000
AcDbSavedByObjectVersion
1070
     0
  0
VISUALSTYLE
  5
3F
102
{ACAD_XDICTIONARY
360
3DB
102
}
102
{ACAD_REACTORS
330
2A
102
}
330
2A
100
AcDbVisualStyle
  2

 70
    24
 71
     1
 72
     2
 73
     2
 90
        0
 40
-0.6
 41
-30.0
 62
     5
 63
     7
421
 16777215
 74
     2
 91
        2
 64
     7
 65
     7
 75
     1
175
     1
 42
40.0
 92
       11
 66
     7
 43
1.0
 76
     1
 77
     6
 78
     2
 67
     7
 79
     6
170
     0
171
     0
290
     0
174
     0
 93
        1
 44
0.0
173
     0
291
     0
 45
0.0
1001
ACAD
1000
AcDbSavedByObjectVersion
1070
     0
  0
VISUALSTYLE
  5
37
102
{ACAD_XDICTIONARY
360
3CB
102
}
102
{ACAD_REACTORS
330
2A
102
}
330
2A
100
AcDbVisualStyle
  2

 70
    13
 71
     2
 72
     2
 73
     0
 90
        0
 40
-0.6
 41
-30.0
 62
     5
 63
     7
421
 16777215
 74
     1
 91
        4
 64
     7
 65
   257
 75
     1
175
     1
 42
1.0
 92
       12
 66
     7
 43
1.0
 76
     1
 77
     6
 78
     2
 67
     7
 79
     5
170
     0
171
     0
290
     0
174
     0
 93
        1
 44
0.0
173
     0
291
     1
 45
0.0
1001
ACAD
1000
AcDbSavedByObjectVersion
1070
     0
  0
VISUALSTYLE
  5
30
102
{ACAD_XDICTIONARY
360
3BD
102
}
102
{ACAD_REACTORS
330
2A
102
}
330
2A
100
AcDbVisualStyle
  2

 70
     5
 71
     0
 72
     2
 73
     0
 90
        0
 40
-0.6
 41
-30.0
 62
     5
 63
     7
421
 16777215
 74
     1
 91
        4
 64
     7
 65
   257
 75
     1
175
     1
 42
1.0
 92
        0
 66
   257
 43
1.0
 76
     1
 77
     6
 78
     2
 67
     7
 79
     3
170
     0
171
     0
290
     0
174
     0
 93
        1
 44
0.0
173
     0
291
     0
 45
0.0
1001
ACAD
1000
AcDbSavedByObjectVersion
1070
     0
  0
VISUALSTYLE
  5
40
102
{ACAD_XDICTIONARY
360
3DD
102
}
102
{ACAD_REACTORS
330
2A
102
}
330
2A
100
AcDbVisualStyle
  2

 70
    25
 71
     2
 72
     2
 73
     1
 90
        1
 40
0.5
 41
-30.0
 62
     5
 63
     7
421
 16777215
 74
     1
 91
        0
 64
     7
 65
   257
 75
     1
175
     1
 42
1.0
 92
        8
 66
     7
 43
1.0
 76
     1
 77
     6
 78
     2
 67
     7
 79
     3
170
     0
171
     0
290
     0
174
     0
 93
       13
 44
0.0
173
     0
291
     0
 45
0.0
1001
ACAD
1000
AcDbSavedByObjectVersion
1070
     0
  0
DICTIONARYVAR
  5
22A
102
{ACAD_REACTORS
330
229
102
}
330
229
100
DictionaryVariables
280
     0
  1
1:1
  0
DICTIONARYVAR
  5
26B
102
{ACAD_REACTORS
330
229
102
}
330
229
100
DictionaryVariables
280
     0
  1
STANDARD
  0
DICTIONARYVAR
  5
26A
102
{ACAD_REACTORS
330
229
102
}
330
229
100
DictionaryVariables
280
     0
  1
STANDARD
  0
DICTIONARYVAR
  5
3A6
102
{ACAD_REACTORS
330
229
102
}
330
229
100
DictionaryVariables
280
     0
  1
Metric50
  0
DICTIONARYVAR
  5
3A7
102
{ACAD_REACTORS
330
229
102
}
330
229
100
DictionaryVariables
280
     0
  1
Metric50
  0
DICTIONARYVAR
  5
22B
102
{ACAD_REACTORS
330
229
102
}
330
229
100
DictionaryVariables
280
     0
  1
1
  0
DICTIONARYVAR
  5
3A8
102
{ACAD_REACTORS
330
229
102
}
330
229
100
DictionaryVariables
280
     0
  1
2
  0
DICTIONARY
  5
3B2
102
{ACAD_REACTORS
330
3B0
102
}
330
3B0
100
AcDbDictionary
281
     1
  0
DICTIONARY
  5
3B1
102
{ACAD_REACTORS
330
3B0
102
}
330
3B0
100
AcDbDictionary
281
     1
  3
2662425572912
350
3AB
  3
2662425572928
350
3AC
  3
2662425572944
350
3AD
  3
2662425572960
350
3AE
  3
2662425572976
350
3AF
  0
DICTIONARY
  5
2A9
102
{ACAD_REACTORS
330
2A2
102
}
330
2A2
100
AcDbDictionary
281
     1
  0
DICTIONARY
  5
3E6
330
272
100
AcDbDictionary
280
     1
281
     1
  3
ACAD_XREC_ROUNDTRIP
360
3E7
  0
DICTIONARY
  5
25F
330
45
100
AcDbDictionary
280
     1
281
     1
  3
ACAD_XREC_ROUNDTRIP
360
260
  0
DICTIONARY
  5
25D
330
44
100
AcDbDictionary
280
     1
281
     1
  3
ACAD_XREC_ROUNDTRIP
360
25E
  0
DICTIONARY
  5
261
330
46
100
AcDbDictionary
280
     1
281
     1
  3
ACAD_XREC_ROUNDTRIP
360
262
  0
DICTIONARY
  5
3E4
330
271
100
AcDbDictionary
280
     1
281
     1
  3
ACAD_XREC_ROUNDTRIP
360
3E5
  0
DICTIONARY
  5
263
330
6A
100
AcDbDictionary
280
     1
281
     1
  3
ACAD_ROUNDTRIP_2008_TABLESTYLE_CELLSTYLEMAP
360
3A9
  3
ACAD_XREC_ROUNDTRIP
360
3E3
  0
DICTIONARY
  5
3BB
330
2F
100
AcDbDictionary
280
     1
281
     1
  3
ACAD_XREC_ROUNDTRIP
360
3BC
  0
DICTIONARY
  5
3C1
330
32
100
AcDbDictionary
280
     1
281
     1
  3
ACAD_XREC_ROUNDTRIP
360
3C2
  0
DICTIONARY
  5
3C9
330
36
100
AcDbDictionary
280
     1
281
     1
  3
ACAD_XREC_ROUNDTRIP
360
3CA
  0
DICTIONARY
  5
3D1
330
3A
100
AcDbDictionary
280
     1
281
     1
  3
ACAD_XREC_ROUNDTRIP
360
3D2
  0
DICTIONARY
  5
3C5
330
34
100
AcDbDictionary
280
     1
281
     1
  3
ACAD_XREC_ROUNDTRIP
360
3C6
  0
DICTIONARY
  5
3C7
330
35
100
AcDbDictionary
280
     1
281
     1
  3
ACAD_XREC_ROUNDTRIP
360
3C8
  0
DICTIONARY
  5
3D7
330
3D
100
AcDbDictionary
280
     1
281
     1
  3
ACAD_XREC_ROUNDTRIP
360
3D8
  0
DICTIONARY
  5
3CF
330
39
100
AcDbDictionary
280
     1
281
     1
  3
ACAD_XREC_ROUNDTRIP
360
3D0
  0
DICTIONARY
  5
3B3
330
2B
100
AcDbDictionary
280
     1
281
     1
  3
ACAD_XREC_ROUNDTRIP
360
3B4
  0
DICTIONARY
  5
3B5
330
2C
100
AcDbDictionary
280
     1
281
     1
  3
ACAD_XREC_ROUNDTRIP
360
3B6
  0
DICTIONARY
  5
3B7
330
2D
100
AcDbDictionary
280
     1
281
     1
  3
ACAD_XREC_ROUNDTRIP
360
3B8
  0
DICTIONARY
  5
3B9
330
2E
100
AcDbDictionary
280
     1
281
     1
  3
ACAD_XREC_ROUNDTRIP
360
3BA
  0
DICTIONARY
  5
3BF
330
31
100
AcDbDictionary
280
     1
281
     1
  3
ACAD_XREC_ROUNDTRIP
360
3C0
  0
DICTIONARY
  5
3D3
330
3B
100
AcDbDictionary
280
     1
281
     1
  3
ACAD_XREC_ROUNDTRIP
360
3D4
  0
DICTIONARY
  5
3CD
330
38
100
AcDbDictionary
280
     1
281
     1
  3
ACAD_XREC_ROUNDTRIP
360
3CE
  0
DICTIONARY
  5
3D5
330
3C
100
AcDbDictionary
280
     1
281
     1
  3
ACAD_XREC_ROUNDTRIP
360
3D6
  0
DICTIONARY
  5
3C3
330
33
100
AcDbDictionary
280
     1
281
     1
  3
ACAD_XREC_ROUNDTRIP
360
3C4
  0
DICTIONARY
  5
3E1
330
42
100
AcDbDictionary
280
     1
281
     1
  3
ACAD_XREC_ROUNDTRIP
360
3E2
  0
DICTIONARY
  5
3DF
330
41
100
AcDbDictionary
280
     1
281
     1
  3
ACAD_XREC_ROUNDTRIP
360
3E0
  0
DICTIONARY
  5
3D9
330
3E
100
AcDbDictionary
280
     1
281
     1
  3
ACAD_XREC_ROUNDTRIP
360
3DA
  0
DICTIONARY
  5
3DB
330
3F
100
AcDbDictionary
280
     1
281
     1
  3
ACAD_XREC_ROUNDTRIP
360
3DC
  0
DICTIONARY
  5
3CB
330
37
100
AcDbDictionary
280
     1
281
     1
  3
ACAD_XREC_ROUNDTRIP
360
3CC
  0
DICTIONARY
  5
3BD
330
30
100
AcDbDictionary
280
     1
281
     1
  3
ACAD_XREC_ROUNDTRIP
360
3BE
  0
DICTIONARY
  5
3DD
330
40
100
AcDbDictionary
280
     1
281
     1
  3
ACAD_XREC_ROUNDTRIP
360
3DE
  0
XRECORD
  5
3AB
102
{ACAD_REACTORS
330
3B1
102
}
330
3B1
100
AcDbXrecord
280
     1
  1
AcDb_Thumbnail_Schema
102
{ATTRRECORD
341
3AC
  2
AcDbDs::TreatedAsObjectData
280
     1
291
     1
102
ATTRRECORD}
102
{ATTRRECORD
341
3AD
  2
AcDbDs::Legacy
280
     1
291
     1
102
ATTRRECORD}
  2
AcDbDs::ID
280
    10
 91
        8
102
{ATTRRECORD
341
3AE
  2
AcDs:Indexable
280
     1
291
     1
102
ATTRRECORD}
102
{ATTRRECORD
341
3AF
  2
AcDbDs::HandleAttribute
280
     7
282
     1
102
ATTRRECORD}
  2
Thumbnail_Data
280
    15
 91
        0
  0
XRECORD
  5
3AC
102
{ACAD_REACTORS
330
3B1
102
}
330
3B1
100
AcDbXrecord
280
     1
  1
AcDbDs::TreatedAsObjectDataSchema
  2
AcDbDs::TreatedAsObjectData
280
     1
 91
        0
  0
XRECORD
  5
3AD
102
{ACAD_REACTORS
330
3B1
102
}
330
3B1
100
AcDbXrecord
280
     1
  1
AcDbDs::LegacySchema
  2
AcDbDs::Legacy
280
     1
 91
        0
  0
XRECORD
  5
3AE
102
{ACAD_REACTORS
330
3B1
102
}
330
3B1
100
AcDbXrecord
280
     1
  1
AcDbDs::IndexedPropertySchema
  2
AcDs:Indexable
280
     1
 91
        0
  0
XRECORD
  5
3AF
102
{ACAD_REACTORS
330
3B1
102
}
330
3B1
100
AcDbXrecord
280
     1
  1
AcDbDs::HandleAttributeSchema
  2
AcDbDs::HandleAttribute
280
     7
 91
        1
284
     1
  0
XRECORD
  5
3E7
102
{ACAD_REACTORS
330
3E6
102
}
330
3E6
100
AcDbXrecord
280
     1
102
DISPLAYNAME
  1
Metric50
102
FLAGS
 90
        0
  0
XRECORD
  5
260
102
{ACAD_REACTORS
330
25F
102
}
330
25F
100
AcDbXrecord
280
     1
102
MATERIAL
148
0.0
149
0.0
149
0.0
 93
        0
 94
      127
282
     0
 72
     1
 77
     1
171
     1
175
     1
179
     1
273
     0
  0
XRECORD
  5
25E
102
{ACAD_REACTORS
330
25D
102
}
330
25D
100
AcDbXrecord
280
     1
102
MATERIAL
148
0.0
149
0.0
149
0.0
 93
        0
 94
      127
282
     0
 72
     1
 77
     1
171
     1
175
     1
179
     1
273
     0
  0
XRECORD
  5
262
102
{ACAD_REACTORS
330
261
102
}
330
261
100
AcDbXrecord
280
     1
102
MATERIAL
148
0.0
149
0.0
149
0.0
 93
        0
 94
      127
282
     0
 72
     1
 77
     1
171
     1
175
     1
179
     1
273
     0
  0
XRECORD
  5
3E5
102
{ACAD_REACTORS
330
3E4
102
}
330
3E4
100
AcDbXrecord
280
     1
102
DISPLAYNAME
  1
Metric50
102
FLAGS
 90
        0
  0
CELLSTYLEMAP
  5
3A9
102
{ACAD_REACTORS
330
263
102
}
330
263
100
AcDbCellStyleMap
 90
        3
300
CELLSTYLE
  1
TABLEFORMAT_BEGIN
 90
        5
170
     1
 91
        0
 92
    32768
 62
   257
 93
        1
300
CONTENTFORMAT
  1
CONTENTFORMAT_BEGIN
 90
        0
 91
        0
 92
        4
 93
        0
300

 40
0.0
140
1.0
 94
        5
 62
     0
340
11
144
0.25
309
CONTENTFORMAT_END
171
     1
301
MARGIN
  1
CELLMARGIN_BEGIN
 40
0.06
 40
0.06
 40
0.06
 40
0.06
 40
0.18
 40
0.18
309
CELLMARGIN_END
 94
        6
 95
        1
302
GRIDFORMAT
  1
GRIDFORMAT_BEGIN
 90
        0
 91
        1
 62
     0
 92
       -2
340
14
 93
        0
 40
0.045
309
GRIDFORMAT_END
 95
        2
302
GRIDFORMAT
  1
GRIDFORMAT_BEGIN
 90
        0
 91
        1
 62
     0
 92
       -2
340
14
 93
        0
 40
0.045
309
GRIDFORMAT_END
 95
        4
302
GRIDFORMAT
  1
GRIDFORMAT_BEGIN
 90
        0
 91
        1
 62
     0
 92
       -2
340
14
 93
        0
 40
0.045
309
GRIDFORMAT_END
 95
        8
302
GRIDFORMAT
  1
GRIDFORMAT_BEGIN
 90
        0
 91
        1
 62
     0
 92
       -2
340
14
 93
        0
 40
0.045
309
GRIDFORMAT_END
 95
       16
302
GRIDFORMAT
  1
GRIDFORMAT_BEGIN
 90
        0
 91
        1
 62
     0
 92
       -2
340
14
 93
        0
 40
0.045
309
GRIDFORMAT_END
 95
       32
302
GRIDFORMAT
  1
GRIDFORMAT_BEGIN
 90
        0
 91
        1
 62
     0
 92
       -2
340
14
 93
        0
 40
0.045
309
GRIDFORMAT_END
309
TABLEFORMAT_END
  1
CELLSTYLE_BEGIN
 90
        1
 91
        1
300
_TITLE
309
CELLSTYLE_END
300
CELLSTYLE
  1
TABLEFORMAT_BEGIN
 90
        5
170
     1
 91
        0
 92
        0
 62
   257
 93
        1
300
CONTENTFORMAT
  1
CONTENTFORMAT_BEGIN
 90
        0
 91
        0
 92
        4
 93
        0
300

 40
0.0
140
1.0
 94
        5
 62
     0
340
11
144
0.18
309
CONTENTFORMAT_END
171
     1
301
MARGIN
  1
CELLMARGIN_BEGIN
 40
0.06
 40
0.06
 40
0.06
 40
0.06
 40
0.18
 40
0.18
309
CELLMARGIN_END
 94
        6
 95
        1
302
GRIDFORMAT
  1
GRIDFORMAT_BEGIN
 90
        0
 91
        1
 62
     0
 92
       -2
340
14
 93
        0
 40
0.045
309
GRIDFORMAT_END
 95
        2
302
GRIDFORMAT
  1
GRIDFORMAT_BEGIN
 90
        0
 91
        1
 62
     0
 92
       -2
340
14
 93
        0
 40
0.045
309
GRIDFORMAT_END
 95
        4
302
GRIDFORMAT
  1
GRIDFORMAT_BEGIN
 90
        0
 91
        1
 62
     0
 92
       -2
340
14
 93
        0
 40
0.045
309
GRIDFORMAT_END
 95
        8
302
GRIDFORMAT
  1
GRIDFORMAT_BEGIN
 90
        0
 91
        1
 62
     0
 92
       -2
340
14
 93
        0
 40
0.045
309
GRIDFORMAT_END
 95
       16
302
GRIDFORMAT
  1
GRIDFORMAT_BEGIN
 90
        0
 91
        1
 62
     0
 92
       -2
340
14
 93
        0
 40
0.045
309
GRIDFORMAT_END
 95
       32
302
GRIDFORMAT
  1
GRIDFORMAT_BEGIN
 90
        0
 91
        1
 62
     0
 92
       -2
340
14
 93
        0
 40
0.045
309
GRIDFORMAT_END
309
TABLEFORMAT_END
  1
CELLSTYLE_BEGIN
 90
        2
 91
        1
300
_HEADER
309
CELLSTYLE_END
300
CELLSTYLE
  1
TABLEFORMAT_BEGIN
 90
        5
170
     1
 91
        0
 92
        0
 62
   257
 93
        1
300
CONTENTFORMAT
  1
CONTENTFORMAT_BEGIN
 90
        0
 91
        0
 92
        4
 93
        0
300

 40
0.0
140
1.0
 94
        2
 62
     0
340
11
144
0.18
309
CONTENTFORMAT_END
171
     1
301
MARGIN
  1
CELLMARGIN_BEGIN
 40
0.06
 40
0.06
 40
0.06
 40
0.06
 40
0.18
 40
0.18
309
CELLMARGIN_END
 94
        6
 95
        1
302
GRIDFORMAT
  1
GRIDFORMAT_BEGIN
 90
        0
 91
        1
 62
     0
 92
       -2
340
14
 93
        0
 40
0.045
309
GRIDFORMAT_END
 95
        2
302
GRIDFORMAT
  1
GRIDFORMAT_BEGIN
 90
        0
 91
        1
 62
     0
 92
       -2
340
14
 93
        0
 40
0.045
309
GRIDFORMAT_END
 95
        4
302
GRIDFORMAT
  1
GRIDFORMAT_BEGIN
 90
        0
 91
        1
 62
     0
 92
       -2
340
14
 93
        0
 40
0.045
309
GRIDFORMAT_END
 95
        8
302
GRIDFORMAT
  1
GRIDFORMAT_BEGIN
 90
        0
 91
        1
 62
     0
 92
       -2
340
14
 93
        0
 40
0.045
309
GRIDFORMAT_END
 95
       16
302
GRIDFORMAT
  1
GRIDFORMAT_BEGIN
 90
        0
 91
        1
 62
     0
 92
       -2
340
14
 93
        0
 40
0.045
309
GRIDFORMAT_END
 95
       32
302
GRIDFORMAT
  1
GRIDFORMAT_BEGIN
 90
        0
 91
        1
 62
     0
 92
       -2
340
14
 93
        0
 40
0.045
309
GRIDFORMAT_END
309
TABLEFORMAT_END
  1
CELLSTYLE_BEGIN
 90
        3
 91
        2
300
_DATA
309
CELLSTYLE_END
  0
XRECORD
  5
3E3
102
{ACAD_REACTORS
330
263
102
}
330
263
100
AcDbXrecord
280
     1
102
ACAD_ROUNDTRIP_PRE2007_TABLESTYLE
 90
        4
 91
        0
  1

 92
        4
 93
        0
  2

 94
        4
 95
        0
  3

  0
XRECORD
  5
3BC
102
{ACAD_REACTORS
330
3BB
102
}
330
3BB
100
AcDbXrecord
280
     1
102
RTVSPost2010Prop28
280
     1
102
RTVSPost2010PropOp28
 70
     1
102
RTVSPost2010Prop29
280
     1
102
RTVSPost2010PropOp29
 70
     1
102
RTVSPost2010Prop30
280
     0
102
RTVSPost2010PropOp30
 70
     1
102
RTVSPost2010Prop31
280
     0
102
RTVSPost2010PropOp31
 70
     1
102
RTVSPost2010Prop32
280
     0
102
RTVSPost2010PropOp32
 70
     1
102
RTVSPost2010Prop33
280
     0
102
RTVSPost2010PropOp33
 70
     1
102
RTVSPost2010Prop34
280
     0
102
RTVSPost2010PropOp34
 70
     1
102
RTVSPost2010Prop35
280
     0
102
RTVSPost2010PropOp35
 70
     1
102
RTVSPost2010Prop36
280
     0
102
RTVSPost2010PropOp36
 70
     1
102
RTVSPost2010Prop37
 90
       50
102
RTVSPost2010PropOp37
 70
     1
102
RTVSPost2010Prop38
140
0.0
102
RTVSPost2010PropOp38
 70
     1
102
RTVSPost2010Prop39
140
1.0
102
RTVSPost2010PropOp39
 70
     1
102
RTVSPost2010Prop40
 90
        0
102
RTVSPost2010PropOp40
 70
     1
102
RTVSPost2010Prop41ColorIndex
 90
       18
102
RTVSPost2010Prop41ColorRGB
 90
        0
102
RTVSPost2010PropOp41
 70
     1
102
RTVSPost2010Prop42
 90
       50
102
RTVSPost2010PropOp42
 70
     1
102
RTVSPost2010Prop43
 90
        3
102
RTVSPost2010PropOp43
 70
     1
102
RTVSPost2010Prop44ColorIndex
 90
        5
102
RTVSPost2010Prop44ColorRGB
 90
      255
102
RTVSPost2010PropOp44
 70
     1
102
RTVSPost2010Prop45
280
     0
102
RTVSPost2010PropOp45
 70
     1
102
RTVSPost2010Prop46
 90
       50
102
RTVSPost2010PropOp46
 70
     1
102
RTVSPost2010Prop47
 90
       50
102
RTVSPost2010PropOp47
 70
     1
102
RTVSPost2010Prop48
 90
       50
102
RTVSPost2010PropOp48
 70
     1
102
RTVSPost2010Prop49
280
     0
102
RTVSPost2010PropOp49
 70
     1
102
RTVSPost2010Prop50
 90
       50
102
RTVSPost2010PropOp50
 70
     1
102
RTVSPost2010Prop51ColorIndex
 90
      256
102
RTVSPost2010Prop51ColorRGB
 90
-16777216
102
RTVSPost2010PropOp51
 70
     0
102
RTVSPost2010Prop52
140
1.0
102
RTVSPost2010PropOp52
 70
     0
102
RTVSPost2010Prop53
 90
        2
102
RTVSPost2010PropOp53
 70
     1
102
RTVSPost2010Prop54
  1
strokes_ogs.tif
102
RTVSPost2010PropOp54
 70
     1
102
RTVSPost2010Prop55
280
     0
102
RTVSPost2010PropOp55
 70
     1
102
RTVSPost2010Prop56
140
1.0
102
RTVSPost2010PropOp56
 70
     1
102
RTVSPost2010Prop57
140
1.0
102
RTVSPost2010PropOp57
 70
     1
102
RTVSPropertyOp0
 70
     1
102
RTVSPropertyOp1
 70
     1
102
RTVSPropertyOp2
 70
     1
102
RTVSPropertyOp3
 70
     1
102
RTVSPropertyOp4
 70
     1
102
RTVSPropertyOp5
 70
     1
102
RTVSPropertyOp6
 70
     1
102
RTVSPropertyOp7
 70
     1
102
RTVSPropertyOp8
 70
     1
102
RTVSPropertyOp9
 70
     1
102
RTVSPropertyOp10
 70
     1
102
RTVSPropertyOp11
 70
     1
102
RTVSPropertyOp12
 70
     1
102
RTVSPropertyOp13
 70
     1
102
RTVSPropertyOp14
 70
     1
102
RTVSPropertyOp15
 70
     1
102
RTVSPropertyOp16
 70
     1
102
RTVSPropertyOp17
 70
     1
102
RTVSPropertyOp18
 70
     1
102
RTVSPropertyOp19
 70
     1
102
RTVSPropertyOp20
 70
     1
102
RTVSPropertyOp21
 70
     1
102
RTVSPropertyOp22
 70
     1
102
RTVSPropertyOp23
 70
     1
102
RTVSPropertyOp24
 70
     1
102
RTVSPropertyOp25
 70
     1
102
RTVSPropertyOp26
 70
     1
102
RTVSPropertyOp27
 70
     1
102
RTVSPropertyOp28
 70
     1
102
RTVSPropertyOp29
 70
     1
102
RTVSPropertyOp30
 70
     1
102
RTVSPropertyOp31
 70
     1
102
RTVSPropertyOp32
 70
     1
102
RTVSPropertyOp33
 70
     1
102
RTVSPropertyOp34
 70
     1
102
RTVSPropertyOp35
 70
     1
102
RTVSPropertyOp36
 70
     1
102
RTVSPropertyOp37
 70
     1
102
RTVSPropertyOp38
 70
     1
102
RTVSPropertyOp39
 70
     1
102
RTVSPropertyOp40
 70
     1
102
RTVSPropertyOp41
 70
     1
102
RTVSPropertyOp42
 70
     1
102
RTVSPropertyOp43
 70
     1
102
RTVSPropertyOp44
 70
     1
102
RTVSPropertyOp45
 70
     1
102
RTVSPropertyOp46
 70
     1
102
RTVSPropertyOp47
 70
     1
102
RTVSPropertyOp48
 70
     1
102
RTVSPropertyOp49
 70
     1
102
RTVSPropertyOp50
 70
     1
102
RTVSPropertyOp51
 70
     0
102
RTVSPropertyOp52
 70
     0
102
RTVSPropertyOp53
 70
     1
102
RTVSPropertyOp54
 70
     1
102
RTVSPropertyOp55
 70
     1
102
RTVSPropertyOp56
 70
     1
102
RTVSPropertyOp57
 70
     1
102
RTVSPropertyOp58
 70
     1
102
RTVSPropertyOp59
 70
     1
102
RTVSPropertyOp60
 70
     1
102
RTVSPropertyOp61
 70
     1
102
RTVSPropertyOp62
 70
     1
  0
XRECORD
  5
3C2
102
{ACAD_REACTORS
330
3C1
102
}
330
3C1
100
AcDbXrecord
280
     1
102
RTVSPost2010Prop28
280
     0
102
RTVSPost2010PropOp28
 70
     1
102
RTVSPost2010Prop29
280
     1
102
RTVSPost2010PropOp29
 70
     1
102
RTVSPost2010Prop30
280
     1
102
RTVSPost2010PropOp30
 70
     1
102
RTVSPost2010Prop31
280
     0
102
RTVSPost2010PropOp31
 70
     1
102
RTVSPost2010Prop32
280
     0
102
RTVSPost2010PropOp32
 70
     1
102
RTVSPost2010Prop33
280
     0
102
RTVSPost2010PropOp33
 70
     1
102
RTVSPost2010Prop34
280
     0
102
RTVSPost2010PropOp34
 70
     1
102
RTVSPost2010Prop35
280
     0
102
RTVSPost2010PropOp35
 70
     1
102
RTVSPost2010Prop36
280
     0
102
RTVSPost2010PropOp36
 70
     1
102
RTVSPost2010Prop37
 90
       50
102
RTVSPost2010PropOp37
 70
     1
102
RTVSPost2010Prop38
140
0.0
102
RTVSPost2010PropOp38
 70
     1
102
RTVSPost2010Prop39
140
1.0
102
RTVSPost2010PropOp39
 70
     1
102
RTVSPost2010Prop40
 90
        0
102
RTVSPost2010PropOp40
 70
     1
102
RTVSPost2010Prop41ColorIndex
 90
       18
102
RTVSPost2010Prop41ColorRGB
 90
        0
102
RTVSPost2010PropOp41
 70
     1
102
RTVSPost2010Prop42
 90
       50
102
RTVSPost2010PropOp42
 70
     1
102
RTVSPost2010Prop43
 90
        3
102
RTVSPost2010PropOp43
 70
     1
102
RTVSPost2010Prop44ColorIndex
 90
        5
102
RTVSPost2010Prop44ColorRGB
 90
      255
102
RTVSPost2010PropOp44
 70
     1
102
RTVSPost2010Prop45
280
     0
102
RTVSPost2010PropOp45
 70
     1
102
RTVSPost2010Prop46
 90
       50
102
RTVSPost2010PropOp46
 70
     1
102
RTVSPost2010Prop47
 90
       50
102
RTVSPost2010PropOp47
 70
     1
102
RTVSPost2010Prop48
 90
       50
102
RTVSPost2010PropOp48
 70
     1
102
RTVSPost2010Prop49
280
     0
102
RTVSPost2010PropOp49
 70
     1
102
RTVSPost2010Prop50
 90
       50
102
RTVSPost2010PropOp50
 70
     1
102
RTVSPost2010Prop51ColorIndex
 90
      256
102
RTVSPost2010Prop51ColorRGB
 90
-16777216
102
RTVSPost2010PropOp51
 70
     0
102
RTVSPost2010Prop52
140
1.0
102
RTVSPost2010PropOp52
 70
     0
102
RTVSPost2010Prop53
 90
        2
102
RTVSPost2010PropOp53
 70
     1
102
RTVSPost2010Prop54
  1
strokes_ogs.tif
102
RTVSPost2010PropOp54
 70
     1
102
RTVSPost2010Prop55
280
     0
102
RTVSPost2010PropOp55
 70
     1
102
RTVSPost2010Prop56
140
1.0
102
RTVSPost2010PropOp56
 70
     1
102
RTVSPost2010Prop57
140
1.0
102
RTVSPost2010PropOp57
 70
     1
102
RTVSPropertyOp0
 70
     1
102
RTVSPropertyOp1
 70
     1
102
RTVSPropertyOp2
 70
     1
102
RTVSPropertyOp3
 70
     1
102
RTVSPropertyOp4
 70
     1
102
RTVSPropertyOp5
 70
     1
102
RTVSPropertyOp6
 70
     1
102
RTVSPropertyOp7
 70
     1
102
RTVSPropertyOp8
 70
     1
102
RTVSPropertyOp9
 70
     1
102
RTVSPropertyOp10
 70
     1
102
RTVSPropertyOp11
 70
     1
102
RTVSPropertyOp12
 70
     1
102
RTVSPropertyOp13
 70
     1
102
RTVSPropertyOp14
 70
     1
102
RTVSPropertyOp15
 70
     1
102
RTVSPropertyOp16
 70
     1
102
RTVSPropertyOp17
 70
     1
102
RTVSPropertyOp18
 70
     1
102
RTVSPropertyOp19
 70
     1
102
RTVSPropertyOp20
 70
     1
102
RTVSPropertyOp21
 70
     1
102
RTVSPropertyOp22
 70
     1
102
RTVSPropertyOp23
 70
     1
102
RTVSPropertyOp24
 70
     1
102
RTVSPropertyOp25
 70
     1
102
RTVSPropertyOp26
 70
     1
102
RTVSPropertyOp27
 70
     1
102
RTVSPropertyOp28
 70
     1
102
RTVSPropertyOp29
 70
     1
102
RTVSPropertyOp30
 70
     1
102
RTVSPropertyOp31
 70
     1
102
RTVSPropertyOp32
 70
     1
102
RTVSPropertyOp33
 70
     1
102
RTVSPropertyOp34
 70
     1
102
RTVSPropertyOp35
 70
     1
102
RTVSPropertyOp36
 70
     1
102
RTVSPropertyOp37
 70
     1
102
RTVSPropertyOp38
 70
     1
102
RTVSPropertyOp39
 70
     1
102
RTVSPropertyOp40
 70
     1
102
RTVSPropertyOp41
 70
     1
102
RTVSPropertyOp42
 70
     1
102
RTVSPropertyOp43
 70
     1
102
RTVSPropertyOp44
 70
     1
102
RTVSPropertyOp45
 70
     1
102
RTVSPropertyOp46
 70
     1
102
RTVSPropertyOp47
 70
     1
102
RTVSPropertyOp48
 70
     1
102
RTVSPropertyOp49
 70
     1
102
RTVSPropertyOp50
 70
     1
102
RTVSPropertyOp51
 70
     0
102
RTVSPropertyOp52
 70
     0
102
RTVSPropertyOp53
 70
     1
102
RTVSPropertyOp54
 70
     1
102
RTVSPropertyOp55
 70
     1
102
RTVSPropertyOp56
 70
     1
102
RTVSPropertyOp57
 70
     1
102
RTVSPropertyOp58
 70
     1
102
RTVSPropertyOp59
 70
     1
102
RTVSPropertyOp60
 70
     1
102
RTVSPropertyOp61
 70
     1
102
RTVSPropertyOp62
 70
     1
  0
XRECORD
  5
3CA
102
{ACAD_REACTORS
330
3C9
102
}
330
3C9
100
AcDbXrecord
280
     1
102
RTVSPost2010Prop28
280
     0
102
RTVSPost2010PropOp28
 70
     1
102
RTVSPost2010Prop29
280
     1
102
RTVSPost2010PropOp29
 70
     1
102
RTVSPost2010Prop30
280
     1
102
RTVSPost2010PropOp30
 70
     1
102
RTVSPost2010Prop31
280
     0
102
RTVSPost2010PropOp31
 70
     1
102
RTVSPost2010Prop32
280
     0
102
RTVSPost2010PropOp32
 70
     1
102
RTVSPost2010Prop33
280
     0
102
RTVSPost2010PropOp33
 70
     1
102
RTVSPost2010Prop34
280
     0
102
RTVSPost2010PropOp34
 70
     1
102
RTVSPost2010Prop35
280
     0
102
RTVSPost2010PropOp35
 70
     1
102
RTVSPost2010Prop36
280
     0
102
RTVSPost2010PropOp36
 70
     1
102
RTVSPost2010Prop37
 90
       50
102
RTVSPost2010PropOp37
 70
     1
102
RTVSPost2010Prop38
140
0.0
102
RTVSPost2010PropOp38
 70
     1
102
RTVSPost2010Prop39
140
1.0
102
RTVSPost2010PropOp39
 70
     1
102
RTVSPost2010Prop40
 90
        0
102
RTVSPost2010PropOp40
 70
     1
102
RTVSPost2010Prop41ColorIndex
 90
       18
102
RTVSPost2010Prop41ColorRGB
 90
        0
102
RTVSPost2010PropOp41
 70
     1
102
RTVSPost2010Prop42
 90
       50
102
RTVSPost2010PropOp42
 70
     1
102
RTVSPost2010Prop43
 90
        3
102
RTVSPost2010PropOp43
 70
     1
102
RTVSPost2010Prop44ColorIndex
 90
        5
102
RTVSPost2010Prop44ColorRGB
 90
      255
102
RTVSPost2010PropOp44
 70
     1
102
RTVSPost2010Prop45
280
     0
102
RTVSPost2010PropOp45
 70
     1
102
RTVSPost2010Prop46
 90
       50
102
RTVSPost2010PropOp46
 70
     1
102
RTVSPost2010Prop47
 90
       50
102
RTVSPost2010PropOp47
 70
     1
102
RTVSPost2010Prop48
 90
       50
102
RTVSPost2010PropOp48
 70
     1
102
RTVSPost2010Prop49
280
     0
102
RTVSPost2010PropOp49
 70
     1
102
RTVSPost2010Prop50
 90
       50
102
RTVSPost2010PropOp50
 70
     1
102
RTVSPost2010Prop51ColorIndex
 90
      256
102
RTVSPost2010Prop51ColorRGB
 90
-16777216
102
RTVSPost2010PropOp51
 70
     0
102
RTVSPost2010Prop52
140
1.0
102
RTVSPost2010PropOp52
 70
     0
102
RTVSPost2010Prop53
 90
        2
102
RTVSPost2010PropOp53
 70
     1
102
RTVSPost2010Prop54
  1
strokes_ogs.tif
102
RTVSPost2010PropOp54
 70
     1
102
RTVSPost2010Prop55
280
     0
102
RTVSPost2010PropOp55
 70
     1
102
RTVSPost2010Prop56
140
1.0
102
RTVSPost2010PropOp56
 70
     1
102
RTVSPost2010Prop57
140
1.0
102
RTVSPost2010PropOp57
 70
     1
102
RTVSPropertyOp0
 70
     1
102
RTVSPropertyOp1
 70
     1
102
RTVSPropertyOp2
 70
     1
102
RTVSPropertyOp3
 70
     1
102
RTVSPropertyOp4
 70
     1
102
RTVSPropertyOp5
 70
     1
102
RTVSPropertyOp6
 70
     1
102
RTVSPropertyOp7
 70
     1
102
RTVSPropertyOp8
 70
     1
102
RTVSPropertyOp9
 70
     1
102
RTVSPropertyOp10
 70
     1
102
RTVSPropertyOp11
 70
     1
102
RTVSPropertyOp12
 70
     1
102
RTVSPropertyOp13
 70
     1
102
RTVSPropertyOp14
 70
     1
102
RTVSPropertyOp15
 70
     1
102
RTVSPropertyOp16
 70
     1
102
RTVSPropertyOp17
 70
     1
102
RTVSPropertyOp18
 70
     1
102
RTVSPropertyOp19
 70
     1
102
RTVSPropertyOp20
 70
     1
102
RTVSPropertyOp21
 70
     1
102
RTVSPropertyOp22
 70
     1
102
RTVSPropertyOp23
 70
     1
102
RTVSPropertyOp24
 70
     1
102
RTVSPropertyOp25
 70
     1
102
RTVSPropertyOp26
 70
     1
102
RTVSPropertyOp27
 70
     1
102
RTVSPropertyOp28
 70
     1
102
RTVSPropertyOp29
 70
     1
102
RTVSPropertyOp30
 70
     1
102
RTVSPropertyOp31
 70
     1
102
RTVSPropertyOp32
 70
     1
102
RTVSPropertyOp33
 70
     1
102
RTVSPropertyOp34
 70
     1
102
RTVSPropertyOp35
 70
     1
102
RTVSPropertyOp36
 70
     1
102
RTVSPropertyOp37
 70
     1
102
RTVSPropertyOp38
 70
     1
102
RTVSPropertyOp39
 70
     1
102
RTVSPropertyOp40
 70
     1
102
RTVSPropertyOp41
 70
     1
102
RTVSPropertyOp42
 70
     1
102
RTVSPropertyOp43
 70
     1
102
RTVSPropertyOp44
 70
     1
102
RTVSPropertyOp45
 70
     1
102
RTVSPropertyOp46
 70
     1
102
RTVSPropertyOp47
 70
     1
102
RTVSPropertyOp48
 70
     1
102
RTVSPropertyOp49
 70
     1
102
RTVSPropertyOp50
 70
     1
102
RTVSPropertyOp51
 70
     0
102
RTVSPropertyOp52
 70
     0
102
RTVSPropertyOp53
 70
     1
102
RTVSPropertyOp54
 70
     1
102
RTVSPropertyOp55
 70
     1
102
RTVSPropertyOp56
 70
     1
102
RTVSPropertyOp57
 70
     1
102
RTVSPropertyOp58
 70
     1
102
RTVSPropertyOp59
 70
     1
102
RTVSPropertyOp60
 70
     1
102
RTVSPropertyOp61
 70
     1
102
RTVSPropertyOp62
 70
     1
  0
XRECORD
  5
3D2
102
{ACAD_REACTORS
330
3D1
102
}
330
3D1
100
AcDbXrecord
280
     1
102
RTVSPost2010Prop28
280
     0
102
RTVSPost2010PropOp28
 70
     1
102
RTVSPost2010Prop29
280
     1
102
RTVSPost2010PropOp29
 70
     1
102
RTVSPost2010Prop30
280
     1
102
RTVSPost2010PropOp30
 70
     1
102
RTVSPost2010Prop31
280
     0
102
RTVSPost2010PropOp31
 70
     1
102
RTVSPost2010Prop32
280
     0
102
RTVSPost2010PropOp32
 70
     1
102
RTVSPost2010Prop33
280
     0
102
RTVSPost2010PropOp33
 70
     1
102
RTVSPost2010Prop34
280
     0
102
RTVSPost2010PropOp34
 70
     1
102
RTVSPost2010Prop35
280
     0
102
RTVSPost2010PropOp35
 70
     1
102
RTVSPost2010Prop36
280
     0
102
RTVSPost2010PropOp36
 70
     1
102
RTVSPost2010Prop37
 90
       50
102
RTVSPost2010PropOp37
 70
     1
102
RTVSPost2010Prop38
140
0.0
102
RTVSPost2010PropOp38
 70
     1
102
RTVSPost2010Prop39
140
1.0
102
RTVSPost2010PropOp39
 70
     1
102
RTVSPost2010Prop40
 90
        0
102
RTVSPost2010PropOp40
 70
     1
102
RTVSPost2010Prop41ColorIndex
 90
       18
102
RTVSPost2010Prop41ColorRGB
 90
        0
102
RTVSPost2010PropOp41
 70
     1
102
RTVSPost2010Prop42
 90
       50
102
RTVSPost2010PropOp42
 70
     1
102
RTVSPost2010Prop43
 90
        3
102
RTVSPost2010PropOp43
 70
     1
102
RTVSPost2010Prop44ColorIndex
 90
        5
102
RTVSPost2010Prop44ColorRGB
 90
      255
102
RTVSPost2010PropOp44
 70
     1
102
RTVSPost2010Prop45
280
     0
102
RTVSPost2010PropOp45
 70
     1
102
RTVSPost2010Prop46
 90
       50
102
RTVSPost2010PropOp46
 70
     1
102
RTVSPost2010Prop47
 90
       50
102
RTVSPost2010PropOp47
 70
     1
102
RTVSPost2010Prop48
 90
       50
102
RTVSPost2010PropOp48
 70
     1
102
RTVSPost2010Prop49
280
     0
102
RTVSPost2010PropOp49
 70
     1
102
RTVSPost2010Prop50
 90
       50
102
RTVSPost2010PropOp50
 70
     1
102
RTVSPost2010Prop51ColorIndex
 90
      256
102
RTVSPost2010Prop51ColorRGB
 90
-16777216
102
RTVSPost2010PropOp51
 70
     0
102
RTVSPost2010Prop52
140
1.0
102
RTVSPost2010PropOp52
 70
     0
102
RTVSPost2010Prop53
 90
        2
102
RTVSPost2010PropOp53
 70
     1
102
RTVSPost2010Prop54
  1
strokes_ogs.tif
102
RTVSPost2010PropOp54
 70
     1
102
RTVSPost2010Prop55
280
     0
102
RTVSPost2010PropOp55
 70
     1
102
RTVSPost2010Prop56
140
1.0
102
RTVSPost2010PropOp56
 70
     1
102
RTVSPost2010Prop57
140
1.0
102
RTVSPost2010PropOp57
 70
     1
102
RTVSPropertyOp0
 70
     1
102
RTVSPropertyOp1
 70
     1
102
RTVSPropertyOp2
 70
     1
102
RTVSPropertyOp3
 70
     1
102
RTVSPropertyOp4
 70
     1
102
RTVSPropertyOp5
 70
     1
102
RTVSPropertyOp6
 70
     1
102
RTVSPropertyOp7
 70
     1
102
RTVSPropertyOp8
 70
     1
102
RTVSPropertyOp9
 70
     1
102
RTVSPropertyOp10
 70
     1
102
RTVSPropertyOp11
 70
     1
102
RTVSPropertyOp12
 70
     1
102
RTVSPropertyOp13
 70
     1
102
RTVSPropertyOp14
 70
     1
102
RTVSPropertyOp15
 70
     1
102
RTVSPropertyOp16
 70
     1
102
RTVSPropertyOp17
 70
     1
102
RTVSPropertyOp18
 70
     1
102
RTVSPropertyOp19
 70
     1
102
RTVSPropertyOp20
 70
     1
102
RTVSPropertyOp21
 70
     1
102
RTVSPropertyOp22
 70
     1
102
RTVSPropertyOp23
 70
     1
102
RTVSPropertyOp24
 70
     1
102
RTVSPropertyOp25
 70
     1
102
RTVSPropertyOp26
 70
     1
102
RTVSPropertyOp27
 70
     1
102
RTVSPropertyOp28
 70
     1
102
RTVSPropertyOp29
 70
     1
102
RTVSPropertyOp30
 70
     1
102
RTVSPropertyOp31
 70
     1
102
RTVSPropertyOp32
 70
     1
102
RTVSPropertyOp33
 70
     1
102
RTVSPropertyOp34
 70
     1
102
RTVSPropertyOp35
 70
     1
102
RTVSPropertyOp36
 70
     1
102
RTVSPropertyOp37
 70
     1
102
RTVSPropertyOp38
 70
     1
102
RTVSPropertyOp39
 70
     1
102
RTVSPropertyOp40
 70
     1
102
RTVSPropertyOp41
 70
     1
102
RTVSPropertyOp42
 70
     1
102
RTVSPropertyOp43
 70
     1
102
RTVSPropertyOp44
 70
     1
102
RTVSPropertyOp45
 70
     1
102
RTVSPropertyOp46
 70
     1
102
RTVSPropertyOp47
 70
     1
102
RTVSPropertyOp48
 70
     1
102
RTVSPropertyOp49
 70
     1
102
RTVSPropertyOp50
 70
     1
102
RTVSPropertyOp51
 70
     0
102
RTVSPropertyOp52
 70
     0
102
RTVSPropertyOp53
 70
     1
102
RTVSPropertyOp54
 70
     1
102
RTVSPropertyOp55
 70
     1
102
RTVSPropertyOp56
 70
     1
102
RTVSPropertyOp57
 70
     1
102
RTVSPropertyOp58
 70
     1
102
RTVSPropertyOp59
 70
     1
102
RTVSPropertyOp60
 70
     1
102
RTVSPropertyOp61
 70
     1
102
RTVSPropertyOp62
 70
     1
  0
XRECORD
  5
3C6
102
{ACAD_REACTORS
330
3C5
102
}
330
3C5
100
AcDbXrecord
280
     1
102
RTVSPost2010Prop28
280
     0
102
RTVSPost2010PropOp28
 70
     1
102
RTVSPost2010Prop29
280
     1
102
RTVSPost2010PropOp29
 70
     1
102
RTVSPost2010Prop30
280
     1
102
RTVSPost2010PropOp30
 70
     1
102
RTVSPost2010Prop31
280
     0
102
RTVSPost2010PropOp31
 70
     1
102
RTVSPost2010Prop32
280
     0
102
RTVSPost2010PropOp32
 70
     1
102
RTVSPost2010Prop33
280
     0
102
RTVSPost2010PropOp33
 70
     1
102
RTVSPost2010Prop34
280
     0
102
RTVSPost2010PropOp34
 70
     1
102
RTVSPost2010Prop35
280
     0
102
RTVSPost2010PropOp35
 70
     1
102
RTVSPost2010Prop36
280
     0
102
RTVSPost2010PropOp36
 70
     1
102
RTVSPost2010Prop37
 90
       50
102
RTVSPost2010PropOp37
 70
     1
102
RTVSPost2010Prop38
140
0.0
102
RTVSPost2010PropOp38
 70
     1
102
RTVSPost2010Prop39
140
1.0
102
RTVSPost2010PropOp39
 70
     1
102
RTVSPost2010Prop40
 90
        0
102
RTVSPost2010PropOp40
 70
     1
102
RTVSPost2010Prop41ColorIndex
 90
       18
102
RTVSPost2010Prop41ColorRGB
 90
        0
102
RTVSPost2010PropOp41
 70
     1
102
RTVSPost2010Prop42
 90
       50
102
RTVSPost2010PropOp42
 70
     1
102
RTVSPost2010Prop43
 90
        3
102
RTVSPost2010PropOp43
 70
     1
102
RTVSPost2010Prop44ColorIndex
 90
        5
102
RTVSPost2010Prop44ColorRGB
 90
      255
102
RTVSPost2010PropOp44
 70
     1
102
RTVSPost2010Prop45
280
     0
102
RTVSPost2010PropOp45
 70
     1
102
RTVSPost2010Prop46
 90
       50
102
RTVSPost2010PropOp46
 70
     1
102
RTVSPost2010Prop47
 90
       50
102
RTVSPost2010PropOp47
 70
     1
102
RTVSPost2010Prop48
 90
       50
102
RTVSPost2010PropOp48
 70
     1
102
RTVSPost2010Prop49
280
     0
102
RTVSPost2010PropOp49
 70
     1
102
RTVSPost2010Prop50
 90
       50
102
RTVSPost2010PropOp50
 70
     1
102
RTVSPost2010Prop51ColorIndex
 90
      256
102
RTVSPost2010Prop51ColorRGB
 90
-16777216
102
RTVSPost2010PropOp51
 70
     0
102
RTVSPost2010Prop52
140
1.0
102
RTVSPost2010PropOp52
 70
     0
102
RTVSPost2010Prop53
 90
        2
102
RTVSPost2010PropOp53
 70
     1
102
RTVSPost2010Prop54
  1
strokes_ogs.tif
102
RTVSPost2010PropOp54
 70
     1
102
RTVSPost2010Prop55
280
     0
102
RTVSPost2010PropOp55
 70
     1
102
RTVSPost2010Prop56
140
1.0
102
RTVSPost2010PropOp56
 70
     1
102
RTVSPost2010Prop57
140
1.0
102
RTVSPost2010PropOp57
 70
     1
102
RTVSPropertyOp0
 70
     1
102
RTVSPropertyOp1
 70
     1
102
RTVSPropertyOp2
 70
     1
102
RTVSPropertyOp3
 70
     1
102
RTVSPropertyOp4
 70
     1
102
RTVSPropertyOp5
 70
     1
102
RTVSPropertyOp6
 70
     1
102
RTVSPropertyOp7
 70
     1
102
RTVSPropertyOp8
 70
     1
102
RTVSPropertyOp9
 70
     1
102
RTVSPropertyOp10
 70
     1
102
RTVSPropertyOp11
 70
     1
102
RTVSPropertyOp12
 70
     1
102
RTVSPropertyOp13
 70
     1
102
RTVSPropertyOp14
 70
     1
102
RTVSPropertyOp15
 70
     1
102
RTVSPropertyOp16
 70
     1
102
RTVSPropertyOp17
 70
     1
102
RTVSPropertyOp18
 70
     1
102
RTVSPropertyOp19
 70
     1
102
RTVSPropertyOp20
 70
     1
102
RTVSPropertyOp21
 70
     1
102
RTVSPropertyOp22
 70
     1
102
RTVSPropertyOp23
 70
     1
102
RTVSPropertyOp24
 70
     1
102
RTVSPropertyOp25
 70
     1
102
RTVSPropertyOp26
 70
     1
102
RTVSPropertyOp27
 70
     1
102
RTVSPropertyOp28
 70
     1
102
RTVSPropertyOp29
 70
     1
102
RTVSPropertyOp30
 70
     1
102
RTVSPropertyOp31
 70
     1
102
RTVSPropertyOp32
 70
     1
102
RTVSPropertyOp33
 70
     1
102
RTVSPropertyOp34
 70
     1
102
RTVSPropertyOp35
 70
     1
102
RTVSPropertyOp36
 70
     1
102
RTVSPropertyOp37
 70
     1
102
RTVSPropertyOp38
 70
     1
102
RTVSPropertyOp39
 70
     1
102
RTVSPropertyOp40
 70
     1
102
RTVSPropertyOp41
 70
     1
102
RTVSPropertyOp42
 70
     1
102
RTVSPropertyOp43
 70
     1
102
RTVSPropertyOp44
 70
     1
102
RTVSPropertyOp45
 70
     1
102
RTVSPropertyOp46
 70
     1
102
RTVSPropertyOp47
 70
     1
102
RTVSPropertyOp48
 70
     1
102
RTVSPropertyOp49
 70
     1
102
RTVSPropertyOp50
 70
     1
102
RTVSPropertyOp51
 70
     0
102
RTVSPropertyOp52
 70
     0
102
RTVSPropertyOp53
 70
     1
102
RTVSPropertyOp54
 70
     1
102
RTVSPropertyOp55
 70
     1
102
RTVSPropertyOp56
 70
     1
102
RTVSPropertyOp57
 70
     1
102
RTVSPropertyOp58
 70
     1
102
RTVSPropertyOp59
 70
     1
102
RTVSPropertyOp60
 70
     1
102
RTVSPropertyOp61
 70
     1
102
RTVSPropertyOp62
 70
     1
  0
XRECORD
  5
3C8
102
{ACAD_REACTORS
330
3C7
102
}
330
3C7
100
AcDbXrecord
280
     1
102
RTVSPost2010Prop28
280
     0
102
RTVSPost2010PropOp28
 70
     1
102
RTVSPost2010Prop29
280
     1
102
RTVSPost2010PropOp29
 70
     1
102
RTVSPost2010Prop30
280
     1
102
RTVSPost2010PropOp30
 70
     1
102
RTVSPost2010Prop31
280
     0
102
RTVSPost2010PropOp31
 70
     1
102
RTVSPost2010Prop32
280
     0
102
RTVSPost2010PropOp32
 70
     1
102
RTVSPost2010Prop33
280
     0
102
RTVSPost2010PropOp33
 70
     1
102
RTVSPost2010Prop34
280
     0
102
RTVSPost2010PropOp34
 70
     1
102
RTVSPost2010Prop35
280
     0
102
RTVSPost2010PropOp35
 70
     1
102
RTVSPost2010Prop36
280
     0
102
RTVSPost2010PropOp36
 70
     1
102
RTVSPost2010Prop37
 90
       50
102
RTVSPost2010PropOp37
 70
     1
102
RTVSPost2010Prop38
140
0.0
102
RTVSPost2010PropOp38
 70
     1
102
RTVSPost2010Prop39
140
1.0
102
RTVSPost2010PropOp39
 70
     1
102
RTVSPost2010Prop40
 90
        0
102
RTVSPost2010PropOp40
 70
     1
102
RTVSPost2010Prop41ColorIndex
 90
       18
102
RTVSPost2010Prop41ColorRGB
 90
        0
102
RTVSPost2010PropOp41
 70
     1
102
RTVSPost2010Prop42
 90
       50
102
RTVSPost2010PropOp42
 70
     1
102
RTVSPost2010Prop43
 90
        3
102
RTVSPost2010PropOp43
 70
     1
102
RTVSPost2010Prop44ColorIndex
 90
        5
102
RTVSPost2010Prop44ColorRGB
 90
      255
102
RTVSPost2010PropOp44
 70
     1
102
RTVSPost2010Prop45
280
     0
102
RTVSPost2010PropOp45
 70
     1
102
RTVSPost2010Prop46
 90
       50
102
RTVSPost2010PropOp46
 70
     1
102
RTVSPost2010Prop47
 90
       50
102
RTVSPost2010PropOp47
 70
     1
102
RTVSPost2010Prop48
 90
       50
102
RTVSPost2010PropOp48
 70
     1
102
RTVSPost2010Prop49
280
     0
102
RTVSPost2010PropOp49
 70
     1
102
RTVSPost2010Prop50
 90
       50
102
RTVSPost2010PropOp50
 70
     1
102
RTVSPost2010Prop51ColorIndex
 90
      256
102
RTVSPost2010Prop51ColorRGB
 90
-16777216
102
RTVSPost2010PropOp51
 70
     0
102
RTVSPost2010Prop52
140
1.0
102
RTVSPost2010PropOp52
 70
     0
102
RTVSPost2010Prop53
 90
        2
102
RTVSPost2010PropOp53
 70
     1
102
RTVSPost2010Prop54
  1
strokes_ogs.tif
102
RTVSPost2010PropOp54
 70
     1
102
RTVSPost2010Prop55
280
     0
102
RTVSPost2010PropOp55
 70
     1
102
RTVSPost2010Prop56
140
1.0
102
RTVSPost2010PropOp56
 70
     1
102
RTVSPost2010Prop57
140
1.0
102
RTVSPost2010PropOp57
 70
     1
102
RTVSPropertyOp0
 70
     1
102
RTVSPropertyOp1
 70
     1
102
RTVSPropertyOp2
 70
     1
102
RTVSPropertyOp3
 70
     1
102
RTVSPropertyOp4
 70
     1
102
RTVSPropertyOp5
 70
     1
102
RTVSPropertyOp6
 70
     1
102
RTVSPropertyOp7
 70
     1
102
RTVSPropertyOp8
 70
     1
102
RTVSPropertyOp9
 70
     1
102
RTVSPropertyOp10
 70
     1
102
RTVSPropertyOp11
 70
     1
102
RTVSPropertyOp12
 70
     1
102
RTVSPropertyOp13
 70
     1
102
RTVSPropertyOp14
 70
     1
102
RTVSPropertyOp15
 70
     1
102
RTVSPropertyOp16
 70
     1
102
RTVSPropertyOp17
 70
     1
102
RTVSPropertyOp18
 70
     1
102
RTVSPropertyOp19
 70
     1
102
RTVSPropertyOp20
 70
     1
102
RTVSPropertyOp21
 70
     1
102
RTVSPropertyOp22
 70
     1
102
RTVSPropertyOp23
 70
     1
102
RTVSPropertyOp24
 70
     1
102
RTVSPropertyOp25
 70
     1
102
RTVSPropertyOp26
 70
     1
102
RTVSPropertyOp27
 70
     1
102
RTVSPropertyOp28
 70
     1
102
RTVSPropertyOp29
 70
     1
102
RTVSPropertyOp30
 70
     1
102
RTVSPropertyOp31
 70
     1
102
RTVSPropertyOp32
 70
     1
102
RTVSPropertyOp33
 70
     1
102
RTVSPropertyOp34
 70
     1
102
RTVSPropertyOp35
 70
     1
102
RTVSPropertyOp36
 70
     1
102
RTVSPropertyOp37
 70
     1
102
RTVSPropertyOp38
 70
     1
102
RTVSPropertyOp39
 70
     1
102
RTVSPropertyOp40
 70
     1
102
RTVSPropertyOp41
 70
     1
102
RTVSPropertyOp42
 70
     1
102
RTVSPropertyOp43
 70
     1
102
RTVSPropertyOp44
 70
     1
102
RTVSPropertyOp45
 70
     1
102
RTVSPropertyOp46
 70
     1
102
RTVSPropertyOp47
 70
     1
102
RTVSPropertyOp48
 70
     1
102
RTVSPropertyOp49
 70
     1
102
RTVSPropertyOp50
 70
     1
102
RTVSPropertyOp51
 70
     0
102
RTVSPropertyOp52
 70
     0
102
RTVSPropertyOp53
 70
     1
102
RTVSPropertyOp54
 70
     1
102
RTVSPropertyOp55
 70
     1
102
RTVSPropertyOp56
 70
     1
102
RTVSPropertyOp57
 70
     1
102
RTVSPropertyOp58
 70
     1
102
RTVSPropertyOp59
 70
     1
102
RTVSPropertyOp60
 70
     1
102
RTVSPropertyOp61
 70
     1
102
RTVSPropertyOp62
 70
     1
  0
XRECORD
  5
3D8
102
{ACAD_REACTORS
330
3D7
102
}
330
3D7
100
AcDbXrecord
280
     1
102
RTVSPost2010Prop28
280
     0
102
RTVSPost2010PropOp28
 70
     0
102
RTVSPost2010Prop29
280
     1
102
RTVSPost2010PropOp29
 70
     0
102
RTVSPost2010Prop30
280
     1
102
RTVSPost2010PropOp30
 70
     0
102
RTVSPost2010Prop31
280
     0
102
RTVSPost2010PropOp31
 70
     0
102
RTVSPost2010Prop32
280
     0
102
RTVSPost2010PropOp32
 70
     0
102
RTVSPost2010Prop33
280
     0
102
RTVSPost2010PropOp33
 70
     0
102
RTVSPost2010Prop34
280
     0
102
RTVSPost2010PropOp34
 70
     0
102
RTVSPost2010Prop35
280
     0
102
RTVSPost2010PropOp35
 70
     0
102
RTVSPost2010Prop36
280
     0
102
RTVSPost2010PropOp36
 70
     0
102
RTVSPost2010Prop37
 90
       50
102
RTVSPost2010PropOp37
 70
     0
102
RTVSPost2010Prop38
140
0.0
102
RTVSPost2010PropOp38
 70
     0
102
RTVSPost2010Prop39
140
1.0
102
RTVSPost2010PropOp39
 70
     0
102
RTVSPost2010Prop40
 90
        0
102
RTVSPost2010PropOp40
 70
     0
102
RTVSPost2010Prop41ColorIndex
 90
       18
102
RTVSPost2010Prop41ColorRGB
 90
        0
102
RTVSPost2010PropOp41
 70
     0
102
RTVSPost2010Prop42
 90
       50
102
RTVSPost2010PropOp42
 70
     0
102
RTVSPost2010Prop43
 90
        3
102
RTVSPost2010PropOp43
 70
     0
102
RTVSPost2010Prop44ColorIndex
 90
        5
102
RTVSPost2010Prop44ColorRGB
 90
      255
102
RTVSPost2010PropOp44
 70
     0
102
RTVSPost2010Prop45
280
     0
102
RTVSPost2010PropOp45
 70
     0
102
RTVSPost2010Prop46
 90
       50
102
RTVSPost2010PropOp46
 70
     0
102
RTVSPost2010Prop47
 90
       50
102
RTVSPost2010PropOp47
 70
     0
102
RTVSPost2010Prop48
 90
       50
102
RTVSPost2010PropOp48
 70
     0
102
RTVSPost2010Prop49
280
     0
102
RTVSPost2010PropOp49
 70
     0
102
RTVSPost2010Prop50
 90
       50
102
RTVSPost2010PropOp50
 70
     0
102
RTVSPost2010Prop51ColorIndex
 90
      256
102
RTVSPost2010Prop51ColorRGB
 90
-16777216
102
RTVSPost2010PropOp51
 70
     0
102
RTVSPost2010Prop52
140
1.0
102
RTVSPost2010PropOp52
 70
     0
102
RTVSPost2010Prop53
 90
        2
102
RTVSPost2010PropOp53
 70
     0
102
RTVSPost2010Prop54
  1
strokes_ogs.tif
102
RTVSPost2010PropOp54
 70
     0
102
RTVSPost2010Prop55
280
     0
102
RTVSPost2010PropOp55
 70
     0
102
RTVSPost2010Prop56
140
1.0
102
RTVSPost2010PropOp56
 70
     0
102
RTVSPost2010Prop57
140
1.0
102
RTVSPost2010PropOp57
 70
     0
102
RTVSPropertyOp0
 70
     0
102
RTVSPropertyOp1
 70
     0
102
RTVSPropertyOp2
 70
     0
102
RTVSPropertyOp3
 70
     0
102
RTVSPropertyOp4
 70
     0
102
RTVSPropertyOp5
 70
     0
102
RTVSPropertyOp6
 70
     0
102
RTVSPropertyOp7
 70
     0
102
RTVSPropertyOp8
 70
     0
102
RTVSPropertyOp9
 70
     0
102
RTVSPropertyOp10
 70
     0
102
RTVSPropertyOp11
 70
     0
102
RTVSPropertyOp12
 70
     0
102
RTVSPropertyOp13
 70
     0
102
RTVSPropertyOp14
 70
     2
102
RTVSPropertyOp15
 70
     0
102
RTVSPropertyOp16
 70
     0
102
RTVSPropertyOp17
 70
     0
102
RTVSPropertyOp18
 70
     0
102
RTVSPropertyOp19
 70
     0
102
RTVSPropertyOp20
 70
     0
102
RTVSPropertyOp21
 70
     0
102
RTVSPropertyOp22
 70
     0
102
RTVSPropertyOp23
 70
     0
102
RTVSPropertyOp24
 70
     0
102
RTVSPropertyOp25
 70
     0
102
RTVSPropertyOp26
 70
     0
102
RTVSPropertyOp27
 70
     0
102
RTVSPropertyOp28
 70
     0
102
RTVSPropertyOp29
 70
     0
102
RTVSPropertyOp30
 70
     0
102
RTVSPropertyOp31
 70
     0
102
RTVSPropertyOp32
 70
     0
102
RTVSPropertyOp33
 70
     0
102
RTVSPropertyOp34
 70
     0
102
RTVSPropertyOp35
 70
     0
102
RTVSPropertyOp36
 70
     0
102
RTVSPropertyOp37
 70
     0
102
RTVSPropertyOp38
 70
     0
102
RTVSPropertyOp39
 70
     0
102
RTVSPropertyOp40
 70
     0
102
RTVSPropertyOp41
 70
     0
102
RTVSPropertyOp42
 70
     0
102
RTVSPropertyOp43
 70
     0
102
RTVSPropertyOp44
 70
     0
102
RTVSPropertyOp45
 70
     0
102
RTVSPropertyOp46
 70
     0
102
RTVSPropertyOp47
 70
     0
102
RTVSPropertyOp48
 70
     0
102
RTVSPropertyOp49
 70
     0
102
RTVSPropertyOp50
 70
     0
102
RTVSPropertyOp51
 70
     0
102
RTVSPropertyOp52
 70
     0
102
RTVSPropertyOp53
 70
     0
102
RTVSPropertyOp54
 70
     0
102
RTVSPropertyOp55
 70
     0
102
RTVSPropertyOp56
 70
     0
102
RTVSPropertyOp57
 70
     0
102
RTVSPropertyOp58
 70
     1
102
RTVSPropertyOp59
 70
     1
102
RTVSPropertyOp60
 70
     1
102
RTVSPropertyOp61
 70
     1
102
RTVSPropertyOp62
 70
     1
  0
XRECORD
  5
3D0
102
{ACAD_REACTORS
330
3CF
102
}
330
3CF
100
AcDbXrecord
280
     1
102
RTVSPost2010Prop28
280
     0
102
RTVSPost2010PropOp28
 70
     1
102
RTVSPost2010Prop29
280
     1
102
RTVSPost2010PropOp29
 70
     1
102
RTVSPost2010Prop30
280
     1
102
RTVSPost2010PropOp30
 70
     1
102
RTVSPost2010Prop31
280
     0
102
RTVSPost2010PropOp31
 70
     1
102
RTVSPost2010Prop32
280
     0
102
RTVSPost2010PropOp32
 70
     1
102
RTVSPost2010Prop33
280
     0
102
RTVSPost2010PropOp33
 70
     1
102
RTVSPost2010Prop34
280
     0
102
RTVSPost2010PropOp34
 70
     1
102
RTVSPost2010Prop35
280
     0
102
RTVSPost2010PropOp35
 70
     1
102
RTVSPost2010Prop36
280
     0
102
RTVSPost2010PropOp36
 70
     1
102
RTVSPost2010Prop37
 90
       50
102
RTVSPost2010PropOp37
 70
     1
102
RTVSPost2010Prop38
140
0.0
102
RTVSPost2010PropOp38
 70
     1
102
RTVSPost2010Prop39
140
1.0
102
RTVSPost2010PropOp39
 70
     1
102
RTVSPost2010Prop40
 90
        0
102
RTVSPost2010PropOp40
 70
     1
102
RTVSPost2010Prop41ColorIndex
 90
       18
102
RTVSPost2010Prop41ColorRGB
 90
        0
102
RTVSPost2010PropOp41
 70
     1
102
RTVSPost2010Prop42
 90
       50
102
RTVSPost2010PropOp42
 70
     1
102
RTVSPost2010Prop43
 90
        3
102
RTVSPost2010PropOp43
 70
     1
102
RTVSPost2010Prop44ColorIndex
 90
        5
102
RTVSPost2010Prop44ColorRGB
 90
      255
102
RTVSPost2010PropOp44
 70
     1
102
RTVSPost2010Prop45
280
     0
102
RTVSPost2010PropOp45
 70
     1
102
RTVSPost2010Prop46
 90
       50
102
RTVSPost2010PropOp46
 70
     1
102
RTVSPost2010Prop47
 90
       50
102
RTVSPost2010PropOp47
 70
     1
102
RTVSPost2010Prop48
 90
       50
102
RTVSPost2010PropOp48
 70
     1
102
RTVSPost2010Prop49
280
     0
102
RTVSPost2010PropOp49
 70
     1
102
RTVSPost2010Prop50
 90
       50
102
RTVSPost2010PropOp50
 70
     1
102
RTVSPost2010Prop51ColorIndex
 90
      256
102
RTVSPost2010Prop51ColorRGB
 90
-16777216
102
RTVSPost2010PropOp51
 70
     0
102
RTVSPost2010Prop52
140
1.0
102
RTVSPost2010PropOp52
 70
     0
102
RTVSPost2010Prop53
 90
        2
102
RTVSPost2010PropOp53
 70
     1
102
RTVSPost2010Prop54
  1
strokes_ogs.tif
102
RTVSPost2010PropOp54
 70
     1
102
RTVSPost2010Prop55
280
     0
102
RTVSPost2010PropOp55
 70
     1
102
RTVSPost2010Prop56
140
1.0
102
RTVSPost2010PropOp56
 70
     1
102
RTVSPost2010Prop57
140
1.0
102
RTVSPost2010PropOp57
 70
     1
102
RTVSPropertyOp0
 70
     1
102
RTVSPropertyOp1
 70
     1
102
RTVSPropertyOp2
 70
     1
102
RTVSPropertyOp3
 70
     1
102
RTVSPropertyOp4
 70
     1
102
RTVSPropertyOp5
 70
     1
102
RTVSPropertyOp6
 70
     1
102
RTVSPropertyOp7
 70
     1
102
RTVSPropertyOp8
 70
     1
102
RTVSPropertyOp9
 70
     1
102
RTVSPropertyOp10
 70
     1
102
RTVSPropertyOp11
 70
     1
102
RTVSPropertyOp12
 70
     1
102
RTVSPropertyOp13
 70
     1
102
RTVSPropertyOp14
 70
     1
102
RTVSPropertyOp15
 70
     1
102
RTVSPropertyOp16
 70
     1
102
RTVSPropertyOp17
 70
     1
102
RTVSPropertyOp18
 70
     1
102
RTVSPropertyOp19
 70
     1
102
RTVSPropertyOp20
 70
     1
102
RTVSPropertyOp21
 70
     1
102
RTVSPropertyOp22
 70
     1
102
RTVSPropertyOp23
 70
     1
102
RTVSPropertyOp24
 70
     1
102
RTVSPropertyOp25
 70
     1
102
RTVSPropertyOp26
 70
     1
102
RTVSPropertyOp27
 70
     1
102
RTVSPropertyOp28
 70
     1
102
RTVSPropertyOp29
 70
     1
102
RTVSPropertyOp30
 70
     1
102
RTVSPropertyOp31
 70
     1
102
RTVSPropertyOp32
 70
     1
102
RTVSPropertyOp33
 70
     1
102
RTVSPropertyOp34
 70
     1
102
RTVSPropertyOp35
 70
     1
102
RTVSPropertyOp36
 70
     1
102
RTVSPropertyOp37
 70
     1
102
RTVSPropertyOp38
 70
     1
102
RTVSPropertyOp39
 70
     1
102
RTVSPropertyOp40
 70
     1
102
RTVSPropertyOp41
 70
     1
102
RTVSPropertyOp42
 70
     1
102
RTVSPropertyOp43
 70
     1
102
RTVSPropertyOp44
 70
     1
102
RTVSPropertyOp45
 70
     1
102
RTVSPropertyOp46
 70
     1
102
RTVSPropertyOp47
 70
     1
102
RTVSPropertyOp48
 70
     1
102
RTVSPropertyOp49
 70
     1
102
RTVSPropertyOp50
 70
     1
102
RTVSPropertyOp51
 70
     0
102
RTVSPropertyOp52
 70
     0
102
RTVSPropertyOp53
 70
     1
102
RTVSPropertyOp54
 70
     1
102
RTVSPropertyOp55
 70
     1
102
RTVSPropertyOp56
 70
     1
102
RTVSPropertyOp57
 70
     1
102
RTVSPropertyOp58
 70
     1
102
RTVSPropertyOp59
 70
     1
102
RTVSPropertyOp60
 70
     1
102
RTVSPropertyOp61
 70
     1
102
RTVSPropertyOp62
 70
     1
  0
XRECORD
  5
3B4
102
{ACAD_REACTORS
330
3B3
102
}
330
3B3
100
AcDbXrecord
280
     1
102
RTVSPost2010Prop28
280
     0
102
RTVSPost2010PropOp28
 70
     1
102
RTVSPost2010Prop29
280
     1
102
RTVSPost2010PropOp29
 70
     1
102
RTVSPost2010Prop30
280
     1
102
RTVSPost2010PropOp30
 70
     1
102
RTVSPost2010Prop31
280
     0
102
RTVSPost2010PropOp31
 70
     1
102
RTVSPost2010Prop32
280
     0
102
RTVSPost2010PropOp32
 70
     1
102
RTVSPost2010Prop33
280
     0
102
RTVSPost2010PropOp33
 70
     1
102
RTVSPost2010Prop34
280
     0
102
RTVSPost2010PropOp34
 70
     1
102
RTVSPost2010Prop35
280
     0
102
RTVSPost2010PropOp35
 70
     1
102
RTVSPost2010Prop36
280
     0
102
RTVSPost2010PropOp36
 70
     1
102
RTVSPost2010Prop37
 90
       50
102
RTVSPost2010PropOp37
 70
     1
102
RTVSPost2010Prop38
140
0.0
102
RTVSPost2010PropOp38
 70
     1
102
RTVSPost2010Prop39
140
1.0
102
RTVSPost2010PropOp39
 70
     1
102
RTVSPost2010Prop40
 90
        0
102
RTVSPost2010PropOp40
 70
     1
102
RTVSPost2010Prop41ColorIndex
 90
       18
102
RTVSPost2010Prop41ColorRGB
 90
        0
102
RTVSPost2010PropOp41
 70
     1
102
RTVSPost2010Prop42
 90
       50
102
RTVSPost2010PropOp42
 70
     1
102
RTVSPost2010Prop43
 90
        3
102
RTVSPost2010PropOp43
 70
     1
102
RTVSPost2010Prop44ColorIndex
 90
        5
102
RTVSPost2010Prop44ColorRGB
 90
      255
102
RTVSPost2010PropOp44
 70
     1
102
RTVSPost2010Prop45
280
     0
102
RTVSPost2010PropOp45
 70
     1
102
RTVSPost2010Prop46
 90
       50
102
RTVSPost2010PropOp46
 70
     1
102
RTVSPost2010Prop47
 90
       50
102
RTVSPost2010PropOp47
 70
     1
102
RTVSPost2010Prop48
 90
       50
102
RTVSPost2010PropOp48
 70
     1
102
RTVSPost2010Prop49
280
     0
102
RTVSPost2010PropOp49
 70
     1
102
RTVSPost2010Prop50
 90
       50
102
RTVSPost2010PropOp50
 70
     1
102
RTVSPost2010Prop51ColorIndex
 90
      256
102
RTVSPost2010Prop51ColorRGB
 90
-16777216
102
RTVSPost2010PropOp51
 70
     0
102
RTVSPost2010Prop52
140
1.0
102
RTVSPost2010PropOp52
 70
     0
102
RTVSPost2010Prop53
 90
        2
102
RTVSPost2010PropOp53
 70
     1
102
RTVSPost2010Prop54
  1
strokes_ogs.tif
102
RTVSPost2010PropOp54
 70
     1
102
RTVSPost2010Prop55
280
     0
102
RTVSPost2010PropOp55
 70
     1
102
RTVSPost2010Prop56
140
1.0
102
RTVSPost2010PropOp56
 70
     1
102
RTVSPost2010Prop57
140
1.0
102
RTVSPost2010PropOp57
 70
     1
102
RTVSPropertyOp0
 70
     1
102
RTVSPropertyOp1
 70
     1
102
RTVSPropertyOp2
 70
     1
102
RTVSPropertyOp3
 70
     1
102
RTVSPropertyOp4
 70
     1
102
RTVSPropertyOp5
 70
     1
102
RTVSPropertyOp6
 70
     1
102
RTVSPropertyOp7
 70
     1
102
RTVSPropertyOp8
 70
     1
102
RTVSPropertyOp9
 70
     1
102
RTVSPropertyOp10
 70
     1
102
RTVSPropertyOp11
 70
     1
102
RTVSPropertyOp12
 70
     1
102
RTVSPropertyOp13
 70
     1
102
RTVSPropertyOp14
 70
     1
102
RTVSPropertyOp15
 70
     1
102
RTVSPropertyOp16
 70
     1
102
RTVSPropertyOp17
 70
     1
102
RTVSPropertyOp18
 70
     1
102
RTVSPropertyOp19
 70
     1
102
RTVSPropertyOp20
 70
     1
102
RTVSPropertyOp21
 70
     1
102
RTVSPropertyOp22
 70
     1
102
RTVSPropertyOp23
 70
     1
102
RTVSPropertyOp24
 70
     1
102
RTVSPropertyOp25
 70
     1
102
RTVSPropertyOp26
 70
     1
102
RTVSPropertyOp27
 70
     1
102
RTVSPropertyOp28
 70
     1
102
RTVSPropertyOp29
 70
     1
102
RTVSPropertyOp30
 70
     1
102
RTVSPropertyOp31
 70
     1
102
RTVSPropertyOp32
 70
     1
102
RTVSPropertyOp33
 70
     1
102
RTVSPropertyOp34
 70
     1
102
RTVSPropertyOp35
 70
     1
102
RTVSPropertyOp36
 70
     1
102
RTVSPropertyOp37
 70
     1
102
RTVSPropertyOp38
 70
     1
102
RTVSPropertyOp39
 70
     1
102
RTVSPropertyOp40
 70
     1
102
RTVSPropertyOp41
 70
     1
102
RTVSPropertyOp42
 70
     1
102
RTVSPropertyOp43
 70
     1
102
RTVSPropertyOp44
 70
     1
102
RTVSPropertyOp45
 70
     1
102
RTVSPropertyOp46
 70
     1
102
RTVSPropertyOp47
 70
     1
102
RTVSPropertyOp48
 70
     1
102
RTVSPropertyOp49
 70
     1
102
RTVSPropertyOp50
 70
     1
102
RTVSPropertyOp51
 70
     0
102
RTVSPropertyOp52
 70
     0
102
RTVSPropertyOp53
 70
     1
102
RTVSPropertyOp54
 70
     1
102
RTVSPropertyOp55
 70
     1
102
RTVSPropertyOp56
 70
     1
102
RTVSPropertyOp57
 70
     1
102
RTVSPropertyOp58
 70
     1
102
RTVSPropertyOp59
 70
     1
102
RTVSPropertyOp60
 70
     1
102
RTVSPropertyOp61
 70
     1
102
RTVSPropertyOp62
 70
     1
  0
XRECORD
  5
3B6
102
{ACAD_REACTORS
330
3B5
102
}
330
3B5
100
AcDbXrecord
280
     1
102
RTVSPost2010Prop28
280
     0
102
RTVSPost2010PropOp28
 70
     1
102
RTVSPost2010Prop29
280
     1
102
RTVSPost2010PropOp29
 70
     1
102
RTVSPost2010Prop30
280
     1
102
RTVSPost2010PropOp30
 70
     1
102
RTVSPost2010Prop31
280
     0
102
RTVSPost2010PropOp31
 70
     1
102
RTVSPost2010Prop32
280
     0
102
RTVSPost2010PropOp32
 70
     1
102
RTVSPost2010Prop33
280
     0
102
RTVSPost2010PropOp33
 70
     1
102
RTVSPost2010Prop34
280
     0
102
RTVSPost2010PropOp34
 70
     1
102
RTVSPost2010Prop35
280
     0
102
RTVSPost2010PropOp35
 70
     1
102
RTVSPost2010Prop36
280
     0
102
RTVSPost2010PropOp36
 70
     1
102
RTVSPost2010Prop37
 90
       50
102
RTVSPost2010PropOp37
 70
     1
102
RTVSPost2010Prop38
140
0.0
102
RTVSPost2010PropOp38
 70
     1
102
RTVSPost2010Prop39
140
1.0
102
RTVSPost2010PropOp39
 70
     1
102
RTVSPost2010Prop40
 90
        0
102
RTVSPost2010PropOp40
 70
     1
102
RTVSPost2010Prop41ColorIndex
 90
       18
102
RTVSPost2010Prop41ColorRGB
 90
        0
102
RTVSPost2010PropOp41
 70
     1
102
RTVSPost2010Prop42
 90
       50
102
RTVSPost2010PropOp42
 70
     1
102
RTVSPost2010Prop43
 90
        3
102
RTVSPost2010PropOp43
 70
     1
102
RTVSPost2010Prop44ColorIndex
 90
        5
102
RTVSPost2010Prop44ColorRGB
 90
      255
102
RTVSPost2010PropOp44
 70
     1
102
RTVSPost2010Prop45
280
     0
102
RTVSPost2010PropOp45
 70
     1
102
RTVSPost2010Prop46
 90
       50
102
RTVSPost2010PropOp46
 70
     1
102
RTVSPost2010Prop47
 90
       50
102
RTVSPost2010PropOp47
 70
     1
102
RTVSPost2010Prop48
 90
       50
102
RTVSPost2010PropOp48
 70
     1
102
RTVSPost2010Prop49
280
     0
102
RTVSPost2010PropOp49
 70
     1
102
RTVSPost2010Prop50
 90
       50
102
RTVSPost2010PropOp50
 70
     1
102
RTVSPost2010Prop51ColorIndex
 90
      256
102
RTVSPost2010Prop51ColorRGB
 90
-16777216
102
RTVSPost2010PropOp51
 70
     0
102
RTVSPost2010Prop52
140
1.0
102
RTVSPost2010PropOp52
 70
     0
102
RTVSPost2010Prop53
 90
        2
102
RTVSPost2010PropOp53
 70
     1
102
RTVSPost2010Prop54
  1
strokes_ogs.tif
102
RTVSPost2010PropOp54
 70
     1
102
RTVSPost2010Prop55
280
     0
102
RTVSPost2010PropOp55
 70
     1
102
RTVSPost2010Prop56
140
1.0
102
RTVSPost2010PropOp56
 70
     1
102
RTVSPost2010Prop57
140
1.0
102
RTVSPost2010PropOp57
 70
     1
102
RTVSPropertyOp0
 70
     1
102
RTVSPropertyOp1
 70
     1
102
RTVSPropertyOp2
 70
     1
102
RTVSPropertyOp3
 70
     1
102
RTVSPropertyOp4
 70
     1
102
RTVSPropertyOp5
 70
     1
102
RTVSPropertyOp6
 70
     1
102
RTVSPropertyOp7
 70
     1
102
RTVSPropertyOp8
 70
     1
102
RTVSPropertyOp9
 70
     1
102
RTVSPropertyOp10
 70
     1
102
RTVSPropertyOp11
 70
     1
102
RTVSPropertyOp12
 70
     1
102
RTVSPropertyOp13
 70
     1
102
RTVSPropertyOp14
 70
     1
102
RTVSPropertyOp15
 70
     1
102
RTVSPropertyOp16
 70
     1
102
RTVSPropertyOp17
 70
     1
102
RTVSPropertyOp18
 70
     1
102
RTVSPropertyOp19
 70
     1
102
RTVSPropertyOp20
 70
     1
102
RTVSPropertyOp21
 70
     1
102
RTVSPropertyOp22
 70
     1
102
RTVSPropertyOp23
 70
     1
102
RTVSPropertyOp24
 70
     1
102
RTVSPropertyOp25
 70
     1
102
RTVSPropertyOp26
 70
     1
102
RTVSPropertyOp27
 70
     1
102
RTVSPropertyOp28
 70
     1
102
RTVSPropertyOp29
 70
     1
102
RTVSPropertyOp30
 70
     1
102
RTVSPropertyOp31
 70
     1
102
RTVSPropertyOp32
 70
     1
102
RTVSPropertyOp33
 70
     1
102
RTVSPropertyOp34
 70
     1
102
RTVSPropertyOp35
 70
     1
102
RTVSPropertyOp36
 70
     1
102
RTVSPropertyOp37
 70
     1
102
RTVSPropertyOp38
 70
     1
102
RTVSPropertyOp39
 70
     1
102
RTVSPropertyOp40
 70
     1
102
RTVSPropertyOp41
 70
     1
102
RTVSPropertyOp42
 70
     1
102
RTVSPropertyOp43
 70
     1
102
RTVSPropertyOp44
 70
     1
102
RTVSPropertyOp45
 70
     1
102
RTVSPropertyOp46
 70
     1
102
RTVSPropertyOp47
 70
     1
102
RTVSPropertyOp48
 70
     1
102
RTVSPropertyOp49
 70
     1
102
RTVSPropertyOp50
 70
     1
102
RTVSPropertyOp51
 70
     0
102
RTVSPropertyOp52
 70
     0
102
RTVSPropertyOp53
 70
     1
102
RTVSPropertyOp54
 70
     1
102
RTVSPropertyOp55
 70
     1
102
RTVSPropertyOp56
 70
     1
102
RTVSPropertyOp57
 70
     1
102
RTVSPropertyOp58
 70
     1
102
RTVSPropertyOp59
 70
     1
102
RTVSPropertyOp60
 70
     1
102
RTVSPropertyOp61
 70
     1
102
RTVSPropertyOp62
 70
     1
  0
XRECORD
  5
3B8
102
{ACAD_REACTORS
330
3B7
102
}
330
3B7
100
AcDbXrecord
280
     1
102
RTVSPost2010Prop28
280
     0
102
RTVSPost2010PropOp28
 70
     1
102
RTVSPost2010Prop29
280
     1
102
RTVSPost2010PropOp29
 70
     1
102
RTVSPost2010Prop30
280
     1
102
RTVSPost2010PropOp30
 70
     1
102
RTVSPost2010Prop31
280
     0
102
RTVSPost2010PropOp31
 70
     1
102
RTVSPost2010Prop32
280
     0
102
RTVSPost2010PropOp32
 70
     1
102
RTVSPost2010Prop33
280
     0
102
RTVSPost2010PropOp33
 70
     1
102
RTVSPost2010Prop34
280
     0
102
RTVSPost2010PropOp34
 70
     1
102
RTVSPost2010Prop35
280
     0
102
RTVSPost2010PropOp35
 70
     1
102
RTVSPost2010Prop36
280
     0
102
RTVSPost2010PropOp36
 70
     1
102
RTVSPost2010Prop37
 90
       50
102
RTVSPost2010PropOp37
 70
     1
102
RTVSPost2010Prop38
140
0.0
102
RTVSPost2010PropOp38
 70
     1
102
RTVSPost2010Prop39
140
1.0
102
RTVSPost2010PropOp39
 70
     1
102
RTVSPost2010Prop40
 90
        0
102
RTVSPost2010PropOp40
 70
     1
102
RTVSPost2010Prop41ColorIndex
 90
       18
102
RTVSPost2010Prop41ColorRGB
 90
        0
102
RTVSPost2010PropOp41
 70
     1
102
RTVSPost2010Prop42
 90
       50
102
RTVSPost2010PropOp42
 70
     1
102
RTVSPost2010Prop43
 90
        3
102
RTVSPost2010PropOp43
 70
     1
102
RTVSPost2010Prop44ColorIndex
 90
        5
102
RTVSPost2010Prop44ColorRGB
 90
      255
102
RTVSPost2010PropOp44
 70
     1
102
RTVSPost2010Prop45
280
     0
102
RTVSPost2010PropOp45
 70
     1
102
RTVSPost2010Prop46
 90
       50
102
RTVSPost2010PropOp46
 70
     1
102
RTVSPost2010Prop47
 90
       50
102
RTVSPost2010PropOp47
 70
     1
102
RTVSPost2010Prop48
 90
       50
102
RTVSPost2010PropOp48
 70
     1
102
RTVSPost2010Prop49
280
     0
102
RTVSPost2010PropOp49
 70
     1
102
RTVSPost2010Prop50
 90
       50
102
RTVSPost2010PropOp50
 70
     1
102
RTVSPost2010Prop51ColorIndex
 90
      256
102
RTVSPost2010Prop51ColorRGB
 90
-16777216
102
RTVSPost2010PropOp51
 70
     0
102
RTVSPost2010Prop52
140
1.0
102
RTVSPost2010PropOp52
 70
     0
102
RTVSPost2010Prop53
 90
        2
102
RTVSPost2010PropOp53
 70
     1
102
RTVSPost2010Prop54
  1
strokes_ogs.tif
102
RTVSPost2010PropOp54
 70
     1
102
RTVSPost2010Prop55
280
     0
102
RTVSPost2010PropOp55
 70
     1
102
RTVSPost2010Prop56
140
1.0
102
RTVSPost2010PropOp56
 70
     1
102
RTVSPost2010Prop57
140
1.0
102
RTVSPost2010PropOp57
 70
     1
102
RTVSPropertyOp0
 70
     1
102
RTVSPropertyOp1
 70
     1
102
RTVSPropertyOp2
 70
     1
102
RTVSPropertyOp3
 70
     1
102
RTVSPropertyOp4
 70
     1
102
RTVSPropertyOp5
 70
     1
102
RTVSPropertyOp6
 70
     1
102
RTVSPropertyOp7
 70
     1
102
RTVSPropertyOp8
 70
     1
102
RTVSPropertyOp9
 70
     1
102
RTVSPropertyOp10
 70
     1
102
RTVSPropertyOp11
 70
     1
102
RTVSPropertyOp12
 70
     1
102
RTVSPropertyOp13
 70
     1
102
RTVSPropertyOp14
 70
     1
102
RTVSPropertyOp15
 70
     1
102
RTVSPropertyOp16
 70
     1
102
RTVSPropertyOp17
 70
     1
102
RTVSPropertyOp18
 70
     1
102
RTVSPropertyOp19
 70
     1
102
RTVSPropertyOp20
 70
     1
102
RTVSPropertyOp21
 70
     1
102
RTVSPropertyOp22
 70
     1
102
RTVSPropertyOp23
 70
     1
102
RTVSPropertyOp24
 70
     1
102
RTVSPropertyOp25
 70
     1
102
RTVSPropertyOp26
 70
     1
102
RTVSPropertyOp27
 70
     1
102
RTVSPropertyOp28
 70
     1
102
RTVSPropertyOp29
 70
     1
102
RTVSPropertyOp30
 70
     1
102
RTVSPropertyOp31
 70
     1
102
RTVSPropertyOp32
 70
     1
102
RTVSPropertyOp33
 70
     1
102
RTVSPropertyOp34
 70
     1
102
RTVSPropertyOp35
 70
     1
102
RTVSPropertyOp36
 70
     1
102
RTVSPropertyOp37
 70
     1
102
RTVSPropertyOp38
 70
     1
102
RTVSPropertyOp39
 70
     1
102
RTVSPropertyOp40
 70
     1
102
RTVSPropertyOp41
 70
     1
102
RTVSPropertyOp42
 70
     1
102
RTVSPropertyOp43
 70
     1
102
RTVSPropertyOp44
 70
     1
102
RTVSPropertyOp45
 70
     1
102
RTVSPropertyOp46
 70
     1
102
RTVSPropertyOp47
 70
     1
102
RTVSPropertyOp48
 70
     1
102
RTVSPropertyOp49
 70
     1
102
RTVSPropertyOp50
 70
     1
102
RTVSPropertyOp51
 70
     0
102
RTVSPropertyOp52
 70
     0
102
RTVSPropertyOp53
 70
     1
102
RTVSPropertyOp54
 70
     1
102
RTVSPropertyOp55
 70
     1
102
RTVSPropertyOp56
 70
     1
102
RTVSPropertyOp57
 70
     1
102
RTVSPropertyOp58
 70
     1
102
RTVSPropertyOp59
 70
     1
102
RTVSPropertyOp60
 70
     1
102
RTVSPropertyOp61
 70
     1
102
RTVSPropertyOp62
 70
     1
  0
XRECORD
  5
3BA
102
{ACAD_REACTORS
330
3B9
102
}
330
3B9
100
AcDbXrecord
280
     1
102
RTVSPost2010Prop28
280
     0
102
RTVSPost2010PropOp28
 70
     1
102
RTVSPost2010Prop29
280
     1
102
RTVSPost2010PropOp29
 70
     1
102
RTVSPost2010Prop30
280
     1
102
RTVSPost2010PropOp30
 70
     1
102
RTVSPost2010Prop31
280
     0
102
RTVSPost2010PropOp31
 70
     1
102
RTVSPost2010Prop32
280
     0
102
RTVSPost2010PropOp32
 70
     1
102
RTVSPost2010Prop33
280
     0
102
RTVSPost2010PropOp33
 70
     1
102
RTVSPost2010Prop34
280
     0
102
RTVSPost2010PropOp34
 70
     1
102
RTVSPost2010Prop35
280
     0
102
RTVSPost2010PropOp35
 70
     1
102
RTVSPost2010Prop36
280
     0
102
RTVSPost2010PropOp36
 70
     1
102
RTVSPost2010Prop37
 90
       50
102
RTVSPost2010PropOp37
 70
     1
102
RTVSPost2010Prop38
140
0.0
102
RTVSPost2010PropOp38
 70
     1
102
RTVSPost2010Prop39
140
1.0
102
RTVSPost2010PropOp39
 70
     1
102
RTVSPost2010Prop40
 90
        0
102
RTVSPost2010PropOp40
 70
     1
102
RTVSPost2010Prop41ColorIndex
 90
       18
102
RTVSPost2010Prop41ColorRGB
 90
        0
102
RTVSPost2010PropOp41
 70
     1
102
RTVSPost2010Prop42
 90
       50
102
RTVSPost2010PropOp42
 70
     1
102
RTVSPost2010Prop43
 90
        3
102
RTVSPost2010PropOp43
 70
     1
102
RTVSPost2010Prop44ColorIndex
 90
        5
102
RTVSPost2010Prop44ColorRGB
 90
      255
102
RTVSPost2010PropOp44
 70
     1
102
RTVSPost2010Prop45
280
     0
102
RTVSPost2010PropOp45
 70
     1
102
RTVSPost2010Prop46
 90
       50
102
RTVSPost2010PropOp46
 70
     1
102
RTVSPost2010Prop47
 90
       50
102
RTVSPost2010PropOp47
 70
     1
102
RTVSPost2010Prop48
 90
       50
102
RTVSPost2010PropOp48
 70
     1
102
RTVSPost2010Prop49
280
     0
102
RTVSPost2010PropOp49
 70
     1
102
RTVSPost2010Prop50
 90
       50
102
RTVSPost2010PropOp50
 70
     1
102
RTVSPost2010Prop51ColorIndex
 90
      256
102
RTVSPost2010Prop51ColorRGB
 90
-16777216
102
RTVSPost2010PropOp51
 70
     0
102
RTVSPost2010Prop52
140
1.0
102
RTVSPost2010PropOp52
 70
     0
102
RTVSPost2010Prop53
 90
        2
102
RTVSPost2010PropOp53
 70
     1
102
RTVSPost2010Prop54
  1
strokes_ogs.tif
102
RTVSPost2010PropOp54
 70
     1
102
RTVSPost2010Prop55
280
     0
102
RTVSPost2010PropOp55
 70
     1
102
RTVSPost2010Prop56
140
1.0
102
RTVSPost2010PropOp56
 70
     1
102
RTVSPost2010Prop57
140
1.0
102
RTVSPost2010PropOp57
 70
     1
102
RTVSPropertyOp0
 70
     1
102
RTVSPropertyOp1
 70
     1
102
RTVSPropertyOp2
 70
     1
102
RTVSPropertyOp3
 70
     1
102
RTVSPropertyOp4
 70
     1
102
RTVSPropertyOp5
 70
     1
102
RTVSPropertyOp6
 70
     1
102
RTVSPropertyOp7
 70
     1
102
RTVSPropertyOp8
 70
     1
102
RTVSPropertyOp9
 70
     1
102
RTVSPropertyOp10
 70
     1
102
RTVSPropertyOp11
 70
     1
102
RTVSPropertyOp12
 70
     1
102
RTVSPropertyOp13
 70
     1
102
RTVSPropertyOp14
 70
     1
102
RTVSPropertyOp15
 70
     1
102
RTVSPropertyOp16
 70
     1
102
RTVSPropertyOp17
 70
     1
102
RTVSPropertyOp18
 70
     1
102
RTVSPropertyOp19
 70
     1
102
RTVSPropertyOp20
 70
     1
102
RTVSPropertyOp21
 70
     1
102
RTVSPropertyOp22
 70
     1
102
RTVSPropertyOp23
 70
     1
102
RTVSPropertyOp24
 70
     1
102
RTVSPropertyOp25
 70
     1
102
RTVSPropertyOp26
 70
     1
102
RTVSPropertyOp27
 70
     1
102
RTVSPropertyOp28
 70
     1
102
RTVSPropertyOp29
 70
     1
102
RTVSPropertyOp30
 70
     1
102
RTVSPropertyOp31
 70
     1
102
RTVSPropertyOp32
 70
     1
102
RTVSPropertyOp33
 70
     1
102
RTVSPropertyOp34
 70
     1
102
RTVSPropertyOp35
 70
     1
102
RTVSPropertyOp36
 70
     1
102
RTVSPropertyOp37
 70
     1
102
RTVSPropertyOp38
 70
     1
102
RTVSPropertyOp39
 70
     1
102
RTVSPropertyOp40
 70
     1
102
RTVSPropertyOp41
 70
     1
102
RTVSPropertyOp42
 70
     1
102
RTVSPropertyOp43
 70
     1
102
RTVSPropertyOp44
 70
     1
102
RTVSPropertyOp45
 70
     1
102
RTVSPropertyOp46
 70
     1
102
RTVSPropertyOp47
 70
     1
102
RTVSPropertyOp48
 70
     1
102
RTVSPropertyOp49
 70
     1
102
RTVSPropertyOp50
 70
     1
102
RTVSPropertyOp51
 70
     0
102
RTVSPropertyOp52
 70
     0
102
RTVSPropertyOp53
 70
     1
102
RTVSPropertyOp54
 70
     1
102
RTVSPropertyOp55
 70
     1
102
RTVSPropertyOp56
 70
     1
102
RTVSPropertyOp57
 70
     1
102
RTVSPropertyOp58
 70
     1
102
RTVSPropertyOp59
 70
     1
102
RTVSPropertyOp60
 70
     1
102
RTVSPropertyOp61
 70
     1
102
RTVSPropertyOp62
 70
     1
  0
XRECORD
  5
3C0
102
{ACAD_REACTORS
330
3BF
102
}
330
3BF
100
AcDbXrecord
280
     1
102
RTVSPost2010Prop28
280
     0
102
RTVSPost2010PropOp28
 70
     1
102
RTVSPost2010Prop29
280
     1
102
RTVSPost2010PropOp29
 70
     1
102
RTVSPost2010Prop30
280
     1
102
RTVSPost2010PropOp30
 70
     1
102
RTVSPost2010Prop31
280
     0
102
RTVSPost2010PropOp31
 70
     1
102
RTVSPost2010Prop32
280
     0
102
RTVSPost2010PropOp32
 70
     1
102
RTVSPost2010Prop33
280
     0
102
RTVSPost2010PropOp33
 70
     1
102
RTVSPost2010Prop34
280
     0
102
RTVSPost2010PropOp34
 70
     1
102
RTVSPost2010Prop35
280
     0
102
RTVSPost2010PropOp35
 70
     1
102
RTVSPost2010Prop36
280
     0
102
RTVSPost2010PropOp36
 70
     1
102
RTVSPost2010Prop37
 90
       50
102
RTVSPost2010PropOp37
 70
     1
102
RTVSPost2010Prop38
140
0.0
102
RTVSPost2010PropOp38
 70
     1
102
RTVSPost2010Prop39
140
1.0
102
RTVSPost2010PropOp39
 70
     1
102
RTVSPost2010Prop40
 90
        0
102
RTVSPost2010PropOp40
 70
     1
102
RTVSPost2010Prop41ColorIndex
 90
       18
102
RTVSPost2010Prop41ColorRGB
 90
        0
102
RTVSPost2010PropOp41
 70
     1
102
RTVSPost2010Prop42
 90
       50
102
RTVSPost2010PropOp42
 70
     1
102
RTVSPost2010Prop43
 90
        3
102
RTVSPost2010PropOp43
 70
     1
102
RTVSPost2010Prop44ColorIndex
 90
        5
102
RTVSPost2010Prop44ColorRGB
 90
      255
102
RTVSPost2010PropOp44
 70
     1
102
RTVSPost2010Prop45
280
     0
102
RTVSPost2010PropOp45
 70
     1
102
RTVSPost2010Prop46
 90
       50
102
RTVSPost2010PropOp46
 70
     1
102
RTVSPost2010Prop47
 90
       50
102
RTVSPost2010PropOp47
 70
     1
102
RTVSPost2010Prop48
 90
       50
102
RTVSPost2010PropOp48
 70
     1
102
RTVSPost2010Prop49
280
     0
102
RTVSPost2010PropOp49
 70
     1
102
RTVSPost2010Prop50
 90
       50
102
RTVSPost2010PropOp50
 70
     1
102
RTVSPost2010Prop51ColorIndex
 90
      256
102
RTVSPost2010Prop51ColorRGB
 90
-16777216
102
RTVSPost2010PropOp51
 70
     0
102
RTVSPost2010Prop52
140
1.0
102
RTVSPost2010PropOp52
 70
     0
102
RTVSPost2010Prop53
 90
        2
102
RTVSPost2010PropOp53
 70
     1
102
RTVSPost2010Prop54
  1
strokes_ogs.tif
102
RTVSPost2010PropOp54
 70
     1
102
RTVSPost2010Prop55
280
     0
102
RTVSPost2010PropOp55
 70
     1
102
RTVSPost2010Prop56
140
1.0
102
RTVSPost2010PropOp56
 70
     1
102
RTVSPost2010Prop57
140
1.0
102
RTVSPost2010PropOp57
 70
     1
102
RTVSPropertyOp0
 70
     1
102
RTVSPropertyOp1
 70
     1
102
RTVSPropertyOp2
 70
     1
102
RTVSPropertyOp3
 70
     1
102
RTVSPropertyOp4
 70
     1
102
RTVSPropertyOp5
 70
     1
102
RTVSPropertyOp6
 70
     1
102
RTVSPropertyOp7
 70
     1
102
RTVSPropertyOp8
 70
     1
102
RTVSPropertyOp9
 70
     1
102
RTVSPropertyOp10
 70
     1
102
RTVSPropertyOp11
 70
     1
102
RTVSPropertyOp12
 70
     1
102
RTVSPropertyOp13
 70
     1
102
RTVSPropertyOp14
 70
     1
102
RTVSPropertyOp15
 70
     1
102
RTVSPropertyOp16
 70
     1
102
RTVSPropertyOp17
 70
     1
102
RTVSPropertyOp18
 70
     1
102
RTVSPropertyOp19
 70
     1
102
RTVSPropertyOp20
 70
     1
102
RTVSPropertyOp21
 70
     1
102
RTVSPropertyOp22
 70
     1
102
RTVSPropertyOp23
 70
     1
102
RTVSPropertyOp24
 70
     1
102
RTVSPropertyOp25
 70
     1
102
RTVSPropertyOp26
 70
     1
102
RTVSPropertyOp27
 70
     1
102
RTVSPropertyOp28
 70
     1
102
RTVSPropertyOp29
 70
     1
102
RTVSPropertyOp30
 70
     1
102
RTVSPropertyOp31
 70
     1
102
RTVSPropertyOp32
 70
     1
102
RTVSPropertyOp33
 70
     1
102
RTVSPropertyOp34
 70
     1
102
RTVSPropertyOp35
 70
     1
102
RTVSPropertyOp36
 70
     1
102
RTVSPropertyOp37
 70
     1
102
RTVSPropertyOp38
 70
     1
102
RTVSPropertyOp39
 70
     1
102
RTVSPropertyOp40
 70
     1
102
RTVSPropertyOp41
 70
     1
102
RTVSPropertyOp42
 70
     1
102
RTVSPropertyOp43
 70
     1
102
RTVSPropertyOp44
 70
     1
102
RTVSPropertyOp45
 70
     1
102
RTVSPropertyOp46
 70
     1
102
RTVSPropertyOp47
 70
     1
102
RTVSPropertyOp48
 70
     1
102
RTVSPropertyOp49
 70
     1
102
RTVSPropertyOp50
 70
     1
102
RTVSPropertyOp51
 70
     0
102
RTVSPropertyOp52
 70
     0
102
RTVSPropertyOp53
 70
     1
102
RTVSPropertyOp54
 70
     1
102
RTVSPropertyOp55
 70
     1
102
RTVSPropertyOp56
 70
     1
102
RTVSPropertyOp57
 70
     1
102
RTVSPropertyOp58
 70
     1
102
RTVSPropertyOp59
 70
     1
102
RTVSPropertyOp60
 70
     1
102
RTVSPropertyOp61
 70
     1
102
RTVSPropertyOp62
 70
     1
  0
XRECORD
  5
3D4
102
{ACAD_REACTORS
330
3D3
102
}
330
3D3
100
AcDbXrecord
280
     1
102
RTVSPost2010Prop28
280
     0
102
RTVSPost2010PropOp28
 70
     0
102
RTVSPost2010Prop29
280
     1
102
RTVSPost2010PropOp29
 70
     0
102
RTVSPost2010Prop30
280
     1
102
RTVSPost2010PropOp30
 70
     0
102
RTVSPost2010Prop31
280
     0
102
RTVSPost2010PropOp31
 70
     0
102
RTVSPost2010Prop32
280
     0
102
RTVSPost2010PropOp32
 70
     0
102
RTVSPost2010Prop33
280
     0
102
RTVSPost2010PropOp33
 70
     0
102
RTVSPost2010Prop34
280
     0
102
RTVSPost2010PropOp34
 70
     0
102
RTVSPost2010Prop35
280
     0
102
RTVSPost2010PropOp35
 70
     0
102
RTVSPost2010Prop36
280
     0
102
RTVSPost2010PropOp36
 70
     0
102
RTVSPost2010Prop37
 90
       50
102
RTVSPost2010PropOp37
 70
     0
102
RTVSPost2010Prop38
140
0.0
102
RTVSPost2010PropOp38
 70
     0
102
RTVSPost2010Prop39
140
1.0
102
RTVSPost2010PropOp39
 70
     0
102
RTVSPost2010Prop40
 90
        0
102
RTVSPost2010PropOp40
 70
     0
102
RTVSPost2010Prop41ColorIndex
 90
       18
102
RTVSPost2010Prop41ColorRGB
 90
        0
102
RTVSPost2010PropOp41
 70
     0
102
RTVSPost2010Prop42
 90
       50
102
RTVSPost2010PropOp42
 70
     0
102
RTVSPost2010Prop43
 90
        3
102
RTVSPost2010PropOp43
 70
     0
102
RTVSPost2010Prop44ColorIndex
 90
        5
102
RTVSPost2010Prop44ColorRGB
 90
      255
102
RTVSPost2010PropOp44
 70
     0
102
RTVSPost2010Prop45
280
     0
102
RTVSPost2010PropOp45
 70
     0
102
RTVSPost2010Prop46
 90
       50
102
RTVSPost2010PropOp46
 70
     0
102
RTVSPost2010Prop47
 90
       50
102
RTVSPost2010PropOp47
 70
     0
102
RTVSPost2010Prop48
 90
       50
102
RTVSPost2010PropOp48
 70
     0
102
RTVSPost2010Prop49
280
     0
102
RTVSPost2010PropOp49
 70
     0
102
RTVSPost2010Prop50
 90
       50
102
RTVSPost2010PropOp50
 70
     0
102
RTVSPost2010Prop51ColorIndex
 90
      256
102
RTVSPost2010Prop51ColorRGB
 90
-16777216
102
RTVSPost2010PropOp51
 70
     0
102
RTVSPost2010Prop52
140
1.0
102
RTVSPost2010PropOp52
 70
     0
102
RTVSPost2010Prop53
 90
        2
102
RTVSPost2010PropOp53
 70
     0
102
RTVSPost2010Prop54
  1
strokes_ogs.tif
102
RTVSPost2010PropOp54
 70
     0
102
RTVSPost2010Prop55
280
     0
102
RTVSPost2010PropOp55
 70
     0
102
RTVSPost2010Prop56
140
1.0
102
RTVSPost2010PropOp56
 70
     0
102
RTVSPost2010Prop57
140
1.0
102
RTVSPost2010PropOp57
 70
     0
102
RTVSPropertyOp0
 70
     0
102
RTVSPropertyOp1
 70
     0
102
RTVSPropertyOp2
 70
     0
102
RTVSPropertyOp3
 70
     0
102
RTVSPropertyOp4
 70
     0
102
RTVSPropertyOp5
 70
     0
102
RTVSPropertyOp6
 70
     0
102
RTVSPropertyOp7
 70
     0
102
RTVSPropertyOp8
 70
     0
102
RTVSPropertyOp9
 70
     0
102
RTVSPropertyOp10
 70
     0
102
RTVSPropertyOp11
 70
     0
102
RTVSPropertyOp12
 70
     0
102
RTVSPropertyOp13
 70
     0
102
RTVSPropertyOp14
 70
     2
102
RTVSPropertyOp15
 70
     0
102
RTVSPropertyOp16
 70
     0
102
RTVSPropertyOp17
 70
     0
102
RTVSPropertyOp18
 70
     0
102
RTVSPropertyOp19
 70
     0
102
RTVSPropertyOp20
 70
     0
102
RTVSPropertyOp21
 70
     0
102
RTVSPropertyOp22
 70
     0
102
RTVSPropertyOp23
 70
     0
102
RTVSPropertyOp24
 70
     0
102
RTVSPropertyOp25
 70
     0
102
RTVSPropertyOp26
 70
     0
102
RTVSPropertyOp27
 70
     0
102
RTVSPropertyOp28
 70
     0
102
RTVSPropertyOp29
 70
     0
102
RTVSPropertyOp30
 70
     0
102
RTVSPropertyOp31
 70
     0
102
RTVSPropertyOp32
 70
     0
102
RTVSPropertyOp33
 70
     0
102
RTVSPropertyOp34
 70
     0
102
RTVSPropertyOp35
 70
     0
102
RTVSPropertyOp36
 70
     0
102
RTVSPropertyOp37
 70
     0
102
RTVSPropertyOp38
 70
     0
102
RTVSPropertyOp39
 70
     0
102
RTVSPropertyOp40
 70
     0
102
RTVSPropertyOp41
 70
     0
102
RTVSPropertyOp42
 70
     0
102
RTVSPropertyOp43
 70
     0
102
RTVSPropertyOp44
 70
     0
102
RTVSPropertyOp45
 70
     0
102
RTVSPropertyOp46
 70
     0
102
RTVSPropertyOp47
 70
     0
102
RTVSPropertyOp48
 70
     0
102
RTVSPropertyOp49
 70
     0
102
RTVSPropertyOp50
 70
     0
102
RTVSPropertyOp51
 70
     0
102
RTVSPropertyOp52
 70
     0
102
RTVSPropertyOp53
 70
     0
102
RTVSPropertyOp54
 70
     0
102
RTVSPropertyOp55
 70
     0
102
RTVSPropertyOp56
 70
     0
102
RTVSPropertyOp57
 70
     0
102
RTVSPropertyOp58
 70
     1
102
RTVSPropertyOp59
 70
     1
102
RTVSPropertyOp60
 70
     1
102
RTVSPropertyOp61
 70
     1
102
RTVSPropertyOp62
 70
     1
  0
XRECORD
  5
3CE
102
{ACAD_REACTORS
330
3CD
102
}
330
3CD
100
AcDbXrecord
280
     1
102
RTVSPost2010Prop28
280
     0
102
RTVSPost2010PropOp28
 70
     1
102
RTVSPost2010Prop29
280
     1
102
RTVSPost2010PropOp29
 70
     1
102
RTVSPost2010Prop30
280
     1
102
RTVSPost2010PropOp30
 70
     1
102
RTVSPost2010Prop31
280
     0
102
RTVSPost2010PropOp31
 70
     1
102
RTVSPost2010Prop32
280
     0
102
RTVSPost2010PropOp32
 70
     1
102
RTVSPost2010Prop33
280
     0
102
RTVSPost2010PropOp33
 70
     1
102
RTVSPost2010Prop34
280
     0
102
RTVSPost2010PropOp34
 70
     1
102
RTVSPost2010Prop35
280
     0
102
RTVSPost2010PropOp35
 70
     1
102
RTVSPost2010Prop36
280
     0
102
RTVSPost2010PropOp36
 70
     1
102
RTVSPost2010Prop37
 90
       50
102
RTVSPost2010PropOp37
 70
     1
102
RTVSPost2010Prop38
140
0.0
102
RTVSPost2010PropOp38
 70
     1
102
RTVSPost2010Prop39
140
1.0
102
RTVSPost2010PropOp39
 70
     1
102
RTVSPost2010Prop40
 90
        0
102
RTVSPost2010PropOp40
 70
     1
102
RTVSPost2010Prop41ColorIndex
 90
       18
102
RTVSPost2010Prop41ColorRGB
 90
        0
102
RTVSPost2010PropOp41
 70
     1
102
RTVSPost2010Prop42
 90
       50
102
RTVSPost2010PropOp42
 70
     1
102
RTVSPost2010Prop43
 90
        3
102
RTVSPost2010PropOp43
 70
     1
102
RTVSPost2010Prop44ColorIndex
 90
        5
102
RTVSPost2010Prop44ColorRGB
 90
      255
102
RTVSPost2010PropOp44
 70
     1
102
RTVSPost2010Prop45
280
     0
102
RTVSPost2010PropOp45
 70
     1
102
RTVSPost2010Prop46
 90
       50
102
RTVSPost2010PropOp46
 70
     1
102
RTVSPost2010Prop47
 90
       50
102
RTVSPost2010PropOp47
 70
     1
102
RTVSPost2010Prop48
 90
       50
102
RTVSPost2010PropOp48
 70
     1
102
RTVSPost2010Prop49
280
     0
102
RTVSPost2010PropOp49
 70
     1
102
RTVSPost2010Prop50
 90
       50
102
RTVSPost2010PropOp50
 70
     1
102
RTVSPost2010Prop51ColorIndex
 90
      256
102
RTVSPost2010Prop51ColorRGB
 90
-16777216
102
RTVSPost2010PropOp51
 70
     0
102
RTVSPost2010Prop52
140
1.0
102
RTVSPost2010PropOp52
 70
     0
102
RTVSPost2010Prop53
 90
        2
102
RTVSPost2010PropOp53
 70
     1
102
RTVSPost2010Prop54
  1
strokes_ogs.tif
102
RTVSPost2010PropOp54
 70
     1
102
RTVSPost2010Prop55
280
     0
102
RTVSPost2010PropOp55
 70
     1
102
RTVSPost2010Prop56
140
1.0
102
RTVSPost2010PropOp56
 70
     1
102
RTVSPost2010Prop57
140
1.0
102
RTVSPost2010PropOp57
 70
     1
102
RTVSPropertyOp0
 70
     1
102
RTVSPropertyOp1
 70
     1
102
RTVSPropertyOp2
 70
     1
102
RTVSPropertyOp3
 70
     1
102
RTVSPropertyOp4
 70
     1
102
RTVSPropertyOp5
 70
     1
102
RTVSPropertyOp6
 70
     1
102
RTVSPropertyOp7
 70
     1
102
RTVSPropertyOp8
 70
     1
102
RTVSPropertyOp9
 70
     1
102
RTVSPropertyOp10
 70
     1
102
RTVSPropertyOp11
 70
     1
102
RTVSPropertyOp12
 70
     1
102
RTVSPropertyOp13
 70
     1
102
RTVSPropertyOp14
 70
     1
102
RTVSPropertyOp15
 70
     1
102
RTVSPropertyOp16
 70
     1
102
RTVSPropertyOp17
 70
     1
102
RTVSPropertyOp18
 70
     1
102
RTVSPropertyOp19
 70
     1
102
RTVSPropertyOp20
 70
     1
102
RTVSPropertyOp21
 70
     1
102
RTVSPropertyOp22
 70
     1
102
RTVSPropertyOp23
 70
     1
102
RTVSPropertyOp24
 70
     1
102
RTVSPropertyOp25
 70
     1
102
RTVSPropertyOp26
 70
     1
102
RTVSPropertyOp27
 70
     1
102
RTVSPropertyOp28
 70
     1
102
RTVSPropertyOp29
 70
     1
102
RTVSPropertyOp30
 70
     1
102
RTVSPropertyOp31
 70
     1
102
RTVSPropertyOp32
 70
     1
102
RTVSPropertyOp33
 70
     1
102
RTVSPropertyOp34
 70
     1
102
RTVSPropertyOp35
 70
     1
102
RTVSPropertyOp36
 70
     1
102
RTVSPropertyOp37
 70
     1
102
RTVSPropertyOp38
 70
     1
102
RTVSPropertyOp39
 70
     1
102
RTVSPropertyOp40
 70
     1
102
RTVSPropertyOp41
 70
     1
102
RTVSPropertyOp42
 70
     1
102
RTVSPropertyOp43
 70
     1
102
RTVSPropertyOp44
 70
     1
102
RTVSPropertyOp45
 70
     1
102
RTVSPropertyOp46
 70
     1
102
RTVSPropertyOp47
 70
     1
102
RTVSPropertyOp48
 70
     1
102
RTVSPropertyOp49
 70
     1
102
RTVSPropertyOp50
 70
     1
102
RTVSPropertyOp51
 70
     0
102
RTVSPropertyOp52
 70
     0
102
RTVSPropertyOp53
 70
     1
102
RTVSPropertyOp54
 70
     1
102
RTVSPropertyOp55
 70
     1
102
RTVSPropertyOp56
 70
     1
102
RTVSPropertyOp57
 70
     1
102
RTVSPropertyOp58
 70
     1
102
RTVSPropertyOp59
 70
     1
102
RTVSPropertyOp60
 70
     1
102
RTVSPropertyOp61
 70
     1
102
RTVSPropertyOp62
 70
     1
  0
XRECORD
  5
3D6
102
{ACAD_REACTORS
330
3D5
102
}
330
3D5
100
AcDbXrecord
280
     1
102
RTVSPost2010Prop28
280
     0
102
RTVSPost2010PropOp28
 70
     0
102
RTVSPost2010Prop29
280
     1
102
RTVSPost2010PropOp29
 70
     0
102
RTVSPost2010Prop30
280
     1
102
RTVSPost2010PropOp30
 70
     0
102
RTVSPost2010Prop31
280
     0
102
RTVSPost2010PropOp31
 70
     0
102
RTVSPost2010Prop32
280
     0
102
RTVSPost2010PropOp32
 70
     0
102
RTVSPost2010Prop33
280
     0
102
RTVSPost2010PropOp33
 70
     0
102
RTVSPost2010Prop34
280
     0
102
RTVSPost2010PropOp34
 70
     0
102
RTVSPost2010Prop35
280
     0
102
RTVSPost2010PropOp35
 70
     0
102
RTVSPost2010Prop36
280
     0
102
RTVSPost2010PropOp36
 70
     0
102
RTVSPost2010Prop37
 90
       50
102
RTVSPost2010PropOp37
 70
     0
102
RTVSPost2010Prop38
140
0.0
102
RTVSPost2010PropOp38
 70
     0
102
RTVSPost2010Prop39
140
1.0
102
RTVSPost2010PropOp39
 70
     0
102
RTVSPost2010Prop40
 90
        0
102
RTVSPost2010PropOp40
 70
     0
102
RTVSPost2010Prop41ColorIndex
 90
       18
102
RTVSPost2010Prop41ColorRGB
 90
        0
102
RTVSPost2010PropOp41
 70
     0
102
RTVSPost2010Prop42
 90
       50
102
RTVSPost2010PropOp42
 70
     0
102
RTVSPost2010Prop43
 90
        3
102
RTVSPost2010PropOp43
 70
     0
102
RTVSPost2010Prop44ColorIndex
 90
        5
102
RTVSPost2010Prop44ColorRGB
 90
      255
102
RTVSPost2010PropOp44
 70
     0
102
RTVSPost2010Prop45
280
     0
102
RTVSPost2010PropOp45
 70
     0
102
RTVSPost2010Prop46
 90
       50
102
RTVSPost2010PropOp46
 70
     0
102
RTVSPost2010Prop47
 90
       50
102
RTVSPost2010PropOp47
 70
     0
102
RTVSPost2010Prop48
 90
       50
102
RTVSPost2010PropOp48
 70
     0
102
RTVSPost2010Prop49
280
     0
102
RTVSPost2010PropOp49
 70
     0
102
RTVSPost2010Prop50
 90
       50
102
RTVSPost2010PropOp50
 70
     0
102
RTVSPost2010Prop51ColorIndex
 90
      256
102
RTVSPost2010Prop51ColorRGB
 90
-16777216
102
RTVSPost2010PropOp51
 70
     0
102
RTVSPost2010Prop52
140
1.0
102
RTVSPost2010PropOp52
 70
     0
102
RTVSPost2010Prop53
 90
        2
102
RTVSPost2010PropOp53
 70
     0
102
RTVSPost2010Prop54
  1
strokes_ogs.tif
102
RTVSPost2010PropOp54
 70
     0
102
RTVSPost2010Prop55
280
     0
102
RTVSPost2010PropOp55
 70
     0
102
RTVSPost2010Prop56
140
1.0
102
RTVSPost2010PropOp56
 70
     0
102
RTVSPost2010Prop57
140
1.0
102
RTVSPost2010PropOp57
 70
     0
102
RTVSPropertyOp0
 70
     0
102
RTVSPropertyOp1
 70
     0
102
RTVSPropertyOp2
 70
     0
102
RTVSPropertyOp3
 70
     0
102
RTVSPropertyOp4
 70
     0
102
RTVSPropertyOp5
 70
     0
102
RTVSPropertyOp6
 70
     0
102
RTVSPropertyOp7
 70
     0
102
RTVSPropertyOp8
 70
     0
102
RTVSPropertyOp9
 70
     0
102
RTVSPropertyOp10
 70
     0
102
RTVSPropertyOp11
 70
     0
102
RTVSPropertyOp12
 70
     0
102
RTVSPropertyOp13
 70
     0
102
RTVSPropertyOp14
 70
     2
102
RTVSPropertyOp15
 70
     0
102
RTVSPropertyOp16
 70
     0
102
RTVSPropertyOp17
 70
     0
102
RTVSPropertyOp18
 70
     0
102
RTVSPropertyOp19
 70
     0
102
RTVSPropertyOp20
 70
     0
102
RTVSPropertyOp21
 70
     0
102
RTVSPropertyOp22
 70
     0
102
RTVSPropertyOp23
 70
     0
102
RTVSPropertyOp24
 70
     0
102
RTVSPropertyOp25
 70
     0
102
RTVSPropertyOp26
 70
     0
102
RTVSPropertyOp27
 70
     0
102
RTVSPropertyOp28
 70
     0
102
RTVSPropertyOp29
 70
     0
102
RTVSPropertyOp30
 70
     0
102
RTVSPropertyOp31
 70
     0
102
RTVSPropertyOp32
 70
     0
102
RTVSPropertyOp33
 70
     0
102
RTVSPropertyOp34
 70
     0
102
RTVSPropertyOp35
 70
     0
102
RTVSPropertyOp36
 70
     0
102
RTVSPropertyOp37
 70
     0
102
RTVSPropertyOp38
 70
     0
102
RTVSPropertyOp39
 70
     0
102
RTVSPropertyOp40
 70
     0
102
RTVSPropertyOp41
 70
     0
102
RTVSPropertyOp42
 70
     0
102
RTVSPropertyOp43
 70
     0
102
RTVSPropertyOp44
 70
     0
102
RTVSPropertyOp45
 70
     0
102
RTVSPropertyOp46
 70
     0
102
RTVSPropertyOp47
 70
     0
102
RTVSPropertyOp48
 70
     0
102
RTVSPropertyOp49
 70
     0
102
RTVSPropertyOp50
 70
     0
102
RTVSPropertyOp51
 70
     0
102
RTVSPropertyOp52
 70
     0
102
RTVSPropertyOp53
 70
     0
102
RTVSPropertyOp54
 70
     0
102
RTVSPropertyOp55
 70
     0
102
RTVSPropertyOp56
 70
     0
102
RTVSPropertyOp57
 70
     0
102
RTVSPropertyOp58
 70
     1
102
RTVSPropertyOp59
 70
     1
102
RTVSPropertyOp60
 70
     1
102
RTVSPropertyOp61
 70
     1
102
RTVSPropertyOp62
 70
     1
  0
XRECORD
  5
3C4
102
{ACAD_REACTORS
330
3C3
102
}
330
3C3
100
AcDbXrecord
280
     1
102
RTVSPost2010Prop28
280
     0
102
RTVSPost2010PropOp28
 70
     1
102
RTVSPost2010Prop29
280
     1
102
RTVSPost2010PropOp29
 70
     1
102
RTVSPost2010Prop30
280
     1
102
RTVSPost2010PropOp30
 70
     1
102
RTVSPost2010Prop31
280
     0
102
RTVSPost2010PropOp31
 70
     1
102
RTVSPost2010Prop32
280
     0
102
RTVSPost2010PropOp32
 70
     1
102
RTVSPost2010Prop33
280
     0
102
RTVSPost2010PropOp33
 70
     1
102
RTVSPost2010Prop34
280
     0
102
RTVSPost2010PropOp34
 70
     1
102
RTVSPost2010Prop35
280
     0
102
RTVSPost2010PropOp35
 70
     1
102
RTVSPost2010Prop36
280
     0
102
RTVSPost2010PropOp36
 70
     1
102
RTVSPost2010Prop37
 90
       50
102
RTVSPost2010PropOp37
 70
     1
102
RTVSPost2010Prop38
140
0.0
102
RTVSPost2010PropOp38
 70
     1
102
RTVSPost2010Prop39
140
1.0
102
RTVSPost2010PropOp39
 70
     1
102
RTVSPost2010Prop40
 90
        0
102
RTVSPost2010PropOp40
 70
     1
102
RTVSPost2010Prop41ColorIndex
 90
       18
102
RTVSPost2010Prop41ColorRGB
 90
        0
102
RTVSPost2010PropOp41
 70
     1
102
RTVSPost2010Prop42
 90
       50
102
RTVSPost2010PropOp42
 70
     1
102
RTVSPost2010Prop43
 90
        3
102
RTVSPost2010PropOp43
 70
     1
102
RTVSPost2010Prop44ColorIndex
 90
        5
102
RTVSPost2010Prop44ColorRGB
 90
      255
102
RTVSPost2010PropOp44
 70
     1
102
RTVSPost2010Prop45
280
     0
102
RTVSPost2010PropOp45
 70
     1
102
RTVSPost2010Prop46
 90
       50
102
RTVSPost2010PropOp46
 70
     1
102
RTVSPost2010Prop47
 90
       50
102
RTVSPost2010PropOp47
 70
     1
102
RTVSPost2010Prop48
 90
       50
102
RTVSPost2010PropOp48
 70
     1
102
RTVSPost2010Prop49
280
     0
102
RTVSPost2010PropOp49
 70
     1
102
RTVSPost2010Prop50
 90
       50
102
RTVSPost2010PropOp50
 70
     1
102
RTVSPost2010Prop51ColorIndex
 90
      256
102
RTVSPost2010Prop51ColorRGB
 90
-16777216
102
RTVSPost2010PropOp51
 70
     0
102
RTVSPost2010Prop52
140
1.0
102
RTVSPost2010PropOp52
 70
     0
102
RTVSPost2010Prop53
 90
        2
102
RTVSPost2010PropOp53
 70
     1
102
RTVSPost2010Prop54
  1
strokes_ogs.tif
102
RTVSPost2010PropOp54
 70
     1
102
RTVSPost2010Prop55
280
     0
102
RTVSPost2010PropOp55
 70
     1
102
RTVSPost2010Prop56
140
1.0
102
RTVSPost2010PropOp56
 70
     1
102
RTVSPost2010Prop57
140
1.0
102
RTVSPost2010PropOp57
 70
     1
102
RTVSPropertyOp0
 70
     1
102
RTVSPropertyOp1
 70
     1
102
RTVSPropertyOp2
 70
     1
102
RTVSPropertyOp3
 70
     1
102
RTVSPropertyOp4
 70
     1
102
RTVSPropertyOp5
 70
     1
102
RTVSPropertyOp6
 70
     1
102
RTVSPropertyOp7
 70
     1
102
RTVSPropertyOp8
 70
     1
102
RTVSPropertyOp9
 70
     1
102
RTVSPropertyOp10
 70
     1
102
RTVSPropertyOp11
 70
     1
102
RTVSPropertyOp12
 70
     1
102
RTVSPropertyOp13
 70
     1
102
RTVSPropertyOp14
 70
     1
102
RTVSPropertyOp15
 70
     1
102
RTVSPropertyOp16
 70
     1
102
RTVSPropertyOp17
 70
     1
102
RTVSPropertyOp18
 70
     1
102
RTVSPropertyOp19
 70
     1
102
RTVSPropertyOp20
 70
     1
102
RTVSPropertyOp21
 70
     1
102
RTVSPropertyOp22
 70
     1
102
RTVSPropertyOp23
 70
     1
102
RTVSPropertyOp24
 70
     1
102
RTVSPropertyOp25
 70
     1
102
RTVSPropertyOp26
 70
     1
102
RTVSPropertyOp27
 70
     1
102
RTVSPropertyOp28
 70
     1
102
RTVSPropertyOp29
 70
     1
102
RTVSPropertyOp30
 70
     1
102
RTVSPropertyOp31
 70
     1
102
RTVSPropertyOp32
 70
     1
102
RTVSPropertyOp33
 70
     1
102
RTVSPropertyOp34
 70
     1
102
RTVSPropertyOp35
 70
     1
102
RTVSPropertyOp36
 70
     1
102
RTVSPropertyOp37
 70
     1
102
RTVSPropertyOp38
 70
     1
102
RTVSPropertyOp39
 70
     1
102
RTVSPropertyOp40
 70
     1
102
RTVSPropertyOp41
 70
     1
102
RTVSPropertyOp42
 70
     1
102
RTVSPropertyOp43
 70
     1
102
RTVSPropertyOp44
 70
     1
102
RTVSPropertyOp45
 70
     1
102
RTVSPropertyOp46
 70
     1
102
RTVSPropertyOp47
 70
     1
102
RTVSPropertyOp48
 70
     1
102
RTVSPropertyOp49
 70
     1
102
RTVSPropertyOp50
 70
     1
102
RTVSPropertyOp51
 70
     0
102
RTVSPropertyOp52
 70
     0
102
RTVSPropertyOp53
 70
     1
102
RTVSPropertyOp54
 70
     1
102
RTVSPropertyOp55
 70
     1
102
RTVSPropertyOp56
 70
     1
102
RTVSPropertyOp57
 70
     1
102
RTVSPropertyOp58
 70
     1
102
RTVSPropertyOp59
 70
     1
102
RTVSPropertyOp60
 70
     1
102
RTVSPropertyOp61
 70
     1
102
RTVSPropertyOp62
 70
     1
  0
XRECORD
  5
3E2
102
{ACAD_REACTORS
330
3E1
102
}
330
3E1
100
AcDbXrecord
280
     1
102
RTVSPost2010Prop28
280
     0
102
RTVSPost2010PropOp28
 70
     1
102
RTVSPost2010Prop29
280
     1
102
RTVSPost2010PropOp29
 70
     1
102
RTVSPost2010Prop30
280
     1
102
RTVSPost2010PropOp30
 70
     1
102
RTVSPost2010Prop31
280
     0
102
RTVSPost2010PropOp31
 70
     1
102
RTVSPost2010Prop32
280
     0
102
RTVSPost2010PropOp32
 70
     1
102
RTVSPost2010Prop33
280
     0
102
RTVSPost2010PropOp33
 70
     1
102
RTVSPost2010Prop34
280
     0
102
RTVSPost2010PropOp34
 70
     1
102
RTVSPost2010Prop35
280
     0
102
RTVSPost2010PropOp35
 70
     1
102
RTVSPost2010Prop36
280
     0
102
RTVSPost2010PropOp36
 70
     1
102
RTVSPost2010Prop37
 90
       50
102
RTVSPost2010PropOp37
 70
     1
102
RTVSPost2010Prop38
140
0.0
102
RTVSPost2010PropOp38
 70
     1
102
RTVSPost2010Prop39
140
1.0
102
RTVSPost2010PropOp39
 70
     1
102
RTVSPost2010Prop40
 90
        0
102
RTVSPost2010PropOp40
 70
     1
102
RTVSPost2010Prop41ColorIndex
 90
       18
102
RTVSPost2010Prop41ColorRGB
 90
        0
102
RTVSPost2010PropOp41
 70
     1
102
RTVSPost2010Prop42
 90
       50
102
RTVSPost2010PropOp42
 70
     1
102
RTVSPost2010Prop43
 90
        3
102
RTVSPost2010PropOp43
 70
     1
102
RTVSPost2010Prop44ColorIndex
 90
        5
102
RTVSPost2010Prop44ColorRGB
 90
      255
102
RTVSPost2010PropOp44
 70
     1
102
RTVSPost2010Prop45
280
     0
102
RTVSPost2010PropOp45
 70
     1
102
RTVSPost2010Prop46
 90
       50
102
RTVSPost2010PropOp46
 70
     1
102
RTVSPost2010Prop47
 90
       50
102
RTVSPost2010PropOp47
 70
     1
102
RTVSPost2010Prop48
 90
       50
102
RTVSPost2010PropOp48
 70
     1
102
RTVSPost2010Prop49
280
     0
102
RTVSPost2010PropOp49
 70
     1
102
RTVSPost2010Prop50
 90
       50
102
RTVSPost2010PropOp50
 70
     1
102
RTVSPost2010Prop51ColorIndex
 90
      256
102
RTVSPost2010Prop51ColorRGB
 90
-16777216
102
RTVSPost2010PropOp51
 70
     0
102
RTVSPost2010Prop52
140
1.0
102
RTVSPost2010PropOp52
 70
     0
102
RTVSPost2010Prop53
 90
        2
102
RTVSPost2010PropOp53
 70
     1
102
RTVSPost2010Prop54
  1
strokes_ogs.tif
102
RTVSPost2010PropOp54
 70
     1
102
RTVSPost2010Prop55
280
     0
102
RTVSPost2010PropOp55
 70
     1
102
RTVSPost2010Prop56
140
1.0
102
RTVSPost2010PropOp56
 70
     1
102
RTVSPost2010Prop57
140
1.0
102
RTVSPost2010PropOp57
 70
     1
102
RTVSPropertyOp0
 70
     1
102
RTVSPropertyOp1
 70
     1
102
RTVSPropertyOp2
 70
     1
102
RTVSPropertyOp3
 70
     1
102
RTVSPropertyOp4
 70
     1
102
RTVSPropertyOp5
 70
     1
102
RTVSPropertyOp6
 70
     1
102
RTVSPropertyOp7
 70
     1
102
RTVSPropertyOp8
 70
     1
102
RTVSPropertyOp9
 70
     1
102
RTVSPropertyOp10
 70
     1
102
RTVSPropertyOp11
 70
     1
102
RTVSPropertyOp12
 70
     1
102
RTVSPropertyOp13
 70
     1
102
RTVSPropertyOp14
 70
     1
102
RTVSPropertyOp15
 70
     1
102
RTVSPropertyOp16
 70
     1
102
RTVSPropertyOp17
 70
     1
102
RTVSPropertyOp18
 70
     1
102
RTVSPropertyOp19
 70
     1
102
RTVSPropertyOp20
 70
     1
102
RTVSPropertyOp21
 70
     1
102
RTVSPropertyOp22
 70
     1
102
RTVSPropertyOp23
 70
     1
102
RTVSPropertyOp24
 70
     1
102
RTVSPropertyOp25
 70
     1
102
RTVSPropertyOp26
 70
     1
102
RTVSPropertyOp27
 70
     1
102
RTVSPropertyOp28
 70
     1
102
RTVSPropertyOp29
 70
     1
102
RTVSPropertyOp30
 70
     1
102
RTVSPropertyOp31
 70
     1
102
RTVSPropertyOp32
 70
     1
102
RTVSPropertyOp33
 70
     1
102
RTVSPropertyOp34
 70
     1
102
RTVSPropertyOp35
 70
     1
102
RTVSPropertyOp36
 70
     1
102
RTVSPropertyOp37
 70
     1
102
RTVSPropertyOp38
 70
     1
102
RTVSPropertyOp39
 70
     1
102
RTVSPropertyOp40
 70
     1
102
RTVSPropertyOp41
 70
     1
102
RTVSPropertyOp42
 70
     1
102
RTVSPropertyOp43
 70
     1
102
RTVSPropertyOp44
 70
     1
102
RTVSPropertyOp45
 70
     1
102
RTVSPropertyOp46
 70
     1
102
RTVSPropertyOp47
 70
     1
102
RTVSPropertyOp48
 70
     1
102
RTVSPropertyOp49
 70
     1
102
RTVSPropertyOp50
 70
     1
102
RTVSPropertyOp51
 70
     0
102
RTVSPropertyOp52
 70
     0
102
RTVSPropertyOp53
 70
     1
102
RTVSPropertyOp54
 70
     1
102
RTVSPropertyOp55
 70
     1
102
RTVSPropertyOp56
 70
     1
102
RTVSPropertyOp57
 70
     1
102
RTVSPropertyOp58
 70
     1
102
RTVSPropertyOp59
 70
     1
102
RTVSPropertyOp60
 70
     1
102
RTVSPropertyOp61
 70
     1
102
RTVSPropertyOp62
 70
     1
  0
XRECORD
  5
3E0
102
{ACAD_REACTORS
330
3DF
102
}
330
3DF
100
AcDbXrecord
280
     1
102
RTVSPost2010Prop28
280
     0
102
RTVSPost2010PropOp28
 70
     1
102
RTVSPost2010Prop29
280
     1
102
RTVSPost2010PropOp29
 70
     1
102
RTVSPost2010Prop30
280
     1
102
RTVSPost2010PropOp30
 70
     1
102
RTVSPost2010Prop31
280
     0
102
RTVSPost2010PropOp31
 70
     1
102
RTVSPost2010Prop32
280
     0
102
RTVSPost2010PropOp32
 70
     1
102
RTVSPost2010Prop33
280
     0
102
RTVSPost2010PropOp33
 70
     1
102
RTVSPost2010Prop34
280
     0
102
RTVSPost2010PropOp34
 70
     1
102
RTVSPost2010Prop35
280
     0
102
RTVSPost2010PropOp35
 70
     1
102
RTVSPost2010Prop36
280
     0
102
RTVSPost2010PropOp36
 70
     1
102
RTVSPost2010Prop37
 90
       50
102
RTVSPost2010PropOp37
 70
     1
102
RTVSPost2010Prop38
140
0.0
102
RTVSPost2010PropOp38
 70
     1
102
RTVSPost2010Prop39
140
1.0
102
RTVSPost2010PropOp39
 70
     1
102
RTVSPost2010Prop40
 90
        0
102
RTVSPost2010PropOp40
 70
     1
102
RTVSPost2010Prop41ColorIndex
 90
       18
102
RTVSPost2010Prop41ColorRGB
 90
        0
102
RTVSPost2010PropOp41
 70
     1
102
RTVSPost2010Prop42
 90
       50
102
RTVSPost2010PropOp42
 70
     1
102
RTVSPost2010Prop43
 90
        3
102
RTVSPost2010PropOp43
 70
     1
102
RTVSPost2010Prop44ColorIndex
 90
        5
102
RTVSPost2010Prop44ColorRGB
 90
      255
102
RTVSPost2010PropOp44
 70
     1
102
RTVSPost2010Prop45
280
     0
102
RTVSPost2010PropOp45
 70
     1
102
RTVSPost2010Prop46
 90
       50
102
RTVSPost2010PropOp46
 70
     1
102
RTVSPost2010Prop47
 90
       50
102
RTVSPost2010PropOp47
 70
     1
102
RTVSPost2010Prop48
 90
       50
102
RTVSPost2010PropOp48
 70
     1
102
RTVSPost2010Prop49
280
     0
102
RTVSPost2010PropOp49
 70
     1
102
RTVSPost2010Prop50
 90
       50
102
RTVSPost2010PropOp50
 70
     1
102
RTVSPost2010Prop51ColorIndex
 90
      256
102
RTVSPost2010Prop51ColorRGB
 90
-16777216
102
RTVSPost2010PropOp51
 70
     0
102
RTVSPost2010Prop52
140
1.0
102
RTVSPost2010PropOp52
 70
     0
102
RTVSPost2010Prop53
 90
        2
102
RTVSPost2010PropOp53
 70
     1
102
RTVSPost2010Prop54
  1
strokes_ogs.tif
102
RTVSPost2010PropOp54
 70
     1
102
RTVSPost2010Prop55
280
     0
102
RTVSPost2010PropOp55
 70
     1
102
RTVSPost2010Prop56
140
1.0
102
RTVSPost2010PropOp56
 70
     1
102
RTVSPost2010Prop57
140
1.0
102
RTVSPost2010PropOp57
 70
     1
102
RTVSPropertyOp0
 70
     1
102
RTVSPropertyOp1
 70
     1
102
RTVSPropertyOp2
 70
     1
102
RTVSPropertyOp3
 70
     1
102
RTVSPropertyOp4
 70
     1
102
RTVSPropertyOp5
 70
     1
102
RTVSPropertyOp6
 70
     1
102
RTVSPropertyOp7
 70
     1
102
RTVSPropertyOp8
 70
     1
102
RTVSPropertyOp9
 70
     1
102
RTVSPropertyOp10
 70
     1
102
RTVSPropertyOp11
 70
     1
102
RTVSPropertyOp12
 70
     1
102
RTVSPropertyOp13
 70
     1
102
RTVSPropertyOp14
 70
     1
102
RTVSPropertyOp15
 70
     1
102
RTVSPropertyOp16
 70
     1
102
RTVSPropertyOp17
 70
     1
102
RTVSPropertyOp18
 70
     1
102
RTVSPropertyOp19
 70
     1
102
RTVSPropertyOp20
 70
     1
102
RTVSPropertyOp21
 70
     1
102
RTVSPropertyOp22
 70
     1
102
RTVSPropertyOp23
 70
     1
102
RTVSPropertyOp24
 70
     1
102
RTVSPropertyOp25
 70
     1
102
RTVSPropertyOp26
 70
     1
102
RTVSPropertyOp27
 70
     1
102
RTVSPropertyOp28
 70
     1
102
RTVSPropertyOp29
 70
     1
102
RTVSPropertyOp30
 70
     1
102
RTVSPropertyOp31
 70
     1
102
RTVSPropertyOp32
 70
     1
102
RTVSPropertyOp33
 70
     1
102
RTVSPropertyOp34
 70
     1
102
RTVSPropertyOp35
 70
     1
102
RTVSPropertyOp36
 70
     1
102
RTVSPropertyOp37
 70
     1
102
RTVSPropertyOp38
 70
     1
102
RTVSPropertyOp39
 70
     1
102
RTVSPropertyOp40
 70
     1
102
RTVSPropertyOp41
 70
     1
102
RTVSPropertyOp42
 70
     1
102
RTVSPropertyOp43
 70
     1
102
RTVSPropertyOp44
 70
     1
102
RTVSPropertyOp45
 70
     1
102
RTVSPropertyOp46
 70
     1
102
RTVSPropertyOp47
 70
     1
102
RTVSPropertyOp48
 70
     1
102
RTVSPropertyOp49
 70
     1
102
RTVSPropertyOp50
 70
     1
102
RTVSPropertyOp51
 70
     0
102
RTVSPropertyOp52
 70
     0
102
RTVSPropertyOp53
 70
     1
102
RTVSPropertyOp54
 70
     1
102
RTVSPropertyOp55
 70
     1
102
RTVSPropertyOp56
 70
     1
102
RTVSPropertyOp57
 70
     1
102
RTVSPropertyOp58
 70
     1
102
RTVSPropertyOp59
 70
     1
102
RTVSPropertyOp60
 70
     1
102
RTVSPropertyOp61
 70
     1
102
RTVSPropertyOp62
 70
     1
  0
XRECORD
  5
3DA
102
{ACAD_REACTORS
330
3D9
102
}
330
3D9
100
AcDbXrecord
280
     1
102
RTVSPost2010Prop28
280
     0
102
RTVSPost2010PropOp28
 70
     1
102
RTVSPost2010Prop29
280
     1
102
RTVSPost2010PropOp29
 70
     1
102
RTVSPost2010Prop30
280
     1
102
RTVSPost2010PropOp30
 70
     1
102
RTVSPost2010Prop31
280
     0
102
RTVSPost2010PropOp31
 70
     1
102
RTVSPost2010Prop32
280
     0
102
RTVSPost2010PropOp32
 70
     1
102
RTVSPost2010Prop33
280
     0
102
RTVSPost2010PropOp33
 70
     1
102
RTVSPost2010Prop34
280
     0
102
RTVSPost2010PropOp34
 70
     1
102
RTVSPost2010Prop35
280
     0
102
RTVSPost2010PropOp35
 70
     1
102
RTVSPost2010Prop36
280
     0
102
RTVSPost2010PropOp36
 70
     1
102
RTVSPost2010Prop37
 90
       50
102
RTVSPost2010PropOp37
 70
     1
102
RTVSPost2010Prop38
140
0.0
102
RTVSPost2010PropOp38
 70
     1
102
RTVSPost2010Prop39
140
1.0
102
RTVSPost2010PropOp39
 70
     1
102
RTVSPost2010Prop40
 90
        0
102
RTVSPost2010PropOp40
 70
     1
102
RTVSPost2010Prop41ColorIndex
 90
       18
102
RTVSPost2010Prop41ColorRGB
 90
        0
102
RTVSPost2010PropOp41
 70
     1
102
RTVSPost2010Prop42
 90
       50
102
RTVSPost2010PropOp42
 70
     1
102
RTVSPost2010Prop43
 90
        3
102
RTVSPost2010PropOp43
 70
     1
102
RTVSPost2010Prop44ColorIndex
 90
        5
102
RTVSPost2010Prop44ColorRGB
 90
      255
102
RTVSPost2010PropOp44
 70
     1
102
RTVSPost2010Prop45
280
     0
102
RTVSPost2010PropOp45
 70
     1
102
RTVSPost2010Prop46
 90
       50
102
RTVSPost2010PropOp46
 70
     1
102
RTVSPost2010Prop47
 90
       50
102
RTVSPost2010PropOp47
 70
     1
102
RTVSPost2010Prop48
 90
       50
102
RTVSPost2010PropOp48
 70
     1
102
RTVSPost2010Prop49
280
     0
102
RTVSPost2010PropOp49
 70
     1
102
RTVSPost2010Prop50
 90
       50
102
RTVSPost2010PropOp50
 70
     1
102
RTVSPost2010Prop51ColorIndex
 90
      256
102
RTVSPost2010Prop51ColorRGB
 90
-16777216
102
RTVSPost2010PropOp51
 70
     0
102
RTVSPost2010Prop52
140
1.0
102
RTVSPost2010PropOp52
 70
     0
102
RTVSPost2010Prop53
 90
        2
102
RTVSPost2010PropOp53
 70
     1
102
RTVSPost2010Prop54
  1
strokes_ogs.tif
102
RTVSPost2010PropOp54
 70
     1
102
RTVSPost2010Prop55
280
     0
102
RTVSPost2010PropOp55
 70
     1
102
RTVSPost2010Prop56
140
1.0
102
RTVSPost2010PropOp56
 70
     1
102
RTVSPost2010Prop57
140
1.0
102
RTVSPost2010PropOp57
 70
     1
102
RTVSPropertyOp0
 70
     1
102
RTVSPropertyOp1
 70
     1
102
RTVSPropertyOp2
 70
     1
102
RTVSPropertyOp3
 70
     1
102
RTVSPropertyOp4
 70
     1
102
RTVSPropertyOp5
 70
     1
102
RTVSPropertyOp6
 70
     1
102
RTVSPropertyOp7
 70
     1
102
RTVSPropertyOp8
 70
     1
102
RTVSPropertyOp9
 70
     1
102
RTVSPropertyOp10
 70
     1
102
RTVSPropertyOp11
 70
     1
102
RTVSPropertyOp12
 70
     1
102
RTVSPropertyOp13
 70
     1
102
RTVSPropertyOp14
 70
     1
102
RTVSPropertyOp15
 70
     1
102
RTVSPropertyOp16
 70
     1
102
RTVSPropertyOp17
 70
     1
102
RTVSPropertyOp18
 70
     1
102
RTVSPropertyOp19
 70
     1
102
RTVSPropertyOp20
 70
     1
102
RTVSPropertyOp21
 70
     1
102
RTVSPropertyOp22
 70
     1
102
RTVSPropertyOp23
 70
     1
102
RTVSPropertyOp24
 70
     1
102
RTVSPropertyOp25
 70
     1
102
RTVSPropertyOp26
 70
     1
102
RTVSPropertyOp27
 70
     1
102
RTVSPropertyOp28
 70
     1
102
RTVSPropertyOp29
 70
     1
102
RTVSPropertyOp30
 70
     1
102
RTVSPropertyOp31
 70
     1
102
RTVSPropertyOp32
 70
     1
102
RTVSPropertyOp33
 70
     1
102
RTVSPropertyOp34
 70
     1
102
RTVSPropertyOp35
 70
     1
102
RTVSPropertyOp36
 70
     1
102
RTVSPropertyOp37
 70
     1
102
RTVSPropertyOp38
 70
     1
102
RTVSPropertyOp39
 70
     1
102
RTVSPropertyOp40
 70
     1
102
RTVSPropertyOp41
 70
     1
102
RTVSPropertyOp42
 70
     1
102
RTVSPropertyOp43
 70
     1
102
RTVSPropertyOp44
 70
     1
102
RTVSPropertyOp45
 70
     1
102
RTVSPropertyOp46
 70
     1
102
RTVSPropertyOp47
 70
     1
102
RTVSPropertyOp48
 70
     1
102
RTVSPropertyOp49
 70
     1
102
RTVSPropertyOp50
 70
     1
102
RTVSPropertyOp51
 70
     0
102
RTVSPropertyOp52
 70
     0
102
RTVSPropertyOp53
 70
     1
102
RTVSPropertyOp54
 70
     1
102
RTVSPropertyOp55
 70
     1
102
RTVSPropertyOp56
 70
     1
102
RTVSPropertyOp57
 70
     1
102
RTVSPropertyOp58
 70
     1
102
RTVSPropertyOp59
 70
     1
102
RTVSPropertyOp60
 70
     1
102
RTVSPropertyOp61
 70
     1
102
RTVSPropertyOp62
 70
     1
  0
XRECORD
  5
3DC
102
{ACAD_REACTORS
330
3DB
102
}
330
3DB
100
AcDbXrecord
280
     1
102
RTVSPost2010Prop28
280
     0
102
RTVSPost2010PropOp28
 70
     1
102
RTVSPost2010Prop29
280
     1
102
RTVSPost2010PropOp29
 70
     1
102
RTVSPost2010Prop30
280
     1
102
RTVSPost2010PropOp30
 70
     1
102
RTVSPost2010Prop31
280
     0
102
RTVSPost2010PropOp31
 70
     1
102
RTVSPost2010Prop32
280
     0
102
RTVSPost2010PropOp32
 70
     1
102
RTVSPost2010Prop33
280
     0
102
RTVSPost2010PropOp33
 70
     1
102
RTVSPost2010Prop34
280
     0
102
RTVSPost2010PropOp34
 70
     1
102
RTVSPost2010Prop35
280
     0
102
RTVSPost2010PropOp35
 70
     1
102
RTVSPost2010Prop36
280
     0
102
RTVSPost2010PropOp36
 70
     1
102
RTVSPost2010Prop37
 90
       50
102
RTVSPost2010PropOp37
 70
     1
102
RTVSPost2010Prop38
140
0.0
102
RTVSPost2010PropOp38
 70
     1
102
RTVSPost2010Prop39
140
1.0
102
RTVSPost2010PropOp39
 70
     1
102
RTVSPost2010Prop40
 90
        0
102
RTVSPost2010PropOp40
 70
     1
102
RTVSPost2010Prop41ColorIndex
 90
       18
102
RTVSPost2010Prop41ColorRGB
 90
        0
102
RTVSPost2010PropOp41
 70
     1
102
RTVSPost2010Prop42
 90
       50
102
RTVSPost2010PropOp42
 70
     1
102
RTVSPost2010Prop43
 90
        3
102
RTVSPost2010PropOp43
 70
     1
102
RTVSPost2010Prop44ColorIndex
 90
        5
102
RTVSPost2010Prop44ColorRGB
 90
      255
102
RTVSPost2010PropOp44
 70
     1
102
RTVSPost2010Prop45
280
     0
102
RTVSPost2010PropOp45
 70
     1
102
RTVSPost2010Prop46
 90
       50
102
RTVSPost2010PropOp46
 70
     1
102
RTVSPost2010Prop47
 90
       50
102
RTVSPost2010PropOp47
 70
     1
102
RTVSPost2010Prop48
 90
       50
102
RTVSPost2010PropOp48
 70
     1
102
RTVSPost2010Prop49
280
     0
102
RTVSPost2010PropOp49
 70
     1
102
RTVSPost2010Prop50
 90
       50
102
RTVSPost2010PropOp50
 70
     1
102
RTVSPost2010Prop51ColorIndex
 90
      256
102
RTVSPost2010Prop51ColorRGB
 90
-16777216
102
RTVSPost2010PropOp51
 70
     0
102
RTVSPost2010Prop52
140
1.0
102
RTVSPost2010PropOp52
 70
     0
102
RTVSPost2010Prop53
 90
        2
102
RTVSPost2010PropOp53
 70
     1
102
RTVSPost2010Prop54
  1
strokes_ogs.tif
102
RTVSPost2010PropOp54
 70
     1
102
RTVSPost2010Prop55
280
     0
102
RTVSPost2010PropOp55
 70
     1
102
RTVSPost2010Prop56
140
1.0
102
RTVSPost2010PropOp56
 70
     1
102
RTVSPost2010Prop57
140
1.0
102
RTVSPost2010PropOp57
 70
     1
102
RTVSPropertyOp0
 70
     1
102
RTVSPropertyOp1
 70
     1
102
RTVSPropertyOp2
 70
     1
102
RTVSPropertyOp3
 70
     1
102
RTVSPropertyOp4
 70
     1
102
RTVSPropertyOp5
 70
     1
102
RTVSPropertyOp6
 70
     1
102
RTVSPropertyOp7
 70
     1
102
RTVSPropertyOp8
 70
     1
102
RTVSPropertyOp9
 70
     1
102
RTVSPropertyOp10
 70
     1
102
RTVSPropertyOp11
 70
     1
102
RTVSPropertyOp12
 70
     1
102
RTVSPropertyOp13
 70
     1
102
RTVSPropertyOp14
 70
     1
102
RTVSPropertyOp15
 70
     1
102
RTVSPropertyOp16
 70
     1
102
RTVSPropertyOp17
 70
     1
102
RTVSPropertyOp18
 70
     1
102
RTVSPropertyOp19
 70
     1
102
RTVSPropertyOp20
 70
     1
102
RTVSPropertyOp21
 70
     1
102
RTVSPropertyOp22
 70
     1
102
RTVSPropertyOp23
 70
     1
102
RTVSPropertyOp24
 70
     1
102
RTVSPropertyOp25
 70
     1
102
RTVSPropertyOp26
 70
     1
102
RTVSPropertyOp27
 70
     1
102
RTVSPropertyOp28
 70
     1
102
RTVSPropertyOp29
 70
     1
102
RTVSPropertyOp30
 70
     1
102
RTVSPropertyOp31
 70
     1
102
RTVSPropertyOp32
 70
     1
102
RTVSPropertyOp33
 70
     1
102
RTVSPropertyOp34
 70
     1
102
RTVSPropertyOp35
 70
     1
102
RTVSPropertyOp36
 70
     1
102
RTVSPropertyOp37
 70
     1
102
RTVSPropertyOp38
 70
     1
102
RTVSPropertyOp39
 70
     1
102
RTVSPropertyOp40
 70
     1
102
RTVSPropertyOp41
 70
     1
102
RTVSPropertyOp42
 70
     1
102
RTVSPropertyOp43
 70
     1
102
RTVSPropertyOp44
 70
     1
102
RTVSPropertyOp45
 70
     1
102
RTVSPropertyOp46
 70
     1
102
RTVSPropertyOp47
 70
     1
102
RTVSPropertyOp48
 70
     1
102
RTVSPropertyOp49
 70
     1
102
RTVSPropertyOp50
 70
     1
102
RTVSPropertyOp51
 70
     0
102
RTVSPropertyOp52
 70
     0
102
RTVSPropertyOp53
 70
     1
102
RTVSPropertyOp54
 70
     1
102
RTVSPropertyOp55
 70
     1
102
RTVSPropertyOp56
 70
     1
102
RTVSPropertyOp57
 70
     1
102
RTVSPropertyOp58
 70
     1
102
RTVSPropertyOp59
 70
     1
102
RTVSPropertyOp60
 70
     1
102
RTVSPropertyOp61
 70
     1
102
RTVSPropertyOp62
 70
     1
  0
XRECORD
  5
3CC
102
{ACAD_REACTORS
330
3CB
102
}
330
3CB
100
AcDbXrecord
280
     1
102
RTVSPost2010Prop28
280
     0
102
RTVSPost2010PropOp28
 70
     1
102
RTVSPost2010Prop29
280
     1
102
RTVSPost2010PropOp29
 70
     1
102
RTVSPost2010Prop30
280
     1
102
RTVSPost2010PropOp30
 70
     1
102
RTVSPost2010Prop31
280
     0
102
RTVSPost2010PropOp31
 70
     1
102
RTVSPost2010Prop32
280
     0
102
RTVSPost2010PropOp32
 70
     1
102
RTVSPost2010Prop33
280
     0
102
RTVSPost2010PropOp33
 70
     1
102
RTVSPost2010Prop34
280
     0
102
RTVSPost2010PropOp34
 70
     1
102
RTVSPost2010Prop35
280
     0
102
RTVSPost2010PropOp35
 70
     1
102
RTVSPost2010Prop36
280
     0
102
RTVSPost2010PropOp36
 70
     1
102
RTVSPost2010Prop37
 90
       50
102
RTVSPost2010PropOp37
 70
     1
102
RTVSPost2010Prop38
140
0.0
102
RTVSPost2010PropOp38
 70
     1
102
RTVSPost2010Prop39
140
1.0
102
RTVSPost2010PropOp39
 70
     1
102
RTVSPost2010Prop40
 90
        0
102
RTVSPost2010PropOp40
 70
     1
102
RTVSPost2010Prop41ColorIndex
 90
       18
102
RTVSPost2010Prop41ColorRGB
 90
        0
102
RTVSPost2010PropOp41
 70
     1
102
RTVSPost2010Prop42
 90
       50
102
RTVSPost2010PropOp42
 70
     1
102
RTVSPost2010Prop43
 90
        3
102
RTVSPost2010PropOp43
 70
     1
102
RTVSPost2010Prop44ColorIndex
 90
        5
102
RTVSPost2010Prop44ColorRGB
 90
      255
102
RTVSPost2010PropOp44
 70
     1
102
RTVSPost2010Prop45
280
     0
102
RTVSPost2010PropOp45
 70
     1
102
RTVSPost2010Prop46
 90
       50
102
RTVSPost2010PropOp46
 70
     1
102
RTVSPost2010Prop47
 90
       50
102
RTVSPost2010PropOp47
 70
     1
102
RTVSPost2010Prop48
 90
       50
102
RTVSPost2010PropOp48
 70
     1
102
RTVSPost2010Prop49
280
     0
102
RTVSPost2010PropOp49
 70
     1
102
RTVSPost2010Prop50
 90
       50
102
RTVSPost2010PropOp50
 70
     1
102
RTVSPost2010Prop51ColorIndex
 90
      256
102
RTVSPost2010Prop51ColorRGB
 90
-16777216
102
RTVSPost2010PropOp51
 70
     0
102
RTVSPost2010Prop52
140
1.0
102
RTVSPost2010PropOp52
 70
     0
102
RTVSPost2010Prop53
 90
        2
102
RTVSPost2010PropOp53
 70
     1
102
RTVSPost2010Prop54
  1
strokes_ogs.tif
102
RTVSPost2010PropOp54
 70
     1
102
RTVSPost2010Prop55
280
     0
102
RTVSPost2010PropOp55
 70
     1
102
RTVSPost2010Prop56
140
1.0
102
RTVSPost2010PropOp56
 70
     1
102
RTVSPost2010Prop57
140
1.0
102
RTVSPost2010PropOp57
 70
     1
102
RTVSPropertyOp0
 70
     1
102
RTVSPropertyOp1
 70
     1
102
RTVSPropertyOp2
 70
     1
102
RTVSPropertyOp3
 70
     1
102
RTVSPropertyOp4
 70
     1
102
RTVSPropertyOp5
 70
     1
102
RTVSPropertyOp6
 70
     1
102
RTVSPropertyOp7
 70
     1
102
RTVSPropertyOp8
 70
     1
102
RTVSPropertyOp9
 70
     1
102
RTVSPropertyOp10
 70
     1
102
RTVSPropertyOp11
 70
     1
102
RTVSPropertyOp12
 70
     1
102
RTVSPropertyOp13
 70
     1
102
RTVSPropertyOp14
 70
     1
102
RTVSPropertyOp15
 70
     1
102
RTVSPropertyOp16
 70
     1
102
RTVSPropertyOp17
 70
     1
102
RTVSPropertyOp18
 70
     1
102
RTVSPropertyOp19
 70
     1
102
RTVSPropertyOp20
 70
     1
102
RTVSPropertyOp21
 70
     1
102
RTVSPropertyOp22
 70
     1
102
RTVSPropertyOp23
 70
     1
102
RTVSPropertyOp24
 70
     1
102
RTVSPropertyOp25
 70
     1
102
RTVSPropertyOp26
 70
     1
102
RTVSPropertyOp27
 70
     1
102
RTVSPropertyOp28
 70
     1
102
RTVSPropertyOp29
 70
     1
102
RTVSPropertyOp30
 70
     1
102
RTVSPropertyOp31
 70
     1
102
RTVSPropertyOp32
 70
     1
102
RTVSPropertyOp33
 70
     1
102
RTVSPropertyOp34
 70
     1
102
RTVSPropertyOp35
 70
     1
102
RTVSPropertyOp36
 70
     1
102
RTVSPropertyOp37
 70
     1
102
RTVSPropertyOp38
 70
     1
102
RTVSPropertyOp39
 70
     1
102
RTVSPropertyOp40
 70
     1
102
RTVSPropertyOp41
 70
     1
102
RTVSPropertyOp42
 70
     1
102
RTVSPropertyOp43
 70
     1
102
RTVSPropertyOp44
 70
     1
102
RTVSPropertyOp45
 70
     1
102
RTVSPropertyOp46
 70
     1
102
RTVSPropertyOp47
 70
     1
102
RTVSPropertyOp48
 70
     1
102
RTVSPropertyOp49
 70
     1
102
RTVSPropertyOp50
 70
     1
102
RTVSPropertyOp51
 70
     0
102
RTVSPropertyOp52
 70
     0
102
RTVSPropertyOp53
 70
     1
102
RTVSPropertyOp54
 70
     1
102
RTVSPropertyOp55
 70
     1
102
RTVSPropertyOp56
 70
     1
102
RTVSPropertyOp57
 70
     1
102
RTVSPropertyOp58
 70
     1
102
RTVSPropertyOp59
 70
     1
102
RTVSPropertyOp60
 70
     1
102
RTVSPropertyOp61
 70
     1
102
RTVSPropertyOp62
 70
     1
  0
XRECORD
  5
3BE
102
{ACAD_REACTORS
330
3BD
102
}
330
3BD
100
AcDbXrecord
280
     1
102
RTVSPost2010Prop28
280
     0
102
RTVSPost2010PropOp28
 70
     1
102
RTVSPost2010Prop29
280
     1
102
RTVSPost2010PropOp29
 70
     1
102
RTVSPost2010Prop30
280
     1
102
RTVSPost2010PropOp30
 70
     1
102
RTVSPost2010Prop31
280
     0
102
RTVSPost2010PropOp31
 70
     1
102
RTVSPost2010Prop32
280
     0
102
RTVSPost2010PropOp32
 70
     1
102
RTVSPost2010Prop33
280
     0
102
RTVSPost2010PropOp33
 70
     1
102
RTVSPost2010Prop34
280
     0
102
RTVSPost2010PropOp34
 70
     1
102
RTVSPost2010Prop35
280
     0
102
RTVSPost2010PropOp35
 70
     1
102
RTVSPost2010Prop36
280
     0
102
RTVSPost2010PropOp36
 70
     1
102
RTVSPost2010Prop37
 90
       50
102
RTVSPost2010PropOp37
 70
     1
102
RTVSPost2010Prop38
140
0.0
102
RTVSPost2010PropOp38
 70
     1
102
RTVSPost2010Prop39
140
1.0
102
RTVSPost2010PropOp39
 70
     1
102
RTVSPost2010Prop40
 90
        0
102
RTVSPost2010PropOp40
 70
     1
102
RTVSPost2010Prop41ColorIndex
 90
       18
102
RTVSPost2010Prop41ColorRGB
 90
        0
102
RTVSPost2010PropOp41
 70
     1
102
RTVSPost2010Prop42
 90
       50
102
RTVSPost2010PropOp42
 70
     1
102
RTVSPost2010Prop43
 90
        3
102
RTVSPost2010PropOp43
 70
     1
102
RTVSPost2010Prop44ColorIndex
 90
        5
102
RTVSPost2010Prop44ColorRGB
 90
      255
102
RTVSPost2010PropOp44
 70
     1
102
RTVSPost2010Prop45
280
     0
102
RTVSPost2010PropOp45
 70
     1
102
RTVSPost2010Prop46
 90
       50
102
RTVSPost2010PropOp46
 70
     1
102
RTVSPost2010Prop47
 90
       50
102
RTVSPost2010PropOp47
 70
     1
102
RTVSPost2010Prop48
 90
       50
102
RTVSPost2010PropOp48
 70
     1
102
RTVSPost2010Prop49
280
     0
102
RTVSPost2010PropOp49
 70
     1
102
RTVSPost2010Prop50
 90
       50
102
RTVSPost2010PropOp50
 70
     1
102
RTVSPost2010Prop51ColorIndex
 90
      256
102
RTVSPost2010Prop51ColorRGB
 90
-16777216
102
RTVSPost2010PropOp51
 70
     0
102
RTVSPost2010Prop52
140
1.0
102
RTVSPost2010PropOp52
 70
     0
102
RTVSPost2010Prop53
 90
        2
102
RTVSPost2010PropOp53
 70
     1
102
RTVSPost2010Prop54
  1
strokes_ogs.tif
102
RTVSPost2010PropOp54
 70
     1
102
RTVSPost2010Prop55
280
     0
102
RTVSPost2010PropOp55
 70
     1
102
RTVSPost2010Prop56
140
1.0
102
RTVSPost2010PropOp56
 70
     1
102
RTVSPost2010Prop57
140
1.0
102
RTVSPost2010PropOp57
 70
     1
102
RTVSPropertyOp0
 70
     1
102
RTVSPropertyOp1
 70
     1
102
RTVSPropertyOp2
 70
     1
102
RTVSPropertyOp3
 70
     1
102
RTVSPropertyOp4
 70
     1
102
RTVSPropertyOp5
 70
     1
102
RTVSPropertyOp6
 70
     1
102
RTVSPropertyOp7
 70
     1
102
RTVSPropertyOp8
 70
     1
102
RTVSPropertyOp9
 70
     1
102
RTVSPropertyOp10
 70
     1
102
RTVSPropertyOp11
 70
     1
102
RTVSPropertyOp12
 70
     1
102
RTVSPropertyOp13
 70
     1
102
RTVSPropertyOp14
 70
     1
102
RTVSPropertyOp15
 70
     1
102
RTVSPropertyOp16
 70
     1
102
RTVSPropertyOp17
 70
     1
102
RTVSPropertyOp18
 70
     1
102
RTVSPropertyOp19
 70
     1
102
RTVSPropertyOp20
 70
     1
102
RTVSPropertyOp21
 70
     1
102
RTVSPropertyOp22
 70
     1
102
RTVSPropertyOp23
 70
     1
102
RTVSPropertyOp24
 70
     1
102
RTVSPropertyOp25
 70
     1
102
RTVSPropertyOp26
 70
     1
102
RTVSPropertyOp27
 70
     1
102
RTVSPropertyOp28
 70
     1
102
RTVSPropertyOp29
 70
     1
102
RTVSPropertyOp30
 70
     1
102
RTVSPropertyOp31
 70
     1
102
RTVSPropertyOp32
 70
     1
102
RTVSPropertyOp33
 70
     1
102
RTVSPropertyOp34
 70
     1
102
RTVSPropertyOp35
 70
     1
102
RTVSPropertyOp36
 70
     1
102
RTVSPropertyOp37
 70
     1
102
RTVSPropertyOp38
 70
     1
102
RTVSPropertyOp39
 70
     1
102
RTVSPropertyOp40
 70
     1
102
RTVSPropertyOp41
 70
     1
102
RTVSPropertyOp42
 70
     1
102
RTVSPropertyOp43
 70
     1
102
RTVSPropertyOp44
 70
     1
102
RTVSPropertyOp45
 70
     1
102
RTVSPropertyOp46
 70
     1
102
RTVSPropertyOp47
 70
     1
102
RTVSPropertyOp48
 70
     1
102
RTVSPropertyOp49
 70
     1
102
RTVSPropertyOp50
 70
     1
102
RTVSPropertyOp51
 70
     0
102
RTVSPropertyOp52
 70
     0
102
RTVSPropertyOp53
 70
     1
102
RTVSPropertyOp54
 70
     1
102
RTVSPropertyOp55
 70
     1
102
RTVSPropertyOp56
 70
     1
102
RTVSPropertyOp57
 70
     1
102
RTVSPropertyOp58
 70
     1
102
RTVSPropertyOp59
 70
     1
102
RTVSPropertyOp60
 70
     1
102
RTVSPropertyOp61
 70
     1
102
RTVSPropertyOp62
 70
     1
  0
XRECORD
  5
3DE
102
{ACAD_REACTORS
330
3DD
102
}
330
3DD
100
AcDbXrecord
280
     1
102
RTVSPost2010Prop28
280
     0
102
RTVSPost2010PropOp28
 70
     1
102
RTVSPost2010Prop29
280
     1
102
RTVSPost2010PropOp29
 70
     1
102
RTVSPost2010Prop30
280
     1
102
RTVSPost2010PropOp30
 70
     1
102
RTVSPost2010Prop31
280
     0
102
RTVSPost2010PropOp31
 70
     1
102
RTVSPost2010Prop32
280
     0
102
RTVSPost2010PropOp32
 70
     1
102
RTVSPost2010Prop33
280
     0
102
RTVSPost2010PropOp33
 70
     1
102
RTVSPost2010Prop34
280
     0
102
RTVSPost2010PropOp34
 70
     1
102
RTVSPost2010Prop35
280
     0
102
RTVSPost2010PropOp35
 70
     1
102
RTVSPost2010Prop36
280
     0
102
RTVSPost2010PropOp36
 70
     1
102
RTVSPost2010Prop37
 90
       50
102
RTVSPost2010PropOp37
 70
     1
102
RTVSPost2010Prop38
140
0.0
102
RTVSPost2010PropOp38
 70
     1
102
RTVSPost2010Prop39
140
1.0
102
RTVSPost2010PropOp39
 70
     1
102
RTVSPost2010Prop40
 90
        0
102
RTVSPost2010PropOp40
 70
     1
102
RTVSPost2010Prop41ColorIndex
 90
       18
102
RTVSPost2010Prop41ColorRGB
 90
        0
102
RTVSPost2010PropOp41
 70
     1
102
RTVSPost2010Prop42
 90
       50
102
RTVSPost2010PropOp42
 70
     1
102
RTVSPost2010Prop43
 90
        3
102
RTVSPost2010PropOp43
 70
     1
102
RTVSPost2010Prop44ColorIndex
 90
        5
102
RTVSPost2010Prop44ColorRGB
 90
      255
102
RTVSPost2010PropOp44
 70
     1
102
RTVSPost2010Prop45
280
     0
102
RTVSPost2010PropOp45
 70
     1
102
RTVSPost2010Prop46
 90
       50
102
RTVSPost2010PropOp46
 70
     1
102
RTVSPost2010Prop47
 90
       50
102
RTVSPost2010PropOp47
 70
     1
102
RTVSPost2010Prop48
 90
       50
102
RTVSPost2010PropOp48
 70
     1
102
RTVSPost2010Prop49
280
     0
102
RTVSPost2010PropOp49
 70
     1
102
RTVSPost2010Prop50
 90
       50
102
RTVSPost2010PropOp50
 70
     1
102
RTVSPost2010Prop51ColorIndex
 90
      256
102
RTVSPost2010Prop51ColorRGB
 90
-16777216
102
RTVSPost2010PropOp51
 70
     0
102
RTVSPost2010Prop52
140
1.0
102
RTVSPost2010PropOp52
 70
     0
102
RTVSPost2010Prop53
 90
        2
102
RTVSPost2010PropOp53
 70
     1
102
RTVSPost2010Prop54
  1
strokes_ogs.tif
102
RTVSPost2010PropOp54
 70
     1
102
RTVSPost2010Prop55
280
     0
102
RTVSPost2010PropOp55
 70
     1
102
RTVSPost2010Prop56
140
1.0
102
RTVSPost2010PropOp56
 70
     1
102
RTVSPost2010Prop57
140
1.0
102
RTVSPost2010PropOp57
 70
     1
102
RTVSPropertyOp0
 70
     1
102
RTVSPropertyOp1
 70
     1
102
RTVSPropertyOp2
 70
     1
102
RTVSPropertyOp3
 70
     1
102
RTVSPropertyOp4
 70
     1
102
RTVSPropertyOp5
 70
     1
102
RTVSPropertyOp6
 70
     1
102
RTVSPropertyOp7
 70
     1
102
RTVSPropertyOp8
 70
     1
102
RTVSPropertyOp9
 70
     1
102
RTVSPropertyOp10
 70
     1
102
RTVSPropertyOp11
 70
     1
102
RTVSPropertyOp12
 70
     1
102
RTVSPropertyOp13
 70
     1
102
RTVSPropertyOp14
 70
     1
102
RTVSPropertyOp15
 70
     1
102
RTVSPropertyOp16
 70
     1
102
RTVSPropertyOp17
 70
     1
102
RTVSPropertyOp18
 70
     1
102
RTVSPropertyOp19
 70
     1
102
RTVSPropertyOp20
 70
     1
102
RTVSPropertyOp21
 70
     1
102
RTVSPropertyOp22
 70
     1
102
RTVSPropertyOp23
 70
     1
102
RTVSPropertyOp24
 70
     1
102
RTVSPropertyOp25
 70
     1
102
RTVSPropertyOp26
 70
     1
102
RTVSPropertyOp27
 70
     1
102
RTVSPropertyOp28
 70
     1
102
RTVSPropertyOp29
 70
     1
102
RTVSPropertyOp30
 70
     1
102
RTVSPropertyOp31
 70
     1
102
RTVSPropertyOp32
 70
     1
102
RTVSPropertyOp33
 70
     1
102
RTVSPropertyOp34
 70
     1
102
RTVSPropertyOp35
 70
     1
102
RTVSPropertyOp36
 70
     1
102
RTVSPropertyOp37
 70
     1
102
RTVSPropertyOp38
 70
     1
102
RTVSPropertyOp39
 70
     1
102
RTVSPropertyOp40
 70
     1
102
RTVSPropertyOp41
 70
     1
102
RTVSPropertyOp42
 70
     1
102
RTVSPropertyOp43
 70
     1
102
RTVSPropertyOp44
 70
     1
102
RTVSPropertyOp45
 70
     1
102
RTVSPropertyOp46
 70
     1
102
RTVSPropertyOp47
 70
     1
102
RTVSPropertyOp48
 70
     1
102
RTVSPropertyOp49
 70
     1
102
RTVSPropertyOp50
 70
     1
102
RTVSPropertyOp51
 70
     0
102
RTVSPropertyOp52
 70
     0
102
RTVSPropertyOp53
 70
     1
102
RTVSPropertyOp54
 70
     1
102
RTVSPropertyOp55
 70
     1
102
RTVSPropertyOp56
 70
     1
102
RTVSPropertyOp57
 70
     1
102
RTVSPropertyOp58
 70
     1
102
RTVSPropertyOp59
 70
     1
102
RTVSPropertyOp60
 70
     1
102
RTVSPropertyOp61
 70
     1
102
RTVSPropertyOp62
 70
     1
  0
ENDSEC
  0
EOF
