  0
SECTION
  2
HEADER
  9
$ACADVER
  1
AC1018
  9
$ACADMAINTVER
 70
   104
  9
$DWGCODEPAGE
  3
ANSI_1250
  9
$LASTSAVEDBY
  1
hm1535
  9
$INSBASE
 10
0.0
 20
0.0
 30
0.0
  9
$EXTMIN
 10
239.174849
 20
21.404126
 30
0.0
  9
$EXTMAX
 10
587.478648
 20
412.2483386666667
 30
0.0
  9
$LIMMIN
 10
-0.5
 20
-0.5
  9
$LIMMAX
 10
5.0
 20
5.0
  9
$ORTHOMODE
 70
     0
  9
$REGENMODE
 70
     1
  9
$FILLMODE
 70
     1
  9
$QTEXTMODE
 70
     0
  9
$MIRRTEXT
 70
     1
  9
$LTSCALE
 40
1.0
  9
$ATTMODE
 70
     1
  9
$TEXTSIZE
 40
0.2
  9
$TRACEWID
 40
0.05
  9
$TEXTSTYLE
  7
Standard
  9
$CLAYER
  8
0
  9
$CELTYPE
  6
ByLayer
  9
$CECOLOR
 62
   256
  9
$CELTSCALE
 40
1.0
  9
$DISPSILH
 70
     0
  9
$DIMSCALE
 40
1.0
  9
$DIMASZ
 40
0.18
  9
$DIMEXO
 40
0.0625
  9
$DIMDLI
 40
0.38
  9
$DIMRND
 40
0.0
  9
$DIMDLE
 40
0.0
  9
$DIMEXE
 40
0.18
  9
$DIMTP
 40
0.0
  9
$DIMTM
 40
0.0
  9
$DIMTXT
 40
0.18
  9
$DIMCEN
 40
0.09
  9
$DIMTSZ
 40
0.0
  9
$DIMTOL
 70
     0
  9
$DIMLIM
 70
     0
  9
$DIMTIH
 70
     1
  9
$DIMTOH
 70
     1
  9
$DIMSE1
 70
     0
  9
$DIMSE2
 70
     0
  9
$DIMTAD
 70
     0
  9
$DIMZIN
 70
     0
  9
$DIMBLK
  1

  9
$DIMASO
 70
     1
  9
$DIMSHO
 70
     1
  9
$DIMPOST
  1

  9
$DIMAPOST
  1

  9
$DIMALT
 70
     0
  9
$DIMALTD
 70
     2
  9
$DIMALTF
 40
25.4
  9
$DIMLFAC
 40
1.0
  9
$DIMTOFL
 70
     0
  9
$DIMTVP
 40
0.0
  9
$DIMTIX
 70
     0
  9
$DIMSOXD
 70
     0
  9
$DIMSAH
 70
     0
  9
$DIMBLK1
  1

  9
$DIMBLK2
  1

  9
$DIMSTYLE
  2
Standard
  9
$DIMCLRD
 70
     0
  9
$DIMCLRE
 70
     0
  9
$DIMCLRT
 70
     0
  9
$DIMTFAC
 40
1.0
  9
$DIMGAP
 40
0.09
  9
$DIMJUST
 70
     0
  9
$DIMSD1
 70
     0
  9
$DIMSD2
 70
     0
  9
$DIMTOLJ
 70
     1
  9
$DIMTZIN
 70
     0
  9
$DIMALTZ
 70
     0
  9
$DIMALTTZ
 70
     0
  9
$DIMUPT
 70
     0
  9
$DIMDEC
 70
     4
  9
$DIMTDEC
 70
     4
  9
$DIMALTU
 70
     2
  9
$DIMALTTD
 70
     2
  9
$DIMTXSTY
  7
Standard
  9
$DIMAUNIT
 70
     0
  9
$DIMADEC
 70
     0
  9
$DIMALTRND
 40
0.0
  9
$DIMAZIN
 70
     0
  9
$DIMDSEP
 70
    46
  9
$DIMATFIT
 70
     3
  9
$DIMFRAC
 70
     0
  9
$DIMLDRBLK
  1

  9
$DIMLUNIT
 70
     2
  9
$DIMLWD
 70
    -2
  9
$DIMLWE
 70
    -2
  9
$DIMTMOVE
 70
     0
  9
$LUNITS
 70
     2
  9
$LUPREC
 70
     2
  9
$SKETCHINC
 40
0.1
  9
$FILLETRAD
 40
0.5
  9
$AUNITS
 70
     0
  9
$AUPREC
 70
     0
  9
$MENU
  1
.
  9
$ELEVATION
 40
0.0
  9
$PELEVATION
 40
0.0
  9
$THICKNESS
 40
0.0
  9
$LIMCHECK
 70
     0
  9
$CHAMFERA
 40
0.0
  9
$CHAMFERB
 40
0.0
  9
$CHAMFERC
 40
0.0
  9
$CHAMFERD
 40
0.0
  9
$SKPOLY
 70
     0
  9
$TDCREATE
 40
2458877.454398148
  9
$TDUCREATE
 40
2458877.412741204
  9
$TDUPDATE
 40
2458877.454687500
  9
$TDUUPDATE
 40
2458877.413020834
  9
$TDINDWG
 40
0.0001851968
  9
$TDUSRTIMER
 40
0.0001851968
  9
$USRTIMER
 70
     1
  9
$ANGBASE
 50
0.0
  9
$ANGDIR
 70
     0
  9
$PDMODE
 70
     0
  9
$PDSIZE
 40
0.0
  9
$PLINEWID
 40
0.0
  9
$SPLFRAME
 70
     0
  9
$SPLINETYPE
 70
     6
  9
$SPLINESEGS
 70
     8
  9
$HANDSEED
  5
377
  9
$SURFTAB1
 70
     6
  9
$SURFTAB2
 70
     6
  9
$SURFTYPE
 70
     6
  9
$SURFU
 70
     6
  9
$SURFV
 70
     6
  9
$UCSBASE
  2

  9
$UCSNAME
  2

  9
$UCSORG
 10
322.174849
 20
366.008075
 30
0.0
  9
$UCSXDIR
 10
1.0
 20
0.0
 30
0.0
  9
$UCSYDIR
 10
0.0
 20
1.0
 30
0.0
  9
$UCSORTHOREF
  2

  9
$UCSORTHOVIEW
 70
     0
  9
$UCSORGTOP
 10
0.0
 20
0.0
 30
0.0
  9
$UCSORGBOTTOM
 10
0.0
 20
0.0
 30
0.0
  9
$UCSORGLEFT
 10
0.0
 20
0.0
 30
0.0
  9
$UCSORGRIGHT
 10
0.0
 20
0.0
 30
0.0
  9
$UCSORGFRONT
 10
0.0
 20
0.0
 30
0.0
  9
$UCSORGBACK
 10
0.0
 20
0.0
 30
0.0
  9
$PUCSBASE
  2

  9
$PUCSNAME
  2

  9
$PUCSORG
 10
0.0
 20
0.0
 30
0.0
  9
$PUCSXDIR
 10
1.0
 20
0.0
 30
0.0
  9
$PUCSYDIR
 10
0.0
 20
1.0
 30
0.0
  9
$PUCSORTHOREF
  2

  9
$PUCSORTHOVIEW
 70
     0
  9
$PUCSORGTOP
 10
0.0
 20
0.0
 30
0.0
  9
$PUCSORGBOTTOM
 10
0.0
 20
0.0
 30
0.0
  9
$PUCSORGLEFT
 10
0.0
 20
0.0
 30
0.0
  9
$PUCSORGRIGHT
 10
0.0
 20
0.0
 30
0.0
  9
$PUCSORGFRONT
 10
0.0
 20
0.0
 30
0.0
  9
$PUCSORGBACK
 10
0.0
 20
0.0
 30
0.0
  9
$USERI1
 70
     0
  9
$USERI2
 70
     0
  9
$USERI3
 70
     0
  9
$USERI4
 70
     0
  9
$USERI5
 70
     0
  9
$USERR1
 40
0.0
  9
$USERR2
 40
0.0
  9
$USERR3
 40
0.0
  9
$USERR4
 40
0.0
  9
$USERR5
 40
0.0
  9
$WORLDVIEW
 70
     1
  9
$SHADEDGE
 70
     3
  9
$SHADEDIF
 70
    70
  9
$TILEMODE
 70
     1
  9
$MAXACTVP
 70
    64
  9
$PINSBASE
 10
0.0
 20
0.0
 30
0.0
  9
$PLIMCHECK
 70
     0
  9
$PEXTMIN
 10
-0.5
 20
-0.5
 30
-0.5
  9
$PEXTMAX
 10
5.0
 20
5.0
 30
5.0
  9
$PLIMMIN
 10
-0.5
 20
-0.5
  9
$PLIMMAX
 10
5.0
 20
5.0
  9
$UNITMODE
 70
     0
  9
$VISRETAIN
 70
     1
  9
$PLINEGEN
 70
     0
  9
$PSLTSCALE
 70
     1
  9
$TREEDEPTH
 70
  3020
  9
$CMLSTYLE
  2
Standard
  9
$CMLJUST
 70
     0
  9
$CMLSCALE
 40
1.0
  9
$PROXYGRAPHICS
 70
     1
  9
$MEASUREMENT
 70
     1
  9
$CELWEIGHT
370
    13
  9
$ENDCAPS
280
     0
  9
$JOINSTYLE
280
     0
  9
$LWDISPLAY
290
     0
  9
$INSUNITS
 70
     4
  9
$HYPERLINKBASE
  1

  9
$STYLESHEET
  1

  9
$XEDIT
290
     1
  9
$CEPSNTYPE
380
     0
  9
$PSTYLEMODE
290
     1
  9
$FINGERPRINTGUID
  2
{2A8FD331-415F-4C96-B29E-DA044B1599E5}
  9
$VERSIONGUID
  2
{40068265-4172-3C4B-B23F-B66ACDEACEA1}
  9
$EXTNAMES
290
     1
  9
$PSVPSCALE
 40
0.0
  9
$OLESTARTUP
290
     0
  9
$SORTENTS
280
   127
  9
$INDEXCTL
280
     0
  9
$HIDETEXT
280
     1
  9
$XCLIPFRAME
290
     0
  9
$HALOGAP
280
     0
  9
$OBSCOLOR
 70
   257
  9
$OBSLTYPE
280
     0
  9
$INTERSECTIONDISPLAY
280
     0
  9
$INTERSECTIONCOLOR
 70
   257
  9
$DIMASSOC
280
     2
  9
$PROJECTNAME
  1

  0
ENDSEC
  0
SECTION
  2
CLASSES
  0
CLASS
  1
ACDBDICTIONARYWDFLT
  2
AcDbDictionaryWithDefault
  3
ObjectDBX Classes
 90
        0
 91
        1
280
     0
281
     0
  0
CLASS
  1
VISUALSTYLE
  2
AcDbVisualStyle
  3
ObjectDBX Classes
 90
     4095
 91
       24
280
     0
281
     0
  0
CLASS
  1
MATERIAL
  2
AcDbMaterial
  3
ObjectDBX Classes
 90
     1153
 91
        3
280
     0
281
     0
  0
CLASS
  1
SCALE
  2
AcDbScale
  3
ObjectDBX Classes
 90
     1153
 91
       33
280
     0
281
     0
  0
CLASS
  1
TABLESTYLE
  2
AcDbTableStyle
  3
ObjectDBX Classes
 90
     4095
 91
        1
280
     0
281
     0
  0
CLASS
  1
MLEADERSTYLE
  2
AcDbMLeaderStyle
  3
ACDB_MLEADERSTYLE_CLASS
 90
     4095
 91
        1
280
     0
281
     0
  0
CLASS
  1
SUN
  2
AcDbSun
  3
SCENEOE
 90
     1153
 91
        0
280
     0
281
     0
  0
CLASS
  1
IMAGEDEF
  2
AcDbRasterImageDef
  3
ISM
 90
        0
 91
        1
280
     0
281
     0
  0
CLASS
  1
IMAGE
  2
AcDbRasterImage
  3
ISM
 90
     2175
 91
        1
280
     0
281
     1
  0
CLASS
  1
IMAGEDEF_REACTOR
  2
AcDbRasterImageDefReactor
  3
ISM
 90
        1
 91
        1
280
     0
281
     0
  0
CLASS
  1
DIMASSOC
  2
AcDbDimAssoc
  3
"AcDbDimAssoc|Product Desc:     AcDim ARX App For Dimension|Company:          Autodesk, Inc.|WEB Address:      www.autodesk.com"
 90
        0
 91
        4
280
     0
281
     0
  0
CLASS
  1
DICTIONARYVAR
  2
AcDbDictionaryVar
  3
ObjectDBX Classes
 90
        0
 91
        8
280
     0
281
     0
  0
CLASS
  1
CELLSTYLEMAP
  2
AcDbCellStyleMap
  3
ObjectDBX Classes
 90
     1152
 91
        2
280
     0
281
     0
  0
CLASS
  1
ACDBSECTIONVIEWSTYLE
  2
AcDbSectionViewStyle
  3
ObjectDBX Classes
 90
     1025
 91
        2
280
     0
281
     0
  0
CLASS
  1
ACDBDETAILVIEWSTYLE
  2
AcDbDetailViewStyle
  3
ObjectDBX Classes
 90
     1025
 91
        2
280
     0
281
     0
  0
CLASS
  1
RASTERVARIABLES
  2
AcDbRasterVariables
  3
ISM
 90
        0
 91
        1
280
     0
281
     0
  0
CLASS
  1
AMGSETTINGSOBJ
  2
AmgSettingsObj
  3
"AcadM|Product Description: AutoCAD Mechanical|Company: Autodesk, Inc."
 90
     1024
 91
        2
280
     0
281
     0
  0
CLASS
  1
ACME_DOCUMENT
  2
AcMeDbDoc
  3
AcMeServices
 90
     1024
 91
        1
280
     0
281
     0
  0
CLASS
  1
ACMESCOPE
  2
AcMeScope
  3
AcMeServices
 90
     1024
 91
        1
280
     0
281
     0
  0
CLASS
  1
ACMECOMMANDHISTORY
  2
AcMeCommandHistory
  3
AcMeServices
 90
     1024
 91
        1
280
     0
281
     0
  0
CLASS
  1
ACIMSYSVARMAN
  2
AcImSysVarManager
  3
AcMeServices
 90
     1024
 91
        3
280
     0
281
     0
  0
CLASS
  1
ACIMINTSYSVAR
  2
AcImIntSysVar
  3
AcMeServices
 90
     1024
 91
        2
280
     0
281
     0
  0
CLASS
  1
ACMESTATEMGR
  2
AcMeStateMgr
  3
AcMeServices
 90
     1024
 91
        1
280
     0
281
     0
  0
CLASS
  1
ACDBENTITYCACHE
  2
AcMeEntityCache
  3
AcMeServices
 90
     1024
 91
        1
280
     0
281
     0
  0
CLASS
  1
ACGREFMASTER
  2
AcGrefMaster
  3
AcAttribServices
 90
     1024
 91
        1
280
     0
281
     0
  0
CLASS
  1
ACME_DATABASE
  2
AcMeDbDatabase
  3
AcMeServices
 90
     1024
 91
        1
280
     0
281
     0
  0
CLASS
  1
ACRFINSADJUSTERMGR
  2
AcRfInsAdjusterMgr
  3
AcMeServices
 90
     1024
 91
        1
280
     0
281
     0
  0
CLASS
  1
ACGREFACADMASTER
  2
AcGrefacadMaster
  3
AcGrefServices
 90
     1024
 91
        1
280
     0
281
     0
  0
CLASS
  1
AMIMASTER
  2
AmiMaster
  3
AmiServices
 90
     1024
 91
        1
280
     0
281
     0
  0
CLASS
  1
AMDTMENUSTATEMGR
  2
AmdtMenuStateMgr
  3
McadcomServices
 90
     1024
 91
        1
280
     0
281
     0
  0
CLASS
  1
AMDTMCOMMENUSTATE
  2
AmdtMcomMenuState
  3
McadcomServices
 90
     1024
 91
        1
280
     0
281
     0
  0
CLASS
  1
MAPIAMMOUDLE
  2
MApiAmModule
  3
MApiAmServices
 90
     1024
 91
        1
280
     0
281
     0
  0
CLASS
  1
ACIMSTRSYSVAR
  2
AcImStrSysVar
  3
AcMeServices
 90
     1024
 91
        5
280
     0
281
     0
  0
CLASS
  1
AMDTAMMENUSTATE
  2
AmdtAmMenuState
  3
DesignerAssemblies_arx
 90
     1024
 91
        1
280
     0
281
     0
  0
CLASS
  1
ACAMPROJECT
  2
AcAmProject
  3
DesignerAssemblies
 90
     1024
 91
        1
280
     0
281
     0
  0
CLASS
  1
ACAMGRCOMPDEF
  2
AcAmGrCompDef
  3
DesignerAssemblies
 90
     1024
 91
        1
280
     0
281
     0
  0
CLASS
  1
ACAMCOMPDEF
  2
AcAmCompDef
  3
DesignerAssemblies
 90
     1024
 91
        1
280
     0
281
     0
  0
CLASS
  1
ACAMCOMPDEFMGR
  2
AcAmCompDefMgr
  3
DesignerAssemblies
 90
     1024
 91
        1
280
     0
281
     0
  0
CLASS
  1
AMCONTEXTMGR
  2
AcAmContextMgr
  3
DesignerAssemblies
 90
     1024
 91
        1
280
     0
281
     0
  0
CLASS
  1
ACAMCONTEXTMODELER
  2
AcAmContextModeler
  3
DesignerAssemblies
 90
     1024
 91
        1
280
     0
281
     0
  0
CLASS
  1
ACMDATADICTIONARY
  2
AcmDataDictionary
  3
"AcmSymBB|Product Description: AutoCAD Mechanical|Company: Autodesk, Inc."
 90
     1024
 91
        1
280
     0
281
     0
  0
CLASS
  1
ACAMGRCOMPDEFSET
  2
AcAmGrCompDefSet
  3
DesignerAssemblies
 90
     1024
 91
        1
280
     0
281
     0
  0
CLASS
  1
AMDTBROWSERDBTAB
  2
AmdtBrowserDbTab
  3
McadcomServices
 90
     1024
 91
        1
280
     0
281
     0
  0
CLASS
  1
CBROWSERAPPOBJECT
  2
CBrowserAppObject
  3
McadcomServices
 90
     1024
 91
        2
280
     0
281
     0
  0
CLASS
  1
DM_PLACEHOLDER
  2
AcDmSelsetPlaceholder
  3
McadcomServices
 90
     1024
 91
        1
280
     0
281
     0
  0
CLASS
  1
ACMSTANDARDISO
  2
AcmStandardISO
  3
"Amdt_StdImp|Product Description: AutoCAD Mechanical|Company: Autodesk, Inc."
 90
     1024
 91
        1
280
     0
281
     0
  0
CLASS
  1
AMDTEDGESTANDARDISO13715
  2
AmdtEdgeStdISO13715
  3
"Amdt_StdImp|Product Description: AutoCAD Mechanical|Company: Autodesk, Inc."
 90
     1024
 91
        1
280
     0
281
     0
  0
CLASS
  1
ACMSURFSTANDARDISO2002
  2
AcmSurfTextStdISO2002
  3
"Amdt_StdImp|Product Description: AutoCAD Mechanical|Company: Autodesk, Inc."
 90
     1024
 91
        1
280
     0
281
     0
  0
CLASS
  1
ACMFCFSTANDARDISO2012
  2
AcmFCFStdISO2012
  3
"Amdt_StdImp|Product Description: AutoCAD Mechanical|Company: Autodesk, Inc."
 90
     1024
 91
        1
280
     0
281
     0
  0
CLASS
  1
ACMWELDSTANDARDISO
  2
AcmWeldingStdISO
  3
"Amdt_StdImp|Product Description: AutoCAD Mechanical|Company: Autodesk, Inc."
 90
     1024
 91
        1
280
     0
281
     0
  0
CLASS
  1
ACMIDSTANDARDISO2012
  2
AcmIdStdISO2012
  3
"Amdt_StdImp|Product Description: AutoCAD Mechanical|Company: Autodesk, Inc."
 90
     1024
 91
        1
280
     0
281
     0
  0
CLASS
  1
ACMDATUMSTANDARDISO2012
  2
AcmDatumStdISO2012
  3
"Amdt_StdImp|Product Description: AutoCAD Mechanical|Company: Autodesk, Inc."
 90
     1024
 91
        1
280
     0
281
     0
  0
CLASS
  1
ACMBOMSTANDARDISO
  2
AcmBOMStdISO
  3
"Amdt_StdImp|Product Description: AutoCAD Mechanical|Company: Autodesk, Inc."
 90
     1024
 91
        1
280
     0
281
     0
  0
CLASS
  1
ACMDETAILSTANDARDISO
  2
AmdtDetailSymStdISO
  3
"Amdt_StdImp|Product Description: AutoCAD Mechanical|Company: Autodesk, Inc."
 90
     1024
 91
        1
280
     0
281
     0
  0
CLASS
  1
ACMSECTIONSTANDARDISO2001
  2
AmdtSectionSymStdISO2001
  3
"Amdt_StdImp|Product Description: AutoCAD Mechanical|Company: Autodesk, Inc."
 90
     1024
 91
        1
280
     0
281
     0
  0
CLASS
  1
ACMCENTERLINESTANDARDISO
  2
AmdtCenterLineStdISO
  3
"Amdt_StdImp|Product Description: AutoCAD Mechanical|Company: Autodesk, Inc."
 90
     1024
 91
        1
280
     0
281
     0
  0
CLASS
  1
ACMTHREADLINESTANDARDISO
  2
AmdtThreadLineStdISO
  3
"Amdt_StdImp|Product Description: AutoCAD Mechanical|Company: Autodesk, Inc."
 90
     1024
 91
        1
280
     0
281
     0
  0
CLASS
  1
ACMNOTESTANDARDISO
  2
AmdtNoteStdISO
  3
"Amdt_StdImp|Product Description: AutoCAD Mechanical|Company: Autodesk, Inc."
 90
     1024
 91
        1
280
     0
281
     0
  0
CLASS
  1
ACMTAPERSTANDARDISO
  2
AcmTaperStdISO
  3
"Amdt_StdImp|Product Description: AutoCAD Mechanical|Company: Autodesk, Inc."
 90
     1024
 91
        1
280
     0
281
     0
  0
CLASS
  1
ACMANOOTATIONVIEWSTANDARDISO
  2
AmdtAnViewStdISO
  3
"Amdt_StdImp|Product Description: AutoCAD Mechanical|Company: Autodesk, Inc."
 90
     1024
 91
        1
280
     0
281
     0
  0
CLASS
  1
ACAMGLAYSTD
  2
AcAmgLayStd
  3
"AmgLay|Product Description: AutoCAD Mechanical|Company: Autodesk, Inc."
 90
     1024
 91
        1
280
     0
281
     0
  0
CLASS
  1
ACAMGTITLESTD
  2
AcAmgTitleStd
  3
"AmgTitle|Product Description: AutoCAD Mechanical|Company: Autodesk, Inc."
 90
     1024
 91
        1
280
     0
281
     0
  0
CLASS
  1
ACAMGDIMSTD
  2
AcAmgDimStd
  3
"AmgDim|Product Description: AutoCAD Mechanical|Company: Autodesk, Inc."
 90
     1024
 91
        1
280
     0
281
     0
  0
CLASS
  1
AMGOBJPROPCFG
  2
AmgObjPropCfg
  3
"AmgLay|Product Description: AutoCAD Mechanical|Company: Autodesk, Inc."
 90
     1024
 91
        1
280
     0
281
     0
  0
CLASS
  1
ACAMGHOLECHARTSTDISO
  2
AcAmgHoleChartStdISO
  3
"AmgDim" "Product Description: AutoCAD Mechanical|Company: Autodesk, Inc."
 90
     1024
 91
        1
280
     0
281
     0
  0
CLASS
  1
ACMSECTIONSTANDARDCUSTOM
  2
AmdtSectionSymStdCustom
  3
"Amdt_StdImp|Product Description: AutoCAD Mechanical|Company: Autodesk, Inc."
 90
     1024
 91
        1
280
     0
281
     0
  0
CLASS
  1
ACMDETAILTANDARDCUSTOM
  2
AmdtDetailSymStdCustom
  3
"Amdt_StdImp|Product Description: AutoCAD Mechanical|Company: Autodesk, Inc."
 90
     1024
 91
        1
280
     0
281
     0
  0
CLASS
  1
FIELD
  2
AcDbField
  3
ObjectDBX Classes
 90
     1152
 91
        3
280
     0
281
     0
  0
CLASS
  1
FIELDLIST
  2
AcDbFieldList
  3
ObjectDBX Classes
 90
     1152
 91
        1
280
     0
281
     0
  0
CLASS
  1
AMDTNOTETEMPLATEDB
  2
AmdtNoteTemplateDB
  3
"AcmSymBB" "Product Description: AutoCAD Mechanical|Company: Autodesk, Inc."
 90
     1024
 91
        7
280
     0
281
     0
  0
CLASS
  1
ACAMGFILTERDAT
  2
AcAmgFilterDat
  3
"AcadM|Product Description: AutoCAD Mechanical|Company: Autodesk, Inc."
 90
     1024
 91
        6
280
     0
281
     0
  0
CLASS
  1
SORTENTSTABLE
  2
AcDbSortentsTable
  3
ObjectDBX Classes
 90
        0
 91
        1
280
     0
281
     0
  0
ENDSEC
  0
SECTION
  2
TABLES
  0
TABLE
  2
VPORT
  5
8
330
0
100
AcDbSymbolTable
 70
    16
  0
VPORT
  5
29
330
8
100
AcDbSymbolTableRecord
100
AcDbViewportTableRecord
  2
*Active
 70
     0
 10
0.0
 20
0.0
 11
1.0
 21
1.0
 12
462.3659280458274
 22
414.0292025114261
 13
0.0
 23
0.0
 14
0.5
 24
0.5
 15
0.5
 25
0.5
 16
0.0
 26
0.0
 36
1.0
 17
0.0
 27
0.0
 37
0.0
 40
324.0600354255835
 41
2.292712066905615
 42
50.0
 43
787.830572
 44
-787.830572
 50
0.0
 51
0.0
 71
     0
 72
   100
 73
     1
 74
     3
 75
     0
 76
     0
 77
     0
 78
     0
281
     0
 65
     0
110
0.0
120
0.0
130
0.0
111
1.0
121
0.0
131
0.0
112
0.0
122
1.0
132
0.0
 79
     0
146
0.0
1001
ACAD_NAV_VCDISPLAY
1070
     3
  0
VPORT
  5
20A
330
8
100
AcDbSymbolTableRecord
100
AcDbViewportTableRecord
  2
L1
 70
     0
 10
0.0
 20
0.0
 11
1.0
 21
1.0
 12
413.3267489999999
 22
216.830817
 13
0.0
 23
0.0
 14
0.5
 24
0.5
 15
0.5
 25
0.5
 16
0.0
 26
0.0
 36
1.0
 17
0.0
 27
0.0
 37
0.0
 40
207.433333
 41
0.085602
 42
50.0
 43
787.830572
 44
-787.830572
 50
0.0
 51
0.0
 71
     0
 72
   100
 73
     1
 74
     3
 75
     0
 76
     0
 77
     0
 78
     0
281
     0
 65
     1
110
0.0
120
0.0
130
0.0
111
1.0
121
0.0
131
0.0
112
0.0
122
1.0
132
0.0
 79
     0
146
0.0
  0
VPORT
  5
20B
330
8
100
AcDbSymbolTableRecord
100
AcDbViewportTableRecord
  2
L2
 70
     0
 10
0.0
 20
0.0
 11
0.5
 21
1.0
 12
0.0
 22
0.0
 13
0.0
 23
0.0
 14
0.5
 24
0.5
 15
0.5
 25
0.5
 16
0.0
 26
-1.0
 36
0.0
 17
0.0
 27
0.0
 37
0.0
 40
1478.660809
 41
0.012009
 42
50.0
 43
765.39502
 44
-765.39502
 50
0.0
 51
0.0
 71
     0
 72
   100
 73
     1
 74
     3
 75
     0
 76
     0
 77
     0
 78
     0
281
     0
 65
     1
110
0.0
120
0.0
130
0.0
111
1.0
121
0.0
131
0.0
112
0.0
122
1.0
132
0.0
 79
     0
146
0.0
  0
VPORT
  5
20C
330
8
100
AcDbSymbolTableRecord
100
AcDbViewportTableRecord
  2
L2
 70
     0
 10
0.5
 20
0.0
 11
1.0
 21
1.0
 12
0.0
 22
0.0
 13
0.0
 23
0.0
 14
0.5
 24
0.5
 15
0.5
 25
0.5
 16
1.0
 26
0.0
 36
0.0
 17
0.0
 27
0.0
 37
0.0
 40
1478.660809
 41
0.012009
 42
50.0
 43
746.5698859999999
 44
-746.5698859999999
 50
0.0
 51
0.0
 71
     0
 72
   100
 73
     1
 74
     3
 75
     0
 76
     0
 77
     0
 78
     0
281
     0
 65
     1
110
0.0
120
0.0
130
0.0
111
1.0
121
0.0
131
0.0
112
0.0
122
1.0
132
0.0
 79
     0
146
0.0
  0
VPORT
  5
20D
330
8
100
AcDbSymbolTableRecord
100
AcDbViewportTableRecord
  2
L3
 70
     0
 10
0.0
 20
0.5
 11
1.0
 21
1.0
 12
413.3267489999999
 22
216.830817
 13
0.0
 23
0.0
 14
0.5
 24
0.5
 15
0.5
 25
0.5
 16
0.0
 26
0.0
 36
1.0
 17
0.0
 27
0.0
 37
0.0
 40
207.433333
 41
0.085602
 42
50.0
 43
787.830572
 44
-787.830572
 50
0.0
 51
0.0
 71
     0
 72
   100
 73
     1
 74
     3
 75
     0
 76
     0
 77
     0
 78
     0
281
     0
 65
     1
110
0.0
120
0.0
130
0.0
111
1.0
121
0.0
131
0.0
112
0.0
122
1.0
132
0.0
 79
     0
146
0.0
  0
VPORT
  5
20E
330
8
100
AcDbSymbolTableRecord
100
AcDbViewportTableRecord
  2
L3
 70
     0
 10
0.0
 20
0.0
 11
1.0
 21
0.5
 12
0.0
 22
0.0
 13
0.0
 23
0.0
 14
0.5
 24
0.5
 15
0.5
 25
0.5
 16
0.0
 26
-1.0
 36
0.0
 17
0.0
 27
0.0
 37
0.0
 40
1478.660809
 41
0.012009
 42
50.0
 43
765.39502
 44
-765.39502
 50
0.0
 51
0.0
 71
     0
 72
   100
 73
     1
 74
     3
 75
     0
 76
     0
 77
     0
 78
     0
281
     0
 65
     1
110
0.0
120
0.0
130
0.0
111
1.0
121
0.0
131
0.0
112
0.0
122
1.0
132
0.0
 79
     0
146
0.0
  0
VPORT
  5
20F
330
8
100
AcDbSymbolTableRecord
100
AcDbViewportTableRecord
  2
L4
 70
     0
 10
0.0
 20
0.5
 11
0.5
 21
1.0
 12
413.3267489999999
 22
216.830817
 13
0.0
 23
0.0
 14
0.5
 24
0.5
 15
0.5
 25
0.5
 16
0.0
 26
0.0
 36
1.0
 17
0.0
 27
0.0
 37
0.0
 40
207.433333
 41
0.085602
 42
50.0
 43
787.830572
 44
-787.830572
 50
0.0
 51
0.0
 71
     0
 72
   100
 73
     1
 74
     3
 75
     0
 76
     0
 77
     0
 78
     0
281
     0
 65
     1
110
0.0
120
0.0
130
0.0
111
1.0
121
0.0
131
0.0
112
0.0
122
1.0
132
0.0
 79
     0
146
0.0
  0
VPORT
  5
210
330
8
100
AcDbSymbolTableRecord
100
AcDbViewportTableRecord
  2
L4
 70
     0
 10
0.0
 20
0.0
 11
0.5
 21
0.5
 12
0.0
 22
0.0
 13
0.0
 23
0.0
 14
0.5
 24
0.5
 15
0.5
 25
0.5
 16
0.0
 26
-1.0
 36
0.0
 17
0.0
 27
0.0
 37
0.0
 40
1478.660809
 41
0.012009
 42
50.0
 43
765.39502
 44
-765.39502
 50
0.0
 51
0.0
 71
     0
 72
   100
 73
     1
 74
     3
 75
     0
 76
     0
 77
     0
 78
     0
281
     0
 65
     1
110
0.0
120
0.0
130
0.0
111
1.0
121
0.0
131
0.0
112
0.0
122
1.0
132
0.0
 79
     0
146
0.0
  0
VPORT
  5
211
330
8
100
AcDbSymbolTableRecord
100
AcDbViewportTableRecord
  2
L4
 70
     0
 10
0.5
 20
0.0
 11
1.0
 21
0.5
 12
0.0
 22
0.0
 13
0.0
 23
0.0
 14
0.5
 24
0.5
 15
0.5
 25
0.5
 16
1.0
 26
0.0
 36
0.0
 17
0.0
 27
0.0
 37
0.0
 40
1478.660809
 41
0.012009
 42
50.0
 43
746.5698859999999
 44
-746.5698859999999
 50
0.0
 51
0.0
 71
     0
 72
   100
 73
     1
 74
     3
 75
     0
 76
     0
 77
     0
 78
     0
281
     0
 65
     1
110
0.0
120
0.0
130
0.0
111
1.0
121
0.0
131
0.0
112
0.0
122
1.0
132
0.0
 79
     0
146
0.0
  0
VPORT
  5
212
330
8
100
AcDbSymbolTableRecord
100
AcDbViewportTableRecord
  2
L4
 70
     0
 10
0.5
 20
0.5
 11
1.0
 21
1.0
 12
0.0
 22
0.0
 13
0.0
 23
0.0
 14
0.5
 24
0.5
 15
0.5
 25
0.5
 16
0.5773502691896259
 26
-0.5773502691896259
 36
0.5773502691896259
 17
0.0
 27
0.0
 37
0.0
 40
1453.705292
 41
0.012215
 42
50.0
 43
757.5245879999999
 44
-757.5245879999999
 50
0.0
 51
0.0
 71
     0
 72
   100
 73
     1
 74
     3
 75
     0
 76
     0
 77
     0
 78
     0
281
     0
 65
     1
110
0.0
120
0.0
130
0.0
111
1.0
121
0.0
131
0.0
112
0.0
122
1.0
132
0.0
 79
     0
146
0.0
  0
VPORT
  5
213
330
8
100
AcDbSymbolTableRecord
100
AcDbViewportTableRecord
  2
L6
 70
     0
 10
0.0
 20
0.5
 11
0.333333
 21
1.0
 12
0.0
 22
0.0
 13
0.0
 23
0.0
 14
0.5
 24
0.5
 15
0.5
 25
0.5
 16
0.7188730927569434
 26
-0.5850486126764433
 36
0.3754192287502549
 17
0.0
 27
0.0
 37
0.0
 40
1534.989881
 41
0.011568
 42
50.0
 43
794.5176169999999
 44
-794.5176169999999
 50
0.0
 51
0.0
 71
     0
 72
   100
 73
     1
 74
     3
 75
     0
 76
     0
 77
     0
 78
     0
281
     0
 65
     1
110
0.0
120
0.0
130
0.0
111
1.0
121
0.0
131
0.0
112
0.0
122
1.0
132
0.0
 79
     0
146
0.0
  0
VPORT
  5
214
330
8
100
AcDbSymbolTableRecord
100
AcDbViewportTableRecord
  2
L6
 70
     0
 10
0.0
 20
0.0
 11
0.333333
 21
0.5
 12
0.0
 22
0.0
 13
0.0
 23
0.0
 14
0.5
 24
0.5
 15
0.5
 25
0.5
 16
-1.0
 26
0.0
 36
0.0
 17
0.0
 27
0.0
 37
0.0
 40
1478.660809
 41
0.012009
 42
50.0
 43
746.5698859999999
 44
-746.5698859999999
 50
0.0
 51
0.0
 71
     0
 72
   100
 73
     1
 74
     3
 75
     0
 76
     0
 77
     0
 78
     0
281
     0
 65
     1
110
0.0
120
0.0
130
0.0
111
1.0
121
0.0
131
0.0
112
0.0
122
1.0
132
0.0
 79
     0
146
0.0
  0
VPORT
  5
215
330
8
100
AcDbSymbolTableRecord
100
AcDbViewportTableRecord
  2
L6
 70
     0
 10
0.333333
 20
0.5
 11
0.666667
 21
1.0
 12
413.3267489999999
 22
216.830817
 13
0.0
 23
0.0
 14
0.5
 24
0.5
 15
0.5
 25
0.5
 16
0.0
 26
0.0
 36
1.0
 17
0.0
 27
0.0
 37
0.0
 40
207.433333
 41
0.085602
 42
50.0
 43
787.830572
 44
-787.830572
 50
0.0
 51
0.0
 71
     0
 72
   100
 73
     1
 74
     3
 75
     0
 76
     0
 77
     0
 78
     0
281
     0
 65
     1
110
0.0
120
0.0
130
0.0
111
1.0
121
0.0
131
0.0
112
0.0
122
1.0
132
0.0
 79
     0
146
0.0
  0
VPORT
  5
216
330
8
100
AcDbSymbolTableRecord
100
AcDbViewportTableRecord
  2
L6
 70
     0
 10
0.333333
 20
0.0
 11
0.666667
 21
0.5
 12
0.0
 22
0.0
 13
0.0
 23
0.0
 14
0.5
 24
0.5
 15
0.5
 25
0.5
 16
0.0
 26
-1.0
 36
0.0
 17
0.0
 27
0.0
 37
0.0
 40
1478.660809
 41
0.012009
 42
50.0
 43
765.39502
 44
-765.39502
 50
0.0
 51
0.0
 71
     0
 72
   100
 73
     1
 74
     3
 75
     0
 76
     0
 77
     0
 78
     0
281
     0
 65
     1
110
0.0
120
0.0
130
0.0
111
1.0
121
0.0
131
0.0
112
0.0
122
1.0
132
0.0
 79
     0
146
0.0
  0
VPORT
  5
217
330
8
100
AcDbSymbolTableRecord
100
AcDbViewportTableRecord
  2
L6
 70
     0
 10
0.666667
 20
0.5
 11
1.0
 21
1.0
 12
0.0
 22
0.0
 13
0.0
 23
0.0
 14
0.5
 24
0.5
 15
0.5
 25
0.5
 16
0.5773502691896259
 26
-0.5773502691896259
 36
0.5773502691896259
 17
0.0
 27
0.0
 37
0.0
 40
1453.705292
 41
0.012215
 42
50.0
 43
757.5245879999999
 44
-757.5245879999999
 50
0.0
 51
0.0
 71
     0
 72
   100
 73
     1
 74
     3
 75
     0
 76
     0
 77
     0
 78
     0
281
     0
 65
     1
110
0.0
120
0.0
130
0.0
111
1.0
121
0.0
131
0.0
112
0.0
122
1.0
132
0.0
 79
     0
146
0.0
  0
VPORT
  5
218
330
8
100
AcDbSymbolTableRecord
100
AcDbViewportTableRecord
  2
L6
 70
     0
 10
0.666667
 20
0.0
 11
1.0
 21
0.5
 12
0.0
 22
0.0
 13
0.0
 23
0.0
 14
0.5
 24
0.5
 15
0.5
 25
0.5
 16
1.0
 26
0.0
 36
0.0
 17
0.0
 27
0.0
 37
0.0
 40
1478.660809
 41
0.012009
 42
50.0
 43
746.5698859999999
 44
-746.5698859999999
 50
0.0
 51
0.0
 71
     0
 72
   100
 73
     1
 74
     3
 75
     0
 76
     0
 77
     0
 78
     0
281
     0
 65
     1
110
0.0
120
0.0
130
0.0
111
1.0
121
0.0
131
0.0
112
0.0
122
1.0
132
0.0
 79
     0
146
0.0
  0
ENDTAB
  0
TABLE
  2
LTYPE
  5
5
330
0
100
AcDbSymbolTable
 70
    19
  0
LTYPE
  5
14
330
5
100
AcDbSymbolTableRecord
100
AcDbLinetypeTableRecord
  2
ByBlock
 70
     0
  3

 72
    65
 73
     0
 40
0.0
  0
LTYPE
  5
15
330
5
100
AcDbSymbolTableRecord
100
AcDbLinetypeTableRecord
  2
ByLayer
 70
     0
  3

 72
    65
 73
     0
 40
0.0
  0
LTYPE
  5
16
330
5
100
AcDbSymbolTableRecord
100
AcDbLinetypeTableRecord
  2
Continuous
 70
     0
  3
Solid line
 72
    65
 73
     0
 40
0.0
  0
LTYPE
  5
6E
330
5
100
AcDbSymbolTableRecord
100
AcDbLinetypeTableRecord
  2
CENTER
 70
     0
  3
____ _ ____ _ ____ _ ____
 72
    65
 73
     4
 40
47.4
 49
22.0
 74
     4
 75
     0
340
0
 46
0.0
 50
0.0
 44
0.0
 45
0.0
 49
-8.5
 74
     4
 75
     0
340
0
 46
0.0
 50
0.0
 44
0.0
 45
0.0
 49
8.5
 74
     4
 75
     0
340
0
 46
0.0
 50
0.0
 44
0.0
 45
0.0
 49
-8.5
 74
     4
 75
     0
340
0
 46
0.0
 50
0.0
 44
0.0
 45
0.0
  0
LTYPE
  5
6F
330
5
100
AcDbSymbolTableRecord
100
AcDbLinetypeTableRecord
  2
DASHDOT
 70
     0
  3
_._._._._._._._._._._._._._._._.
 72
    65
 73
     4
 40
70.0
 49
31.0
 74
     4
 75
     0
340
0
 46
0.0
 50
0.0
 44
0.0
 45
0.0
 49
-13.0
 74
     4
 75
     0
340
0
 46
0.0
 50
0.0
 44
0.0
 45
0.0
 49
13.0
 74
     4
 75
     0
340
0
 46
0.0
 50
0.0
 44
0.0
 45
0.0
 49
-13.0
 74
     4
 75
     0
340
0
 46
0.0
 50
0.0
 44
0.0
 45
0.0
  0
LTYPE
  5
70
330
5
100
AcDbSymbolTableRecord
100
AcDbLinetypeTableRecord
  2
DASHED
 70
     0
  3
__ __ __ __ __ __ __ __ __
 72
    65
 73
     2
 40
25.72
 49
12.86
 74
     4
 75
     0
340
0
 46
0.0
 50
0.0
 44
0.0
 45
0.0
 49
-12.86
 74
     4
 75
     0
340
0
 46
0.0
 50
0.0
 44
0.0
 45
0.0
  0
LTYPE
  5
71
330
5
100
AcDbSymbolTableRecord
100
AcDbLinetypeTableRecord
  2
DOT
 70
     0
  3
.........................
 72
    65
 73
     2
 40
10.0
 49
0.0
 74
     4
 75
     0
340
0
 46
0.0
 50
0.0
 44
0.0
 45
0.0
 49
-10.0
 74
     4
 75
     0
340
0
 46
0.0
 50
0.0
 44
0.0
 45
0.0
  0
LTYPE
  5
72
330
5
100
AcDbSymbolTableRecord
100
AcDbLinetypeTableRecord
  2
PHANTOM
 70
     0
  3
____ _ _ ____ _ _ _____ _ _ ____
 72
    65
 73
     6
 40
50.5
 49
18.0
 74
     4
 75
     0
340
0
 46
0.0
 50
0.0
 44
0.0
 45
0.0
 49
-6.5
 74
     4
 75
     0
340
0
 46
0.0
 50
0.0
 44
0.0
 45
0.0
 49
6.5
 74
     4
 75
     0
340
0
 46
0.0
 50
0.0
 44
0.0
 45
0.0
 49
-6.5
 74
     4
 75
     0
340
0
 46
0.0
 50
0.0
 44
0.0
 45
0.0
 49
6.5
 74
     4
 75
     0
340
0
 46
0.0
 50
0.0
 44
0.0
 45
0.0
 49
-6.5
 74
     4
 75
     0
340
0
 46
0.0
 50
0.0
 44
0.0
 45
0.0
  0
LTYPE
  5
278
330
5
100
AcDbSymbolTableRecord
100
AcDbLinetypeTableRecord
  2
HIDDEN
 70
     0
  3
Hidden __ __ __ __ __ __ __ __ __ __ __ __ __ _
 72
    65
 73
     2
 40
9.524999999999998
 49
6.349999999999999
 74
     0
 49
-3.174999999999999
 74
     0
  0
LTYPE
  5
279
330
5
100
AcDbSymbolTableRecord
100
AcDbLinetypeTableRecord
  2
PHANTOM2
 70
     0
  3
Phantom (.5x) ___ _ _ ___ _ _ ___ _ _ ___ _ _
 72
    65
 73
     6
 40
31.75
 49
15.875
 74
     0
 49
-3.174999999999999
 74
     0
 49
3.174999999999999
 74
     0
 49
-3.174999999999999
 74
     0
 49
3.174999999999999
 74
     0
 49
-3.174999999999999
 74
     0
  0
LTYPE
  5
2B4
330
5
100
AcDbSymbolTableRecord
100
AcDbLinetypeTableRecord
  2
AM_ISO02W050
 70
     0
  3
__ __ __ __ __ __ __ __ __ __ __ __ __ __ __
 72
    65
 73
     2
 40
7.5
 49
6.0
 74
     0
 49
-1.5
 74
     0
  0
LTYPE
  5
2B5
330
5
100
AcDbSymbolTableRecord
100
AcDbLinetypeTableRecord
  2
AM_ISO08W050
 70
     0
  3
____ . ____ . ____ . ____ . ____ . ____ . ____
 72
    65
 73
     4
 40
18.0
 49
12.0
 74
     0
 49
-1.5
 74
     0
 49
3.0
 74
     0
 49
-1.5
 74
     0
  0
LTYPE
  5
2B6
330
5
100
AcDbSymbolTableRecord
100
AcDbLinetypeTableRecord
  2
AM_ISO09W050
 70
     0
  3
_____ . . _____ . . _____ . . ____ .. ____
 72
    65
 73
     6
 40
22.5
 49
12.0
 74
     0
 49
-1.5
 74
     0
 49
3.0
 74
     0
 49
-1.5
 74
     0
 49
3.0
 74
     0
 49
-1.5
 74
     0
  0
LTYPE
  5
2B7
330
5
100
AcDbSymbolTableRecord
100
AcDbLinetypeTableRecord
  2
Amconstr
 70
     0
  3
_______________________
 72
    65
 73
     2
 40
9999.0
 49
9999.0
 74
     0
 49
0.0
 74
     0
  0
LTYPE
  5
2B8
330
5
100
AcDbSymbolTableRecord
100
AcDbLinetypeTableRecord
  2
AM_ISO08W050x2
 70
     0
  3
__ . __ . __ . __ . __ . __
 72
    65
 73
     4
 40
9.0
 49
6.0
 74
     0
 49
-0.75
 74
     0
 49
1.5
 74
     0
 49
-0.75
 74
     0
  0
LTYPE
  5
2B9
330
5
100
AcDbSymbolTableRecord
100
AcDbLinetypeTableRecord
  2
AM_ISO02W050x2
 70
     0
  3
 _ _ _ _ _ _ _ _ _ _ _ _
 72
    65
 73
     2
 40
3.75
 49
3.0
 74
     0
 49
-0.75
 74
     0
  0
LTYPE
  5
2BC
330
5
100
AcDbSymbolTableRecord
100
AcDbLinetypeTableRecord
  2
Amzigzag
 70
     0
  3
/\/-/\/-/\/-/\/-/\/-/\/
 72
    65
 73
     2
 40
11.0001
 49
0.0001
 74
     4
 75
   136
340
2BB
 46
0.04
 50
0.0
 44
0.0
 45
0.0
 49
-11.0
 74
     0
  0
LTYPE
  5
2CC
330
5
100
AcDbSymbolTableRecord
100
AcDbLinetypeTableRecord
  2
ACISOWELD
 70
     0
  3
_ _ _ _ _
 72
    65
 73
     2
 40
2.0
 49
2.0
 74
     0
 49
-1.0
 74
     0
  0
LTYPE
  5
2CD
330
5
100
AcDbSymbolTableRecord
100
AcDbLinetypeTableRecord
  2
ACISOTGL
 70
     0
  3
_ _ _ _ _
 72
    65
 73
     2
 40
3.0
 49
2.0
 74
     0
 49
-1.0
 74
     0
  0
LTYPE
  5
2CE
330
5
100
AcDbSymbolTableRecord
100
AcDbLinetypeTableRecord
  2
ACISOTGB
 70
     0
  3
__ . . __ . .
 72
    65
 73
     6
 40
9.0
 49
4.0
 74
     0
 49
-1.0
 74
     0
 49
1.0
 74
     0
 49
-1.0
 74
     0
 49
1.0
 74
     0
 49
-1.0
 74
     0
  0
LTYPE
  5
317
330
5
100
AcDbSymbolTableRecord
100
AcDbLinetypeTableRecord
  2
CENTER2
 70
     0
  3
Center (.5x) ___ _ ___ _ ___ _ ___ _ ___ _ ___
 72
    65
 73
     4
 40
1.125
 49
0.75
 74
     0
 49
-0.125
 74
     0
 49
0.125
 74
     0
 49
-0.125
 74
     0
  0
ENDTAB
  0
TABLE
  2
LAYER
  5
2
330
0
100
AcDbSymbolTable
 70
    23
  0
LAYER
  5
10
102
{ACAD_XDICTIONARY
360
322
102
}
330
2
100
AcDbSymbolTableRecord
100
AcDbLayerTableRecord
  2
0
 70
     0
 62
     7
  6
Continuous
370
    -3
390
F
  0
LAYER
  5
76
102
{ACAD_XDICTIONARY
360
324
102
}
330
2
100
AcDbSymbolTableRecord
100
AcDbLayerTableRecord
  2
96
 70
     0
 62
     7
420
 16777215
  6
Continuous
370
    -3
390
F
  0
LAYER
  5
1AE
330
2
100
AcDbSymbolTableRecord
100
AcDbLayerTableRecord
  2
Defpoints
 70
     0
 62
     7
  6
Continuous
290
     0
370
    -3
390
F
  0
LAYER
  5
314
102
{ACAD_XDICTIONARY
360
326
102
}
330
2
100
AcDbSymbolTableRecord
100
AcDbLayerTableRecord
  2
1
 70
     0
 62
     4
  6
Continuous
370
    -3
390
F
  0
LAYER
  5
315
102
{ACAD_XDICTIONARY
360
328
102
}
330
2
100
AcDbSymbolTableRecord
100
AcDbLayerTableRecord
  2
2
 70
     0
 62
     7
  6
Continuous
370
    -3
390
F
  0
LAYER
  5
316
102
{ACAD_XDICTIONARY
360
32A
102
}
330
2
100
AcDbSymbolTableRecord
100
AcDbLayerTableRecord
  2
4
 70
     0
 62
     2
  6
CENTER2
370
    -3
390
F
  0
LAYER
  5
318
102
{ACAD_XDICTIONARY
360
32C
102
}
330
2
100
AcDbSymbolTableRecord
100
AcDbLayerTableRecord
  2
SK1
 70
     0
 62
     4
  6
Continuous
370
    -3
390
F
  0
LAYER
  5
319
102
{ACAD_XDICTIONARY
360
32E
102
}
330
2
100
AcDbSymbolTableRecord
100
AcDbLayerTableRecord
  2
SK2
 70
     0
 62
     7
  6
Continuous
370
    -3
390
F
  0
LAYER
  5
31B
102
{ACAD_XDICTIONARY
360
330
102
}
330
2
100
AcDbSymbolTableRecord
100
AcDbLayerTableRecord
  2
SK4
 70
     0
 62
     2
  6
CENTER2
370
    -3
390
F
  0
LAYER
  5
31C
102
{ACAD_XDICTIONARY
360
332
102
}
330
2
100
AcDbSymbolTableRecord
100
AcDbLayerTableRecord
  2
SK6
 70
     0
 62
     5
  6
Continuous
370
    -3
390
F
  0
LAYER
  5
31D
102
{ACAD_XDICTIONARY
360
334
102
}
330
2
100
AcDbSymbolTableRecord
100
AcDbLayerTableRecord
  2
CUT
 70
     0
 62
     1
  6
Continuous
370
    -3
390
F
  0
LAYER
  5
31E
102
{ACAD_XDICTIONARY
360
336
102
}
330
2
100
AcDbSymbolTableRecord
100
AcDbLayerTableRecord
  2
NOCUT
 70
     0
 62
     7
  6
Continuous
370
    -3
390
F
  0
LAYER
  5
31F
102
{ACAD_XDICTIONARY
360
338
102
}
330
2
100
AcDbSymbolTableRecord
100
AcDbLayerTableRecord
  2
80
 70
     0
 62
     6
  6
Continuous
370
    -3
390
F
  0
LAYER
  5
320
102
{ACAD_XDICTIONARY
360
33A
102
}
330
2
100
AcDbSymbolTableRecord
100
AcDbLayerTableRecord
  2
81
 70
     0
 62
     3
  6
Continuous
370
    -3
390
F
  0
ENDTAB
  0
TABLE
  2
STYLE
  5
3
330
0
100
AcDbSymbolTable
 70
     6
  0
STYLE
  5
11
330
3
100
AcDbSymbolTableRecord
100
AcDbTextStyleTableRecord
  2
Standard
 70
     0
 40
0.0
 41
1.0
 50
0.0
 71
     0
 42
0.2
  3
txt
  4

  0
STYLE
  5
1A2
330
3
100
AcDbSymbolTableRecord
100
AcDbTextStyleTableRecord
  2
cesky
 70
     0
 40
0.0
 41
1.0
 50
0.0
 71
     0
 42
0.2
  3
simplex.shx
  4

  0
STYLE
  5
1A3
330
3
100
AcDbSymbolTableRecord
100
AcDbTextStyleTableRecord
  2
DWGDirectTextStyle
 70
     0
 40
0.0
 41
1.0
 50
0.0
 71
     0
 42
0.2
  3
simplex
  4

  0
STYLE
  5
2BB
330
3
100
AcDbSymbolTableRecord
100
AcDbTextStyleTableRecord
  2

 70
     1
 40
0.0
 41
1.0
 50
0.0
 71
     0
 42
0.2
  3
genltshp.shx
  4

  0
STYLE
  5
2CA
330
3
100
AcDbSymbolTableRecord
100
AcDbTextStyleTableRecord
  2
ACISOTS
 70
     0
 40
0.0
 41
1.0
 50
0.0
 71
     0
 42
0.2
  3
isocp.shx
  4

  0
STYLE
  5
2CB
330
3
100
AcDbSymbolTableRecord
100
AcDbTextStyleTableRecord
  2
ACISOGDT
 70
     0
 40
0.0
 41
1.0
 50
0.0
 71
     0
 42
0.2
  3
amgdt.shx
  4

  0
ENDTAB
  0
TABLE
  2
VIEW
  5
6
330
0
100
AcDbSymbolTable
 70
     0
  0
ENDTAB
  0
TABLE
  2
UCS
  5
7
330
0
100
AcDbSymbolTable
 70
     0
  0
ENDTAB
  0
TABLE
  2
APPID
  5
9
330
0
100
AcDbSymbolTable
 70
    13
  0
APPID
  5
12
330
9
100
AcDbSymbolTableRecord
100
AcDbRegAppTableRecord
  2
ACAD
 70
     0
  0
APPID
  5
1AA
330
9
100
AcDbSymbolTableRecord
100
AcDbRegAppTableRecord
  2
ACAD_DSTYLE_DIMBREAK
 70
     0
  0
APPID
  5
219
330
9
100
AcDbSymbolTableRecord
100
AcDbRegAppTableRecord
  2
ACAD_DSTYLE_DIM_LINETYPE
 70
     0
  0
APPID
  5
21A
330
9
100
AcDbSymbolTableRecord
100
AcDbRegAppTableRecord
  2
ACAD_DSTYLE_DIM_EXT1_LINETYPE
 70
     0
  0
APPID
  5
21B
330
9
100
AcDbSymbolTableRecord
100
AcDbRegAppTableRecord
  2
ACAD_DSTYLE_DIM_EXT2_LINETYPE
 70
     0
  0
APPID
  5
25B
330
9
100
AcDbSymbolTableRecord
100
AcDbRegAppTableRecord
  2
ACAD_MLEADERVER
 70
     0
  0
APPID
  5
271
330
9
100
AcDbSymbolTableRecord
100
AcDbRegAppTableRecord
  2
MCAD_NO_VIS
 70
     0
  0
APPID
  5
272
330
9
100
AcDbSymbolTableRecord
100
AcDbRegAppTableRecord
  2
ACAD_TEMP_GRAPHIC
 70
     0
  0
APPID
  5
27E
330
9
100
AcDbSymbolTableRecord
100
AcDbRegAppTableRecord
  2
ACATTRIBSERVICES
 70
     0
  0
APPID
  5
296
330
9
100
AcDbSymbolTableRecord
100
AcDbRegAppTableRecord
  2
DESIGNERASSEMBLIES
 70
     0
  0
APPID
  5
2B2
330
9
100
AcDbSymbolTableRecord
100
AcDbRegAppTableRecord
  2
ACAD_DSTYLE_DIMJAG
 70
     0
  0
APPID
  5
2DE
330
9
100
AcDbSymbolTableRecord
100
AcDbRegAppTableRecord
  2
ACAD_NAV_VCDISPLAY
 70
     0
  0
APPID
  5
376
330
9
100
AcDbSymbolTableRecord
100
AcDbRegAppTableRecord
  2
ACAD_DSTYLE_DIMARC_LENGTH_SYMBOL
 70
     0
  0
ENDTAB
  0
TABLE
  2
DIMSTYLE
  5
A
330
0
100
AcDbSymbolTable
 70
     8
100
AcDbDimStyleTable
 71
     0
  0
DIMSTYLE
105
27
330
A
100
AcDbSymbolTableRecord
100
AcDbDimStyleTableRecord
  2
Standard
 70
     0
340
11
1001
ACAD_DSTYLE_DIMBREAK
1070
   391
1040
6.349999999999999
  0
DIMSTYLE
105
2B1
102
{ACAD_REACTORS
330
29F
102
}
330
A
100
AcDbSymbolTableRecord
100
AcDbDimStyleTableRecord
  2
AM_ISO
 70
     0
  4
"
 41
3.5
 42
1.0
 43
10.0
 44
1.0
 47
0.1
 48
0.1
 73
     0
 74
     0
 77
     1
 78
     8
 79
     2
140
3.5
141
0.0
143
0.0393701
146
0.71
147
1.5
172
     1
176
   256
177
   256
178
     2
271
     2
272
     3
274
     4
283
     0
284
     8
340
11
371
    -1
372
    -1
1001
ACAD_DSTYLE_DIMJAG
1070
   388
1040
1.5
1001
ACAD_DSTYLE_DIMBREAK
1070
   391
1040
3.75
1001
ACAD_DSTYLE_DIMARC_LENGTH_SYMBOL
1070
   379
1070
     1
1001
ACAD_DSTYLE_DIM_LINETYPE
1070
   380
1005
14
1001
ACAD_DSTYLE_DIM_EXT1_LINETYPE
1070
   381
1005
14
1001
ACAD_DSTYLE_DIM_EXT2_LINETYPE
1070
   382
1005
14
  0
DIMSTYLE
105
2BD
330
A
100
AcDbSymbolTableRecord
100
AcDbDimStyleTableRecord
  2
AM_ISO$3
 70
     0
  4
"
 41
3.5
 42
1.0
 43
10.0
 44
1.0
 47
0.1
 48
0.1
 73
     0
 77
     1
 78
     8
 79
     2
140
3.5
141
0.0
143
0.0393701
146
0.71
147
1.5
176
   256
177
   256
178
     2
271
     2
272
     3
274
     4
283
     0
284
     8
288
     1
289
     0
340
11
371
    -1
372
    -1
1001
ACAD_DSTYLE_DIMBREAK
1070
   391
1040
3.75
1001
ACAD_DSTYLE_DIMJAG
1070
   388
1040
1.5
1001
ACAD_DSTYLE_DIMARC_LENGTH_SYMBOL
1070
   379
1070
     1
1001
ACAD_DSTYLE_DIM_LINETYPE
1070
   380
1005
14
1001
ACAD_DSTYLE_DIM_EXT1_LINETYPE
1070
   381
1005
14
1001
ACAD_DSTYLE_DIM_EXT2_LINETYPE
1070
   382
1005
14
  0
DIMSTYLE
105
2BE
330
A
100
AcDbSymbolTableRecord
100
AcDbDimStyleTableRecord
  2
AM_ISO$4
 70
     0
  4
"
 41
3.5
 42
1.0
 43
10.0
 44
1.0
 47
0.1
 48
0.1
 73
     0
 77
     1
 78
     8
 79
     2
140
3.5
141
0.0
143
0.0393701
146
0.71
147
1.5
176
   256
177
   256
178
     2
271
     2
272
     3
274
     4
283
     0
284
     8
288
     1
289
     0
340
11
371
    -1
372
    -1
1001
ACAD_DSTYLE_DIMBREAK
1070
   391
1040
3.75
1001
ACAD_DSTYLE_DIMJAG
1070
   388
1040
1.5
1001
ACAD_DSTYLE_DIMARC_LENGTH_SYMBOL
1070
   379
1070
     1
1001
ACAD_DSTYLE_DIM_LINETYPE
1070
   380
1005
14
1001
ACAD_DSTYLE_DIM_EXT1_LINETYPE
1070
   381
1005
14
1001
ACAD_DSTYLE_DIM_EXT2_LINETYPE
1070
   382
1005
14
  0
DIMSTYLE
105
2BF
330
A
100
AcDbSymbolTableRecord
100
AcDbDimStyleTableRecord
  2
AM_ISO$6
 70
     0
  4
"
 41
3.5
 42
1.0
 43
10.0
 44
1.0
 47
0.1
 48
0.1
 73
     0
 74
     0
 78
     8
 79
     2
140
3.5
141
0.0
143
0.0393701
146
0.71
147
1.5
172
     1
176
   256
177
   256
178
     2
271
     2
272
     3
274
     4
283
     0
284
     8
340
11
371
    -1
372
    -1
1001
ACAD_DSTYLE_DIMBREAK
1070
   391
1040
3.75
1001
ACAD_DSTYLE_DIMJAG
1070
   388
1040
1.5
1001
ACAD_DSTYLE_DIMARC_LENGTH_SYMBOL
1070
   379
1070
     1
1001
ACAD_DSTYLE_DIM_LINETYPE
1070
   380
1005
14
1001
ACAD_DSTYLE_DIM_EXT1_LINETYPE
1070
   381
1005
14
1001
ACAD_DSTYLE_DIM_EXT2_LINETYPE
1070
   382
1005
14
  0
DIMSTYLE
105
2C0
330
A
100
AcDbSymbolTableRecord
100
AcDbDimStyleTableRecord
  2
AM_ISO$7
 70
     0
  4
"
 41
3.5
 42
1.0
 43
10.0
 44
1.0
 47
0.1
 48
0.1
 73
     0
 74
     0
 77
     1
 78
     8
 79
     2
140
3.5
141
0.0
143
0.0393701
146
0.71
147
1.5
172
     1
176
   256
177
   256
178
     2
271
     2
272
     3
274
     4
283
     0
284
     8
340
11
371
    -1
372
    -1
1001
ACAD_DSTYLE_DIMBREAK
1070
   391
1040
3.75
1001
ACAD_DSTYLE_DIMJAG
1070
   388
1040
1.5
1001
ACAD_DSTYLE_DIMARC_LENGTH_SYMBOL
1070
   379
1070
     1
1001
ACAD_DSTYLE_DIM_LINETYPE
1070
   380
1005
14
1001
ACAD_DSTYLE_DIM_EXT1_LINETYPE
1070
   381
1005
14
1001
ACAD_DSTYLE_DIM_EXT2_LINETYPE
1070
   382
1005
14
  0
DIMSTYLE
105
2C1
330
A
100
AcDbSymbolTableRecord
100
AcDbDimStyleTableRecord
  2
AM_ISO$SF
 70
     0
  4
"
 41
3.5
 42
1.0
 43
10.0
 44
1.0
 47
0.1
 48
0.1
 73
     0
 74
     0
 75
     1
 76
     1
 77
     1
 78
     8
 79
     2
140
3.5
141
0.0
143
0.0393701
146
0.71
147
1.5
172
     1
176
   256
177
   256
178
     2
271
     2
272
     3
274
     4
283
     0
284
     8
340
11
371
    -1
372
    -1
1001
ACAD_DSTYLE_DIMBREAK
1070
   391
1040
3.75
1001
ACAD_DSTYLE_DIMJAG
1070
   388
1040
1.5
1001
ACAD_DSTYLE_DIMARC_LENGTH_SYMBOL
1070
   379
1070
     1
1001
ACAD_DSTYLE_DIM_LINETYPE
1070
   380
1005
14
1001
ACAD_DSTYLE_DIM_EXT1_LINETYPE
1070
   381
1005
14
1001
ACAD_DSTYLE_DIM_EXT2_LINETYPE
1070
   382
1005
14
  0
DIMSTYLE
105
2C6
330
A
100
AcDbSymbolTableRecord
100
AcDbDimStyleTableRecord
  2
AM_ISO$SH
 70
     0
  4
"
 41
3.5
 42
1.0
 43
10.0
 44
1.0
 47
0.1
 48
0.1
 73
     0
 74
     0
 75
     1
 76
     1
 77
     1
 78
     8
 79
     2
140
3.5
141
0.0
143
0.0393701
144
2.0
146
0.71
147
1.5
172
     1
173
     1
176
   256
177
   256
178
     2
271
     2
272
     3
274
     4
283
     0
284
     8
340
11
343
2C2
371
    -1
372
    -1
1001
ACAD_DSTYLE_DIMBREAK
1070
   391
1040
3.75
1001
ACAD_DSTYLE_DIMJAG
1070
   388
1040
1.5
1001
ACAD_DSTYLE_DIMARC_LENGTH_SYMBOL
1070
   379
1070
     1
1001
ACAD_DSTYLE_DIM_LINETYPE
1070
   380
1005
14
1001
ACAD_DSTYLE_DIM_EXT1_LINETYPE
1070
   381
1005
14
1001
ACAD_DSTYLE_DIM_EXT2_LINETYPE
1070
   382
1005
14
  0
ENDTAB
  0
TABLE
  2
BLOCK_RECORD
  5
1
330
0
100
AcDbSymbolTable
 70
    12
  0
BLOCK_RECORD
  5
1F
102
{ACAD_XDICTIONARY
360
2E6
102
}
330
1
100
AcDbSymbolTableRecord
100
AcDbBlockTableRecord
  2
*Model_Space
340
22
  0
BLOCK_RECORD
  5
1B
330
1
100
AcDbSymbolTableRecord
100
AcDbBlockTableRecord
  2
*Paper_Space
340
1E
  0
BLOCK_RECORD
  5
23
330
1
100
AcDbSymbolTableRecord
100
AcDbBlockTableRecord
  2
*Paper_Space0
340
26
  0
BLOCK_RECORD
  5
1A5
330
1
100
AcDbSymbolTableRecord
100
AcDbBlockTableRecord
  2
ASSORTED_DRAFT1
340
0
  0
BLOCK_RECORD
  5
1AF
330
1
100
AcDbSymbolTableRecord
100
AcDbBlockTableRecord
  2
*D2
340
0
  0
BLOCK_RECORD
  5
1BA
330
1
100
AcDbSymbolTableRecord
100
AcDbBlockTableRecord
  2
_U0
340
0
  0
BLOCK_RECORD
  5
1C5
330
1
100
AcDbSymbolTableRecord
100
AcDbBlockTableRecord
  2
*D4
340
0
  0
BLOCK_RECORD
  5
1D1
330
1
100
AcDbSymbolTableRecord
100
AcDbBlockTableRecord
  2
_U1
340
0
  0
BLOCK_RECORD
  5
1DD
330
1
100
AcDbSymbolTableRecord
100
AcDbBlockTableRecord
  2
*D6
340
0
  0
BLOCK_RECORD
  5
1E9
330
1
100
AcDbSymbolTableRecord
100
AcDbBlockTableRecord
  2
_U2
340
0
  0
BLOCK_RECORD
  5
1F5
330
1
100
AcDbSymbolTableRecord
100
AcDbBlockTableRecord
  2
*D8
340
0
  0
BLOCK_RECORD
  5
201
330
1
100
AcDbSymbolTableRecord
100
AcDbBlockTableRecord
  2
_U3
340
0
  0
BLOCK_RECORD
  5
2C2
330
1
100
AcDbSymbolTableRecord
100
AcDbBlockTableRecord
  2
GENAXEH
340
0
  0
ENDTAB
  0
ENDSEC
  0
SECTION
  2
BLOCKS
  0
BLOCK
  5
20
330
1F
100
AcDbEntity
  8
0
100
AcDbBlockBegin
  2
*Model_Space
 70
     0
 10
0.0
 20
0.0
 30
0.0
  3
*Model_Space
  1

  0
ENDBLK
  5
21
330
1F
100
AcDbEntity
  8
0
100
AcDbBlockEnd
  0
BLOCK
  5
1C
330
1B
100
AcDbEntity
 67
     1
  8
0
100
AcDbBlockBegin
  2
*Paper_Space
 70
     0
 10
0.0
 20
0.0
 30
0.0
  3
*Paper_Space
  1

  0
ENDBLK
  5
1D
330
1B
100
AcDbEntity
 67
     1
  8
0
100
AcDbBlockEnd
  0
BLOCK
  5
24
330
23
100
AcDbEntity
 67
     1
  8
0
100
AcDbBlockBegin
  2
*Paper_Space0
 70
     0
 10
0.0
 20
0.0
 30
0.0
  3
*Paper_Space0
  1

  0
ENDBLK
  5
25
330
23
100
AcDbEntity
 67
     1
  8
0
100
AcDbBlockEnd
  0
BLOCK
  5
1A8
330
1A5
100
AcDbEntity
  8
0
100
AcDbBlockBegin
  2
ASSORTED_DRAFT1
 70
     0
 10
0.0
 20
0.0
 30
0.0
  3
ASSORTED_DRAFT1
  1

  0
SOLID
  5
1A6
330
1A5
100
AcDbEntity
  8
0
 62
   254
370
    13
100
AcDbTrace
 10
476.517572
 20
269.186216
 30
0.0
 11
481.517568
 21
270.29469
 31
0.0
 12
481.5175759999999
 22
268.077743
 32
0.0
 13
476.517572
 23
269.186216
 33
0.0
  0
ENDBLK
  5
1A9
330
1A5
100
AcDbEntity
  8
0
100
AcDbBlockEnd
  0
BLOCK
  5
1B0
330
1AF
100
AcDbEntity
  8
0
100
AcDbBlockBegin
  2
*D2
 70
     1
 10
0.0
 20
0.0
 30
0.0
  3
*D2
  1

  0
LINE
  5
1B2
330
1AF
100
AcDbEntity
  8
0
 62
   254
370
    -2
100
AcDbLine
 10
380.18961
 20
366.008075
 30
0.0
 11
417.835564
 21
366.008075
 31
0.0
  0
LINE
  5
1B3
330
1AF
100
AcDbEntity
  8
0
 62
   254
370
    -2
100
AcDbLine
 10
403.6748489999999
 20
378.508075
 30
0.0
 11
417.835564
 21
378.508075
 31
0.0
  0
LINE
  5
1B4
330
1AF
100
AcDbEntity
  8
0
 62
   254
370
    -2
100
AcDbLine
 10
416.835564
 20
382.008075
 30
0.0
 11
416.835564
 21
385.508075
 31
0.0
  0
SOLID
  5
1B5
330
1AF
100
AcDbEntity
  8
0
 62
   254
100
AcDbTrace
 10
416.2522309999999
 20
382.008075
 30
0.0
 11
417.418898
 21
382.008075
 31
0.0
 12
416.835564
 22
378.508075
 32
0.0
 13
416.835564
 23
378.508075
 33
0.0
  0
MTEXT
  5
1B6
330
1AF
100
AcDbEntity
  8
0
 62
   254
370
    13
100
AcDbMText
 10
411.585564
 20
352.674742
 30
0.0
 40
3.5
 41
0.0
 71
     5
 72
     1
  1
\A1;25
  7
cesky
 11
0.0
 21
1.0
 31
0.0
 73
     1
 44
1.0
  0
POINT
  5
1B7
330
1AF
100
AcDbEntity
  8
Defpoints
 62
     0
100
AcDbPoint
 10
380.18961
 20
366.008075
 30
0.0
  0
POINT
  5
1B8
330
1AF
100
AcDbEntity
  8
Defpoints
 62
     0
100
AcDbPoint
 10
403.6748489999999
 20
378.508075
 30
0.0
  0
POINT
  5
1B9
330
1AF
100
AcDbEntity
  8
Defpoints
 62
     0
100
AcDbPoint
 10
416.835564
 20
378.508075
 30
0.0
  0
ENDBLK
  5
1B1
330
1AF
100
AcDbEntity
  8
0
100
AcDbBlockEnd
  0
BLOCK
  5
1C0
330
1BA
100
AcDbEntity
  8
0
100
AcDbBlockBegin
  2
_U0
 70
     0
 10
0.0
 20
0.0
 30
0.0
  3
_U0
  1

  0
ENDBLK
  5
1C1
330
1BA
100
AcDbEntity
  8
0
100
AcDbBlockEnd
  0
BLOCK
  5
1C6
330
1C5
100
AcDbEntity
  8
0
100
AcDbBlockBegin
  2
*D4
 70
     1
 10
0.0
 20
0.0
 30
0.0
  3
*D4
  1

  0
LINE
  5
1C8
330
1C5
100
AcDbEntity
  8
0
 62
   254
370
    -2
100
AcDbLine
 10
402.174849
 20
380.008075
 30
0.0
 11
402.174849
 21
385.999547
 31
0.0
  0
LINE
  5
1C9
330
1C5
100
AcDbEntity
  8
0
 62
   254
370
    -2
100
AcDbLine
 10
379.573843
 20
377.815953
 30
0.0
 11
379.573843
 21
385.999547
 31
0.0
  0
LINE
  5
1CA
330
1C5
100
AcDbEntity
  8
0
 62
   254
370
    -2
100
AcDbLine
 10
398.674849
 20
384.999547
 30
0.0
 11
383.073843
 21
384.999547
 31
0.0
  0
SOLID
  5
1CB
330
1C5
100
AcDbEntity
  8
0
 62
   254
100
AcDbTrace
 10
398.674849
 20
384.416214
 30
0.0
 11
398.674849
 21
385.582881
 31
0.0
 12
402.174849
 22
384.999547
 32
0.0
 13
402.174849
 23
384.999547
 33
0.0
  0
SOLID
  5
1CC
330
1C5
100
AcDbEntity
  8
0
 62
   254
100
AcDbTrace
 10
383.073843
 20
385.582881
 30
0.0
 11
383.073843
 21
384.416214
 31
0.0
 12
379.573843
 22
384.999547
 32
0.0
 13
379.573843
 23
384.999547
 33
0.0
  0
MTEXT
  5
1CD
330
1C5
100
AcDbEntity
  8
0
 62
   254
370
    13
100
AcDbMText
 10
390.874346
 20
390.249547
 30
0.0
 40
3.5
 41
0.0
 71
     5
 72
     1
  1
\A1;22.6
  7
cesky
 73
     1
 44
1.0
  0
POINT
  5
1CE
330
1C5
100
AcDbEntity
  8
Defpoints
 62
     0
100
AcDbPoint
 10
402.174849
 20
380.008075
 30
0.0
  0
POINT
  5
1CF
330
1C5
100
AcDbEntity
  8
Defpoints
 62
     0
100
AcDbPoint
 10
379.573843
 20
377.815953
 30
0.0
  0
POINT
  5
1D0
330
1C5
100
AcDbEntity
  8
Defpoints
 62
     0
100
AcDbPoint
 10
379.573843
 20
384.999547
 30
0.0
  0
ENDBLK
  5
1C7
330
1C5
100
AcDbEntity
  8
0
100
AcDbBlockEnd
  0
BLOCK
  5
1D8
330
1D1
100
AcDbEntity
  8
0
100
AcDbBlockBegin
  2
_U1
 70
     0
 10
0.0
 20
0.0
 30
0.0
  3
_U1
  1

  0
ENDBLK
  5
1D9
330
1D1
100
AcDbEntity
  8
0
100
AcDbBlockEnd
  0
BLOCK
  5
1DE
330
1DD
100
AcDbEntity
  8
0
100
AcDbBlockBegin
  2
*D6
 70
     1
 10
0.0
 20
0.0
 30
0.0
  3
*D6
  1

  0
LINE
  5
1E0
330
1DD
100
AcDbEntity
  8
0
 62
    95
370
    -2
100
AcDbLine
 10
402.174849
 20
380.008075
 30
0.0
 11
402.174849
 21
398.427041
 31
0.0
  0
LINE
  5
1E1
330
1DD
100
AcDbEntity
  8
0
 62
    95
370
    -2
100
AcDbLine
 10
322.174849
 20
366.008075
 30
0.0
 11
322.174849
 21
398.427041
 31
0.0
  0
LINE
  5
1E2
330
1DD
100
AcDbEntity
  8
0
 62
    95
370
    -2
100
AcDbLine
 10
398.674849
 20
397.427041
 30
0.0
 11
325.674849
 21
397.427041
 31
0.0
  0
SOLID
  5
1E3
330
1DD
100
AcDbEntity
  8
0
 62
    95
100
AcDbTrace
 10
398.674849
 20
396.843707
 30
0.0
 11
398.674849
 21
398.010374
 31
0.0
 12
402.174849
 22
397.427041
 32
0.0
 13
402.174849
 23
397.427041
 33
0.0
  0
SOLID
  5
1E4
330
1DD
100
AcDbEntity
  8
0
 62
    95
100
AcDbTrace
 10
325.674849
 20
398.010374
 30
0.0
 11
325.674849
 21
396.843707
 31
0.0
 12
322.174849
 22
397.427041
 32
0.0
 13
322.174849
 23
397.427041
 33
0.0
  0
MTEXT
  5
1E5
330
1DD
100
AcDbEntity
  8
0
 62
    95
370
    13
100
AcDbMText
 10
362.174849
 20
402.677041
 30
0.0
 40
3.5
 41
0.0
 71
     5
 72
     1
  1
\A1;80
  7
cesky
 73
     1
 44
1.0
  0
POINT
  5
1E6
330
1DD
100
AcDbEntity
  8
Defpoints
 62
     0
100
AcDbPoint
 10
402.174849
 20
380.008075
 30
0.0
  0
POINT
  5
1E7
330
1DD
100
AcDbEntity
  8
Defpoints
 62
     0
100
AcDbPoint
 10
322.174849
 20
366.008075
 30
0.0
  0
POINT
  5
1E8
330
1DD
100
AcDbEntity
  8
Defpoints
 62
     0
100
AcDbPoint
 10
322.174849
 20
397.427041
 30
0.0
  0
ENDBLK
  5
1DF
330
1DD
100
AcDbEntity
  8
0
100
AcDbBlockEnd
  0
BLOCK
  5
1F0
330
1E9
100
AcDbEntity
  8
0
100
AcDbBlockBegin
  2
_U2
 70
     0
 10
0.0
 20
0.0
 30
0.0
  3
_U2
  1

  0
MTEXT
  5
1EA
330
1E9
100
AcDbEntity
  8
96
  6
Continuous
 62
    95
440
 16777216
370
    13
100
AcDbMText
 10
360.3603490000001
 20
397.301207
 30
0.0
 40
3.5
 41
0.0
 71
     7
 72
     5
  1
\W0.7045;80
  7
cesky
 73
     2
 44
0.8433729999999998
  0
LINE
  5
1EB
330
1E9
100
AcDbEntity
  8
96
 62
    95
440
 16777216
370
    13
100
AcDbLine
 10
402.174849
 20
380.008075
 30
0.0
 11
402.174849
 21
398.427041
 31
0.0
  0
LINE
  5
1EC
330
1E9
100
AcDbEntity
  8
96
 62
    95
440
 16777216
370
    13
100
AcDbLine
 10
322.174849
 20
366.008075
 30
0.0
 11
322.174849
 21
398.427041
 31
0.0
  0
LINE
  5
1ED
330
1E9
100
AcDbEntity
  8
96
 62
    95
440
 16777216
370
    13
100
AcDbLine
 10
402.174849
 20
397.427041
 30
0.0
 11
322.174849
 21
397.427041
 31
0.0
  0
SOLID
  5
1EE
330
1E9
100
AcDbEntity
  8
96
 62
    95
440
 16777216
370
    13
100
AcDbTrace
 10
402.174849
 20
397.427041
 30
0.0
 11
398.674851
 21
396.809896
 31
0.0
 12
398.674846
 22
398.044185
 32
0.0
 13
398.674846
 23
398.044185
 33
0.0
  0
SOLID
  5
1EF
330
1E9
100
AcDbEntity
  8
96
 62
    95
440
 16777216
370
    13
100
AcDbTrace
 10
322.174849
 20
397.427041
 30
0.0
 11
325.674846
 21
398.044185
 31
0.0
 12
325.674851
 22
396.809896
 32
0.0
 13
325.674851
 23
396.809896
 33
0.0
  0
ENDBLK
  5
1F1
330
1E9
100
AcDbEntity
  8
0
100
AcDbBlockEnd
  0
BLOCK
  5
1F6
330
1F5
100
AcDbEntity
  8
0
100
AcDbBlockBegin
  2
*D8
 70
     1
 10
0.0
 20
0.0
 30
0.0
  3
*D8
  1

  0
LINE
  5
1F8
330
1F5
100
AcDbEntity
  8
0
 62
    95
370
    -2
100
AcDbLine
 10
402.174849
 20
380.008075
 30
0.0
 11
402.174849
 21
408.707505
 31
0.0
  0
LINE
  5
1F9
330
1F5
100
AcDbEntity
  8
0
 62
    95
370
    -2
100
AcDbLine
 10
241.174849
 20
374.658075
 30
0.0
 11
241.174849
 21
408.707505
 31
0.0
  0
LINE
  5
1FA
330
1F5
100
AcDbEntity
  8
0
 62
    95
370
    -2
100
AcDbLine
 10
398.674849
 20
407.7075049999999
 30
0.0
 11
244.674849
 21
407.7075049999999
 31
0.0
  0
SOLID
  5
1FB
330
1F5
100
AcDbEntity
  8
0
 62
    95
100
AcDbTrace
 10
398.674849
 20
407.124172
 30
0.0
 11
398.674849
 21
408.290839
 31
0.0
 12
402.174849
 22
407.7075049999999
 32
0.0
 13
402.174849
 23
407.7075049999999
 33
0.0
  0
SOLID
  5
1FC
330
1F5
100
AcDbEntity
  8
0
 62
    95
100
AcDbTrace
 10
244.674849
 20
408.290839
 30
0.0
 11
244.674849
 21
407.124172
 31
0.0
 12
241.174849
 22
407.7075049999999
 32
0.0
 13
241.174849
 23
407.7075049999999
 33
0.0
  0
MTEXT
  5
1FD
330
1F5
100
AcDbEntity
  8
0
 62
    95
370
    13
100
AcDbMText
 10
321.674849
 20
412.9575049999999
 30
0.0
 40
3.5
 41
0.0
 71
     5
 72
     1
  1
\A1;161
  7
cesky
 73
     1
 44
1.0
  0
POINT
  5
1FE
330
1F5
100
AcDbEntity
  8
Defpoints
 62
     0
100
AcDbPoint
 10
402.174849
 20
380.008075
 30
0.0
  0
POINT
  5
1FF
330
1F5
100
AcDbEntity
  8
Defpoints
 62
     0
100
AcDbPoint
 10
241.174849
 20
374.658075
 30
0.0
  0
POINT
  5
200
330
1F5
100
AcDbEntity
  8
Defpoints
 62
     0
100
AcDbPoint
 10
241.174849
 20
407.7075049999999
 30
0.0
  0
ENDBLK
  5
1F7
330
1F5
100
AcDbEntity
  8
0
100
AcDbBlockEnd
  0
BLOCK
  5
208
330
201
100
AcDbEntity
  8
0
100
AcDbBlockBegin
  2
_U3
 70
     0
 10
0.0
 20
0.0
 30
0.0
  3
_U3
  1

  0
MTEXT
  5
202
330
201
100
AcDbEntity
  8
96
  6
Continuous
 62
    95
440
 16777216
370
    13
100
AcDbMText
 10
318.597849
 20
407.581672
 30
0.0
 40
3.5
 41
0.0
 71
     7
 72
     5
  1
\W0.9524;161
  7
cesky
 73
     2
 44
0.8433729999999998
  0
LINE
  5
203
330
201
100
AcDbEntity
  8
96
 62
    95
440
 16777216
370
    13
100
AcDbLine
 10
402.174849
 20
380.008075
 30
0.0
 11
402.174849
 21
408.707505
 31
0.0
  0
LINE
  5
204
330
201
100
AcDbEntity
  8
96
 62
    95
440
 16777216
370
    13
100
AcDbLine
 10
241.174849
 20
374.658075
 30
0.0
 11
241.174849
 21
408.707505
 31
0.0
  0
LINE
  5
205
330
201
100
AcDbEntity
  8
96
 62
    95
440
 16777216
370
    13
100
AcDbLine
 10
402.174849
 20
407.7075049999999
 30
0.0
 11
241.174849
 21
407.7075049999999
 31
0.0
  0
SOLID
  5
206
330
201
100
AcDbEntity
  8
96
 62
    95
440
 16777216
370
    13
100
AcDbTrace
 10
402.174849
 20
407.7075049999999
 30
0.0
 11
398.674851
 21
407.090361
 31
0.0
 12
398.674846
 22
408.32465
 32
0.0
 13
398.674846
 23
408.32465
 33
0.0
  0
SOLID
  5
207
330
201
100
AcDbEntity
  8
96
 62
    95
440
 16777216
370
    13
100
AcDbTrace
 10
241.174849
 20
407.7075049999999
 30
0.0
 11
244.674846
 21
408.32465
 31
0.0
 12
244.674851
 22
407.090361
 32
0.0
 13
244.674851
 23
407.090361
 33
0.0
  0
ENDBLK
  5
209
330
201
100
AcDbEntity
  8
0
100
AcDbBlockEnd
  0
BLOCK
  5
2C4
330
2C2
100
AcDbEntity
  8
0
370
    13
100
AcDbBlockBegin
  2
GENAXEH
 70
     0
 10
0.0
 20
0.0
 30
0.0
  3
GENAXEH
  1

  0
LINE
  5
2C3
330
2C2
100
AcDbEntity
  8
0
100
AcDbLine
 10
-1.0
 20
0.0
 30
0.0
 11
1.0
 21
0.0
 31
0.0
  0
ENDBLK
  5
2C5
330
2C2
100
AcDbEntity
  8
0
370
    13
100
AcDbBlockEnd
  0
ENDSEC
  0
SECTION
  2
ENTITIES
  0
POINT
  5
73
102
{ACAD_REACTORS
330
321
102
}
330
1F
100
AcDbEntity
  8
80
100
AcDbPoint
 10
322.174849
 20
366.008075
 30
0.0
  0
POINT
  5
75
330
1F
100
AcDbEntity
  8
SK6
 60
     1
100
AcDbPoint
 10
241.174849
 20
366.008075
 30
0.0
  0
POINT
  5
77
330
1F
100
AcDbEntity
  8
SK6
 60
     1
100
AcDbPoint
 10
323.174849
 20
366.008075
 30
0.0
  0
POINT
  5
78
330
1F
100
AcDbEntity
  8
SK6
 60
     1
100
AcDbPoint
 10
323.174849
 20
366.008075
 30
0.0
  0
POINT
  5
79
330
1F
100
AcDbEntity
  8
SK6
 60
     1
100
AcDbPoint
 10
380.18961
 20
366.008075
 30
0.0
  0
LINE
  5
7A
330
1F
100
AcDbEntity
  8
SK1
100
AcDbLine
 10
322.174849
 20
366.008075
 30
0.0
 11
323.174849
 21
366.008075
 31
0.0
  0
LINE
  5
7B
330
1F
100
AcDbEntity
  8
81
100
AcDbLine
 10
402.174849
 20
377.008075
 30
0.0
 11
402.174849
 21
380.008075
 31
0.0
  0
LINE
  5
7C
330
1F
100
AcDbEntity
  8
81
100
AcDbLine
 10
400.6748489999999
 20
378.508075
 30
0.0
 11
403.6748489999999
 21
378.508075
 31
0.0
  0
LINE
  5
7D
330
1F
100
AcDbEntity
  8
1
100
AcDbLine
 10
377.823006
 20
354.280116
 30
0.0
 11
377.734839
 21
354.289982
 31
0.0
  0
LINE
  5
7F
330
1F
100
AcDbEntity
  8
1
100
AcDbLine
 10
377.989977
 20
354.267159
 30
0.0
 11
389.569194
 21
353.746675
 31
0.0
  0
LINE
  5
80
330
1F
100
AcDbEntity
  8
1
100
AcDbLine
 10
388.869917
 20
354.4102200000001
 30
0.0
 11
379.540057
 21
354.829616
 31
0.0
  0
LINE
  5
81
330
1F
100
AcDbEntity
  8
1
100
AcDbLine
 10
400.5074539999999
 20
363.037965
 30
0.0
 11
400.705051
 21
362.997017
 31
0.0
  0
LINE
  5
82
330
1F
100
AcDbEntity
  8
1
100
AcDbLine
 10
388.871918
 20
354.410131
 30
0.0
 11
388.869424
 21
354.536691
 31
0.0
  0
LINE
  5
83
330
1F
100
AcDbEntity
  8
1
100
AcDbLine
 10
399.102403
 20
361.2850180000001
 30
0.0
 11
398.402055
 21
359.03434
 31
0.0
  0
LINE
  5
84
330
1F
100
AcDbEntity
  8
SK1
100
AcDbLine
 10
273.174849
 20
376.690713
 30
0.0
 11
248.074849
 21
376.060723
 31
0.0
  0
LINE
  5
86
330
1F
100
AcDbEntity
  8
SK1
100
AcDbLine
 10
273.174849
 20
355.825595
 30
0.0
 11
297.174849
 21
355.223213
 31
0.0
  0
LINE
  5
87
330
1F
100
AcDbEntity
  8
SK1
100
AcDbLine
 10
297.174849
 20
376.792937
 30
0.0
 11
273.174849
 21
376.190556
 31
0.0
  0
LINE
  5
88
330
1F
100
AcDbEntity
  8
1
100
AcDbLine
 10
323.174849
 20
354.758075
 30
0.0
 11
327.174849
 21
354.758075
 31
0.0
  0
LINE
  5
89
330
1F
100
AcDbEntity
  8
1
100
AcDbLine
 10
327.174849
 20
377.258075
 30
0.0
 11
323.174849
 21
377.258075
 31
0.0
  0
LINE
  5
8A
330
1F
100
AcDbEntity
  8
1
100
AcDbLine
 10
332.174849
 20
354.408075
 30
0.0
 11
375.613554
 21
354.408075
 31
0.0
  0
LINE
  5
8B
330
1F
100
AcDbEntity
  8
1
100
AcDbLine
 10
378.24931
 20
377.608075
 30
0.0
 11
375.414978
 21
377.608075
 31
0.0
  0
LINE
  5
8C
330
1F
100
AcDbEntity
  8
1
100
AcDbLine
 10
373.932183
 20
377.608075
 30
0.0
 11
332.174849
 21
377.608075
 31
0.0
  0
LINE
  5
8D
330
1F
100
AcDbEntity
  8
1
100
AcDbLine
 10
332.174849
 20
377.608075
 30
0.0
 11
332.174849
 21
354.408075
 31
0.0
  0
LINE
  5
8E
330
1F
100
AcDbEntity
  8
1
100
AcDbLine
 10
327.174849
 20
377.258075
 30
0.0
 11
327.174849
 21
354.758075
 31
0.0
  0
LINE
  5
8F
330
1F
100
AcDbEntity
  8
1
100
AcDbLine
 10
327.174849
 20
354.758075
 30
0.0
 11
332.174849
 21
354.408075
 31
0.0
  0
LINE
  5
90
330
1F
100
AcDbEntity
  8
1
100
AcDbLine
 10
332.174849
 20
377.608075
 30
0.0
 11
327.174849
 21
377.258075
 31
0.0
  0
LINE
  5
91
330
1F
100
AcDbEntity
  8
1
100
AcDbLine
 10
380.18961
 20
369.988073
 30
0.0
 11
380.18961
 21
355.49022
 31
0.0
  0
LINE
  5
92
330
1F
100
AcDbEntity
  8
1
100
AcDbLine
 10
379.150899
 20
370.453909
 30
0.0
 11
379.150899
 21
354.433905
 31
0.0
  0
LINE
  5
93
330
1F
100
AcDbEntity
  8
SK1
100
AcDbLine
 10
323.174849
 20
377.945674
 30
0.0
 11
323.174849
 21
354.070476
 31
0.0
  0
LINE
  5
94
330
1F
100
AcDbEntity
  8
SK1
100
AcDbLine
 10
297.174849
 20
377.293094
 30
0.0
 11
297.174849
 21
354.723056
 31
0.0
  0
LINE
  5
95
330
1F
100
AcDbEntity
  8
SK1
100
AcDbLine
 10
297.174849
 20
354.723056
 30
0.0
 11
323.174849
 21
354.070476
 31
0.0
  0
LINE
  5
96
330
1F
100
AcDbEntity
  8
SK1
100
AcDbLine
 10
323.174849
 20
377.945674
 30
0.0
 11
297.174849
 21
377.293094
 31
0.0
  0
LINE
  5
97
330
1F
100
AcDbEntity
  8
1
100
AcDbLine
 10
391.362248
 20
372.5588
 30
0.0
 11
391.056538
 21
372.5588
 31
0.0
  0
LINE
  5
99
330
1F
100
AcDbEntity
  8
1
100
AcDbLine
 10
390.814144
 20
373.303101
 30
0.0
 11
391.122775
 21
373.303101
 31
0.0
  0
LINE
  5
9A
330
1F
100
AcDbEntity
  8
1
100
AcDbLine
 10
378.598239
 20
377.068357
 30
0.0
 11
378.652487
 21
376.701297
 31
0.0
  0
LINE
  5
9B
330
1F
100
AcDbEntity
  8
1
100
AcDbLine
 10
378.661225
 20
376.642174
 30
0.0
 11
379.155787
 21
373.295779
 31
0.0
  0
LINE
  5
9C
330
1F
100
AcDbEntity
  8
1
100
AcDbLine
 10
400.714849
 20
365.580013
 30
0.0
 11
400.714849
 21
365.314657
 31
0.0
  0
LINE
  5
9D
330
1F
100
AcDbEntity
  8
1
100
AcDbLine
 10
400.6596059999999
 20
365.326484
 30
0.0
 11
397.224252
 21
365.828544
 31
0.0
  0
LINE
  5
9E
330
1F
100
AcDbEntity
  8
1
100
AcDbLine
 10
400.352554
 20
362.760378
 30
0.0
 11
399.6390859999999
 21
362.67283
 31
0.0
  0
LINE
  5
9F
330
1F
100
AcDbEntity
  8
1
100
AcDbLine
 10
398.638196
 20
362.8118740000001
 30
0.0
 11
397.436038
 21
358.948448
 31
0.0
  0
LINE
  5
A0
330
1F
100
AcDbEntity
  8
1
100
AcDbLine
 10
398.638196
 20
362.8118740000001
 30
0.0
 11
399.6390859999999
 21
362.67283
 31
0.0
  0
LINE
  5
A1
330
1F
100
AcDbEntity
  8
SK1
100
AcDbLine
 10
241.974849
 20
356.558075
 30
0.0
 11
247.472201
 21
356.558075
 31
0.0
  0
LINE
  5
A2
330
1F
100
AcDbEntity
  8
SK1
100
AcDbLine
 10
247.472201
 20
375.458075
 30
0.0
 11
241.974849
 21
375.458075
 31
0.0
  0
LINE
  5
A3
330
1F
100
AcDbEntity
  8
SK1
100
AcDbLine
 10
241.174849
 20
357.358075
 30
0.0
 11
241.174849
 21
374.658075
 31
0.0
  0
LINE
  5
A4
330
1F
100
AcDbEntity
  8
SK1
100
AcDbLine
 10
247.472201
 20
375.458075
 30
0.0
 11
247.472201
 21
356.558075
 31
0.0
  0
LINE
  5
A5
330
1F
100
AcDbEntity
  8
SK1
100
AcDbLine
 10
247.472201
 20
356.558075
 30
0.0
 11
248.074849
 21
355.955428
 31
0.0
  0
LINE
  5
A6
330
1F
100
AcDbEntity
  8
SK1
100
AcDbLine
 10
248.074849
 20
376.060723
 30
0.0
 11
247.472201
 21
375.458075
 31
0.0
  0
LINE
  5
A7
330
1F
100
AcDbEntity
  8
1
100
AcDbLine
 10
396.402245
 20
358.964256
 30
0.0
 11
396.402245
 21
357.7652
 31
0.0
  0
LINE
  5
A8
330
1F
100
AcDbEntity
  8
1
100
AcDbLine
 10
396.402245
 20
365.935539
 30
0.0
 11
396.402245
 21
364.595892
 31
0.0
  0
LINE
  5
A9
330
1F
100
AcDbEntity
  8
SK1
100
AcDbLine
 10
273.174849
 20
376.690713
 30
0.0
 11
273.174849
 21
355.325437
 31
0.0
  0
LINE
  5
AA
330
1F
100
AcDbEntity
  8
SK1
100
AcDbLine
 10
248.074849
 20
376.060723
 30
0.0
 11
248.074849
 21
355.955428
 31
0.0
  0
LINE
  5
AB
330
1F
100
AcDbEntity
  8
SK1
100
AcDbLine
 10
248.074849
 20
355.955428
 30
0.0
 11
273.174849
 21
355.325437
 31
0.0
  0
LINE
  5
AC
330
1F
100
AcDbEntity
  8
1
100
AcDbLine
 10
400.714849
 20
363.901649
 30
0.0
 11
400.714849
 21
365.314652
 31
0.0
  0
LINE
  5
AD
330
1F
100
AcDbEntity
  8
1
100
AcDbLine
 10
379.540511
 20
373.41386
 30
0.0
 11
379.425088
 21
374.194852
 31
0.0
  0
LINE
  5
AE
330
1F
100
AcDbEntity
  8
1
100
AcDbLine
 10
378.932412
 20
377.528484
 30
0.0
 11
378.929203
 21
377.5502
 31
0.0
  0
LINE
  5
AF
330
1F
100
AcDbEntity
  8
1
100
AcDbLine
 10
393.584696
 20
366.339666
 30
0.0
 11
394.173291
 21
366.271936
 31
0.0
  0
LINE
  5
B0
330
1F
100
AcDbEntity
  8
1
100
AcDbLine
 10
390.342516
 20
371.341291
 30
0.0
 11
390.025113
 21
371.341291
 31
0.0
  0
LINE
  5
B1
330
1F
100
AcDbEntity
  8
1
100
AcDbLine
 10
389.090285
 20
373.800839
 30
0.0
 11
389.407689
 21
373.800839
 31
0.0
  0
LINE
  5
B2
330
1F
100
AcDbEntity
  8
1
100
AcDbLine
 10
389.736184
 20
369.721065
 30
0.0
 11
389.810668
 21
369.721065
 31
0.0
  0
LINE
  5
B3
330
1F
100
AcDbEntity
  8
1
100
AcDbLine
 10
389.810668
 20
375.421065
 30
0.0
 11
389.736184
 21
375.421065
 31
0.0
  0
LINE
  5
B4
330
1F
100
AcDbEntity
  8
1
100
AcDbLine
 10
388.627431
 20
371.839029
 30
0.0
 11
388.471591
 21
371.839029
 31
0.0
  0
LINE
  5
B9
330
1F
100
AcDbEntity
  8
SK1
100
AcDbLine
 10
322.174849
 20
366.008075
 30
0.0
 11
322.174849
 21
365.008075
 31
0.0
  0
LINE
  5
BA
330
1F
100
AcDbEntity
  8
1
100
AcDbLine
 10
379.547821
 20
373.929827
 30
0.0
 11
379.653607
 21
373.710288
 31
0.0
  0
LINE
  5
BB
330
1F
100
AcDbEntity
  8
1
100
AcDbLine
 10
378.650472
 20
376.834933
 30
0.0
 11
378.650543
 21
376.750165
 31
0.0
  0
LINE
  5
BC
330
1F
100
AcDbEntity
  8
1
100
AcDbLine
 10
389.569378
 20
378.265251
 30
0.0
 11
379.573843
 21
377.815953
 31
0.0
  0
LINE
  5
BD
330
1F
100
AcDbEntity
  8
1
100
AcDbLine
 10
400.6643529999999
 20
365.585337
 30
0.0
 11
389.147511
 21
366.910593
 31
0.0
  0
LINE
  5
BE
330
1F
100
AcDbEntity
  8
1
100
AcDbLine
 10
400.8187799999999
 20
365.572609
 30
0.0
 11
400.893867
 21
365.569428
 31
0.0
  0
LINE
  5
BF
330
1F
100
AcDbEntity
  8
1
100
AcDbLine
 10
388.804018
 20
355.10946
 30
0.0
 11
387.720668
 21
355.158117
 31
0.0
  0
LINE
  5
C0
330
1F
100
AcDbEntity
  8
1
100
AcDbLine
 10
398.361531
 20
361.446025
 30
0.0
 11
397.674034
 21
359.236331
 31
0.0
  0
LINE
  5
C1
330
1F
100
AcDbEntity
  8
1
100
AcDbLine
 10
388.83303
 20
361.440861
 30
0.0
 11
388.034248
 21
361.440861
 31
0.0
  0
LINE
  5
C2
330
1F
100
AcDbEntity
  8
NOCUT
100
AcDbLine
 10
327.174849
 20
377.258075
 30
0.0
 11
332.174849
 21
377.608075
 31
0.0
  0
LINE
  5
C4
330
1F
100
AcDbEntity
  8
NOCUT
100
AcDbLine
 10
332.174849
 20
377.608075
 30
0.0
 11
379.150899
 21
377.608075
 31
0.0
  0
LINE
  5
C5
330
1F
100
AcDbEntity
  8
NOCUT
100
AcDbLine
 10
379.150899
 20
377.608075
 30
0.0
 11
380.18961
 21
376.569364
 31
0.0
  0
LINE
  5
C6
330
1F
100
AcDbEntity
  8
NOCUT
100
AcDbLine
 10
380.18961
 20
376.569364
 30
0.0
 11
388.933441
 21
377.180792
 31
0.0
  0
LINE
  5
C7
330
1F
100
AcDbEntity
  8
NOCUT
100
AcDbLine
 10
394.197195
 20
376.271961
 30
0.0
 11
394.297813
 21
376.446236
 31
0.0
  0
LINE
  5
C8
330
1F
100
AcDbEntity
  8
NOCUT
100
AcDbLine
 10
396.462876
 20
375.196236
 30
0.0
 11
396.362259
 21
375.021961
 31
0.0
  0
LINE
  5
C9
330
1F
100
AcDbEntity
  8
NOCUT
100
AcDbLine
 10
400.714849
 20
368.114501
 30
0.0
 11
400.714849
 21
366.008075
 31
0.0
  0
LINE
  5
CA
330
1F
100
AcDbEntity
  8
NOCUT
100
AcDbLine
 10
288.174849
 20
366.008075
 30
0.0
 11
400.714849
 21
366.008075
 31
0.0
  0
LINE
  5
CB
330
1F
100
AcDbEntity
  8
NOCUT
100
AcDbLine
 10
288.174849
 20
366.008075
 30
0.0
 11
285.230362
 21
371.108075
 31
0.0
  0
LINE
  5
CC
330
1F
100
AcDbEntity
  8
NOCUT
100
AcDbLine
 10
285.230362
 20
371.108075
 30
0.0
 11
269.174849
 21
371.108075
 31
0.0
  0
LINE
  5
CD
330
1F
100
AcDbEntity
  8
NOCUT
100
AcDbLine
 10
269.174849
 20
371.108075
 30
0.0
 11
269.174849
 21
372.008075
 31
0.0
  0
LINE
  5
CE
330
1F
100
AcDbEntity
  8
NOCUT
100
AcDbLine
 10
269.174849
 20
372.008075
 30
0.0
 11
247.174849
 21
372.008075
 31
0.0
  0
LINE
  5
CF
330
1F
100
AcDbEntity
  8
NOCUT
100
AcDbLine
 10
247.174849
 20
372.008075
 30
0.0
 11
247.174849
 21
372.508075
 31
0.0
  0
LINE
  5
D0
330
1F
100
AcDbEntity
  8
NOCUT
100
AcDbLine
 10
247.174849
 20
372.508075
 30
0.0
 11
243.195575
 21
372.508075
 31
0.0
  0
LINE
  5
D1
330
1F
100
AcDbEntity
  8
NOCUT
100
AcDbLine
 10
243.195575
 20
372.508075
 30
0.0
 11
241.636729
 21
373.408075
 31
0.0
  0
LINE
  5
D2
330
1F
100
AcDbEntity
  8
NOCUT
100
AcDbLine
 10
241.636729
 20
373.408075
 30
0.0
 11
241.174849
 21
374.208075
 31
0.0
  0
LINE
  5
D3
330
1F
100
AcDbEntity
  8
NOCUT
100
AcDbLine
 10
241.174849
 20
374.208075
 30
0.0
 11
241.174849
 21
374.658075
 31
0.0
  0
LINE
  5
D4
330
1F
100
AcDbEntity
  8
NOCUT
100
AcDbLine
 10
241.974849
 20
375.458075
 30
0.0
 11
247.472201
 21
375.458075
 31
0.0
  0
LINE
  5
D5
330
1F
100
AcDbEntity
  8
NOCUT
100
AcDbLine
 10
247.472201
 20
375.458075
 30
0.0
 11
248.074849
 21
376.060723
 31
0.0
  0
LINE
  5
D6
330
1F
100
AcDbEntity
  8
NOCUT
100
AcDbLine
 10
248.074849
 20
376.060723
 30
0.0
 11
273.174849
 21
376.690713
 31
0.0
  0
LINE
  5
D7
330
1F
100
AcDbEntity
  8
NOCUT
100
AcDbLine
 10
273.174849
 20
376.690713
 30
0.0
 11
273.174849
 21
376.190556
 31
0.0
  0
LINE
  5
D8
330
1F
100
AcDbEntity
  8
NOCUT
100
AcDbLine
 10
273.174849
 20
376.190556
 30
0.0
 11
297.174849
 21
376.792937
 31
0.0
  0
LINE
  5
D9
330
1F
100
AcDbEntity
  8
NOCUT
100
AcDbLine
 10
297.174849
 20
376.792937
 30
0.0
 11
297.174849
 21
377.293094
 31
0.0
  0
LINE
  5
DA
330
1F
100
AcDbEntity
  8
NOCUT
100
AcDbLine
 10
297.174849
 20
377.293094
 30
0.0
 11
323.174849
 21
377.945674
 31
0.0
  0
LINE
  5
DB
330
1F
100
AcDbEntity
  8
NOCUT
100
AcDbLine
 10
323.174849
 20
377.945674
 30
0.0
 11
323.174849
 21
377.258075
 31
0.0
  0
LINE
  5
DC
330
1F
100
AcDbEntity
  8
NOCUT
100
AcDbLine
 10
323.174849
 20
377.258075
 30
0.0
 11
327.174849
 21
377.258075
 31
0.0
  0
ARC
  5
EA
330
1F
100
AcDbEntity
  8
SK1
100
AcDbCircle
 10
241.974849
 20
357.358075
 30
0.0
 40
0.8
100
AcDbArc
 50
180.0
 51
270.0
  0
ARC
  5
EB
330
1F
100
AcDbEntity
  8
SK1
100
AcDbCircle
 10
241.974849
 20
374.658075
 30
0.0
 40
0.8
100
AcDbArc
 50
90.0
 51
180.0
  0
ARC
  5
EC
330
1F
100
AcDbEntity
  8
1
100
AcDbCircle
 10
389.714714
 20
366.008075
 30
0.0
 40
11.2
100
AcDbArc
 50
346.086247
 51
349.15961
  0
ARC
  5
F9
330
1F
100
AcDbEntity
  8
NOCUT
100
AcDbCircle
 10
389.714714
 20
366.008075
 30
0.0
 40
11.2
100
AcDbArc
 50
66.40796899999999
 51
94.0
  0
ARC
  5
FA
330
1F
100
AcDbEntity
  8
NOCUT
100
AcDbCircle
 10
389.714714
 20
366.008075
 30
0.0
 40
11.4
100
AcDbArc
 50
53.70491099999999
 51
66.29508900000001
  0
ARC
  5
FB
330
1F
100
AcDbEntity
  8
NOCUT
100
AcDbCircle
 10
389.714714
 20
366.008075
 30
0.0
 40
11.2
100
AcDbArc
 50
10.84039
 51
53.59203100000001
  0
ARC
  5
FC
330
1F
100
AcDbEntity
  8
NOCUT
100
AcDbCircle
 10
241.974849
 20
374.658075
 30
0.0
 40
0.8
100
AcDbArc
 50
90.0
 51
180.0
  0
ELLIPSE
  5
FD
330
1F
100
AcDbEntity
  8
1
100
AcDbEllipse
 10
400.51187
 20
362.035829
 30
0.0
 11
0.0000000000000001
 21
0.9809999999999998
 31
0.0
210
0.0
220
0.0
230
0.9999999999999998
 40
0.9848079999999999
 41
4.353101195883691
 42
6.081867627102161
  0
ELLIPSE
  5
FE
330
1F
100
AcDbEntity
  8
1
100
AcDbEllipse
 10
377.927053
 20
354.3001339999999
 30
0.0
 11
-0.2784602950992254
 21
0.0195450724445865
 31
0.0
210
0.0
220
0.0
230
0.9999999999999998
 40
0.104948
 41
1.195233231884959
 42
1.806098470059524
  0
ELLIPSE
  5
FF
330
1F
100
AcDbEntity
  8
1
100
AcDbEllipse
 10
388.989083
 20
359.440861
 30
0.0
 11
-0.0000000000000001
 21
-2.35
 31
0.0
210
0.0
220
0.0
230
1.0
 40
0.9848079999999999
 41
3.271025803724845
 42
3.71241971977308
  0
ELLIPSE
  5
100
330
1F
100
AcDbEntity
  8
1
100
AcDbEllipse
 10
390.103605
 20
366.005375
 30
0.0
 11
0.0000000000000008
 21
12.27070460253211
 31
0.0
210
0.0
220
0.0
230
1.0
 40
0.9848079999999999
 41
3.097354606191837
 42
4.35310119588369
  0
ELLIPSE
  5
101
330
1F
100
AcDbEntity
  8
1
100
AcDbEllipse
 10
388.7982
 20
354.400016
 30
0.0
 11
0.0179470527638282
 21
0.3995971762876865
 31
0.0
210
0.0
220
0.0
230
1.0
 40
0.173479
 41
5.069246092127099
 42
5.505578405125696
  0
ELLIPSE
  5
102
330
1F
100
AcDbEntity
  8
1
100
AcDbEllipse
 10
398.191152
 20
358.691779
 30
0.0
 11
-0.3130396475825599
 21
0.2490103994643332
 31
0.0
210
0.0
220
0.0
230
1.0
 40
0.109113
 41
4.925136114976191
 42
5.361468427974762
  0
ELLIPSE
  5
103
330
1F
100
AcDbEntity
  8
1
100
AcDbEllipse
 10
389.436448
 20
364.891541
 30
0.0
 11
-12.18860715769419
 21
1.879736121028883
 31
0.0
210
0.0
220
0.0
230
0.9999999999999998
 40
0.615147
 41
2.47909779204726
 42
2.959524283687517
  0
ELLIPSE
  5
104
330
1F
100
AcDbEntity
  8
1
100
AcDbEllipse
 10
391.670129
 20
372.066768
 30
0.0
 11
0.0
 21
-0.6008944156305267
 31
0.0
210
0.0
220
0.0
230
1.0
 40
0.9848080000000001
 41
3.810202740308571
 42
5.074732784538766
  0
ELLIPSE
  5
105
330
1F
100
AcDbEntity
  8
1
100
AcDbEllipse
 10
391.204562
 20
371.887557
 30
0.0
 11
0.0
 21
-0.0953174225105373
 31
0.0
210
0.0
220
0.0
230
1.0
 40
0.9848079999999999
 41
5.074732784538797
 42
5.751464701419463
  0
ELLIPSE
  5
106
330
1F
100
AcDbEntity
  8
1
100
AcDbEllipse
 10
391.109375
 20
371.723242
 30
0.0
 11
0.0
 21
-0.0953174225105371
 31
0.0
210
0.0
220
0.0
230
1.0
 40
0.9848079999999999
 41
1.409541355350689
 42
2.609872047829632
  0
ELLIPSE
  5
107
330
1F
100
AcDbEntity
  8
1
100
AcDbEllipse
 10
390.6179390000001
 20
371.804416
 30
0.0
 11
0.0
 21
-0.6008944156305269
 31
0.0
210
0.0
220
0.0
230
0.9999999999999998
 40
0.9848080000000001
 41
0.1450113111204891
 42
1.409541355350665
  0
ELLIPSE
  5
108
330
1F
100
AcDbEntity
  8
1
100
AcDbEllipse
 10
390.689887
 20
371.304146
 30
0.0
 11
0.0
 21
-0.0953174225105393
 31
0.0
210
0.0
220
0.0
230
0.9999999999999998
 40
0.9848080000000001
 41
5.227865925821124
 42
6.42819661830001
  0
ELLIPSE
  5
109
330
1F
100
AcDbEntity
  8
1
100
AcDbEllipse
 10
390.526543
 20
371.210172
 30
0.0
 11
0.0
 21
-0.0953174225105393
 31
0.0
210
0.0
220
0.0
230
0.9999999999999998
 40
0.9848080000000001
 41
2.086273272231233
 42
2.763005189111821
  0
ELLIPSE
  5
10A
330
1F
100
AcDbEntity
  8
1
100
AcDbEllipse
 10
390.342516
 20
370.740396
 30
0.0
 11
0.0
 21
-0.6008944156305267
 31
0.0
210
0.0
220
0.0
230
1.0
 40
0.9848080000000001
 41
2.763005189111988
 42
4.027535233342167
  0
ELLIPSE
  5
10B
330
1F
100
AcDbEntity
  8
1
100
AcDbEllipse
 10
389.95689
 20
371.060204
 30
0.0
 11
0.0
 21
-0.0953174225105373
 31
0.0
210
0.0
220
0.0
230
1.0
 40
0.9848079999999999
 41
4.027535233342102
 42
4.704267150222857
  0
ELLIPSE
  5
10C
330
1F
100
AcDbEntity
  8
1
100
AcDbEllipse
 10
389.769158
 20
371.061752
 30
0.0
 11
0.0
 21
-0.0953174225105371
 31
0.0
210
0.0
220
0.0
230
1.0
 40
0.9848079999999999
 41
0.3623438041540047
 42
1.562674496633065
  0
ELLIPSE
  5
10D
330
1F
100
AcDbEntity
  8
1
100
AcDbEllipse
 10
389.59267
 20
371.534501
 30
0.0
 11
0.0
 21
-0.6008944156305269
 31
0.0
210
0.0
220
0.0
230
0.9999999999999998
 40
0.9848080000000001
 41
5.380999067103458
 42
6.645529111333651
  0
ELLIPSE
  5
10E
330
1F
100
AcDbEntity
  8
1
100
AcDbEllipse
 10
389.201979
 20
371.221096
 30
0.0
 11
0.0
 21
-0.0953174225105393
 31
0.0
210
0.0
220
0.0
230
0.9999999999999998
 40
0.9848080000000001
 41
4.180668374624557
 42
5.380999067103528
  0
ELLIPSE
  5
10F
330
1F
100
AcDbEntity
  8
1
100
AcDbEllipse
 10
389.04016
 20
371.317751
 30
0.0
 11
0.0
 21
-0.0953174225105393
 31
0.0
210
0.0
220
0.0
230
0.9999999999999998
 40
0.9848080000000001
 41
1.039075721034669
 42
1.715807637915355
  0
ELLIPSE
  5
110
330
1F
100
AcDbEntity
  8
1
100
AcDbEllipse
 10
388.54749
 20
371.244694
 30
0.0
 11
0.0
 21
-0.6008944156305267
 31
0.0
210
0.0
220
0.0
230
1.0
 40
0.9848080000000001
 41
1.71580763791538
 42
2.980337682145552
  0
ELLIPSE
  5
111
330
1F
100
AcDbEntity
  8
1
100
AcDbEllipse
 10
388.627431
 20
371.743712
 30
0.0
 11
0.0
 21
-0.0953174225105373
 31
0.0
210
0.0
220
0.0
230
1.0
 40
0.9848079999999999
 41
2.980337682145623
 42
3.657069599026316
  0
ELLIPSE
  5
112
330
1F
100
AcDbEntity
  8
1
100
AcDbEllipse
 10
388.534885
 20
371.909575
 30
0.0
 11
0.0
 21
-0.0953174225105371
 31
0.0
210
0.0
220
0.0
230
1.0
 40
0.9848079999999999
 41
5.598331560137062
 42
6.798662252615977
  0
ELLIPSE
  5
113
330
1F
100
AcDbEntity
  8
1
100
AcDbEllipse
 10
388.849834
 20
372.30115
 30
0.0
 11
0.0
 21
-0.6008944156305269
 31
0.0
210
0.0
220
0.0
230
0.9999999999999998
 40
0.9848080000000001
 41
4.333801515906876
 42
5.598331560137062
  0
ELLIPSE
  5
114
330
1F
100
AcDbEntity
  8
1
100
AcDbEllipse
 10
388.387195
 20
372.488016
 30
0.0
 11
0.0
 21
-0.0953174225105393
 31
0.0
210
0.0
220
0.0
230
0.9999999999999998
 40
0.9848080000000001
 41
3.13347082342798
 42
4.333801515906941
  0
ELLIPSE
  5
115
330
1F
100
AcDbEntity
  8
1
100
AcDbEllipse
 10
388.3887200000001
 20
372.678644
 30
0.0
 11
0.0
 21
-0.0953174225105393
 31
0.0
210
0.0
220
0.0
230
0.9999999999999998
 40
0.9848080000000001
 41
6.275063477017772
 42
6.951795393898468
  0
ELLIPSE
  5
116
330
1F
100
AcDbEntity
  8
1
100
AcDbEllipse
 10
388.0800759999999
 20
373.075362
 30
0.0
 11
0.0
 21
-0.6008944156305267
 31
0.0
210
0.0
220
0.0
230
1.0
 40
0.9848080000000001
 41
0.668610086718778
 42
1.933140130948974
  0
ELLIPSE
  5
117
330
1F
100
AcDbEntity
  8
1
100
AcDbEllipse
 10
388.5456430000001
 20
373.254573
 30
0.0
 11
0.0
 21
-0.0953174225105373
 31
0.0
210
0.0
220
0.0
230
1.0
 40
0.9848079999999999
 41
1.933140130948935
 42
2.609872047829651
  0
ELLIPSE
  5
118
330
1F
100
AcDbEntity
  8
1
100
AcDbEllipse
 10
388.64083
 20
373.418888
 30
0.0
 11
0.0
 21
-0.0953174225105371
 31
0.0
210
0.0
220
0.0
230
1.0
 40
0.9848079999999999
 41
4.551134008940421
 42
5.751464701419424
  0
ELLIPSE
  5
119
330
1F
100
AcDbEntity
  8
1
100
AcDbEllipse
 10
389.132266
 20
373.337714
 30
0.0
 11
0.0
 21
-0.6008944156305269
 31
0.0
210
0.0
220
0.0
230
0.9999999999999998
 40
0.9848080000000001
 41
3.286603964710281
 42
4.551134008940453
  0
ELLIPSE
  5
11A
330
1F
100
AcDbEntity
  8
1
100
AcDbEllipse
 10
389.060319
 20
373.837984
 30
0.0
 11
0.0
 21
-0.0953174225105393
 31
0.0
210
0.0
220
0.0
230
0.9999999999999998
 40
0.9848080000000001
 41
2.086273272231406
 42
3.286603964710367
  0
ELLIPSE
  5
11B
330
1F
100
AcDbEntity
  8
1
100
AcDbEllipse
 10
389.223662
 20
373.931958
 30
0.0
 11
0.0
 21
-0.0953174225105393
 31
0.0
210
0.0
220
0.0
230
0.9999999999999998
 40
0.9848080000000001
 41
5.227865925821027
 42
5.904597842701741
  0
ELLIPSE
  5
11C
330
1F
100
AcDbEntity
  8
1
100
AcDbEllipse
 10
389.407689
 20
374.401734
 30
0.0
 11
0.0
 21
-0.6008944156305267
 31
0.0
210
0.0
220
0.0
230
1.0
 40
0.9848080000000001
 41
5.904597842701778
 42
7.169127886931949
  0
ELLIPSE
  5
11D
330
1F
100
AcDbEntity
  8
1
100
AcDbEllipse
 10
389.875103
 20
372.571065
 30
0.0
 11
0.0000000000000001
 21
1.8
 31
0.0
210
0.0
220
0.0
230
1.0
 40
0.9848079999999999
 41
0.0
 42
6.283185307179585
  0
ELLIPSE
  5
11E
330
1F
100
AcDbEntity
  8
1
100
AcDbEllipse
 10
389.810668
 20
372.571065
 30
0.0
 11
0.0000000000000002
 21
2.850000000000001
 31
0.0
210
0.0
220
0.0
230
1.0
 40
0.9848079999999999
 41
0.0
 42
6.283185307179585
  0
ELLIPSE
  5
11F
330
1F
100
AcDbEntity
  8
1
100
AcDbEllipse
 10
389.781107
 20
372.571065
 30
0.0
 11
-0.0000000000000002
 21
-3.167497732705186
 31
0.0
210
0.0
220
0.0
230
0.9999999999999998
 40
0.9848079999999999
 41
0.0
 42
6.283185307179585
  0
ELLIPSE
  5
120
330
1F
100
AcDbEntity
  8
1
100
AcDbEllipse
 10
394.147785
 20
363.924682
 30
0.0
 11
-29.86215349770798
 21
11.51682116143709
 31
0.0
210
0.0
220
0.0
230
0.9999999999999998
 40
0.022534
 41
4.980715937367082
 42
5.207429658148376
  0
ELLIPSE
  5
121
330
1F
100
AcDbEntity
  8
1
100
AcDbEllipse
 10
367.769113
 20
366.008075
 30
0.0
 11
-54.97039355149293
 21
0.0000000689077125
 31
0.0
210
0.0
220
0.0
230
0.9999999999999998
 40
0.161869
 41
1.926212493251519
 42
1.930196203064845
  0
ELLIPSE
  5
122
330
1F
100
AcDbEntity
  8
1
100
AcDbEllipse
 10
374.763101
 20
366.008075
 30
0.0
 11
-65.78686765899371
 21
0.0000000000000811
 31
0.0
210
0.0
220
0.0
230
1.0
 40
0.176327
 41
1.612507660356905
 42
1.637543049367679
  0
ELLIPSE
  5
123
330
1F
100
AcDbEntity
  8
1
100
AcDbEllipse
 10
388.742568
 20
366.008075
 30
0.0
 11
-30.02429875304166
 21
11.57958396269374
 31
0.0
210
0.0
220
0.0
230
0.9999999999999998
 40
0.022912
 41
5.046375524917438
 42
5.204588949784316
  0
ELLIPSE
  5
124
330
1F
100
AcDbEntity
  8
1
100
AcDbEllipse
 10
398.431648
 20
366.008075
 30
0.0
 11
-65.7868694484679
 21
0.0000000000000811
 31
0.0
210
0.0
220
0.0
230
1.0
 40
0.176327
 41
5.018633205471045
 42
5.060536575679659
  0
ELLIPSE
  5
125
330
1F
100
AcDbEntity
  8
1
100
AcDbEllipse
 10
380.781441
 20
366.008075
 30
0.0
 11
-1.711148960403823
 21
11.59646185300597
 31
0.0
210
0.0
220
0.0
230
1.0
 40
0.167421
 41
0.0752344069668383
 42
0.2815449098735799
  0
ELLIPSE
  5
126
330
1F
100
AcDbEntity
  8
1
100
AcDbEllipse
 10
380.48398
 20
366.008072
 30
0.0
 11
-1.822346780108833
 21
11.5957572789965
 31
0.0
210
0.0
220
0.0
230
0.9999999999999998
 40
0.172203
 41
6.156195404953031
 42
6.170616782153507
  0
ELLIPSE
  5
127
330
1F
100
AcDbEntity
  8
1
100
AcDbEllipse
 10
381.742151
 20
373.689901
 30
0.0
 11
-0.0000000000000002
 21
-2.65567111143738
 31
0.0
210
0.0
220
0.0
230
1.0
 40
0.9848079999999999
 41
4.861346782905169
 42
5.755797502796882
  0
ELLIPSE
  5
128
330
1F
100
AcDbEntity
  8
1
100
AcDbEllipse
 10
389.263867
 20
366.008075
 30
0.0
 11
-0.0000000000000007
 21
-10.8949126251961
 31
0.0
210
0.0
220
0.0
230
1.0
 40
0.9848079999999999
 41
0.7279116051646835
 42
0.8658740358752744
  0
ELLIPSE
  5
129
330
1F
100
AcDbEntity
  8
1
100
AcDbEllipse
 10
388.739126
 20
359.888658
 30
0.0
 11
0.0000000000000001
 21
2.0
 31
0.0
210
0.0
220
0.0
230
1.0
 40
0.9848079999999999
 41
0.1822123378554934
 42
0.7716534340648117
  0
ELLIPSE
  5
12A
330
1F
100
AcDbEntity
  8
1
100
AcDbEllipse
 10
398.210098
 20
363.085744
 30
0.0
 11
1.413897323650274
 21
4.110281055827373
 31
0.0
210
0.0
220
0.0
230
0.9999999999999998
 40
0.492418
 41
4.802056488509792
 42
5.447651152971122
  0
ELLIPSE
  5
12B
330
1F
100
AcDbEntity
  8
1
100
AcDbEllipse
 10
398.210098
 20
363.085744
 30
0.0
 11
1.413897323650274
 21
4.110281055827373
 31
0.0
210
0.0
220
0.0
230
0.9999999999999998
 40
0.492418
 41
2.905655738231071
 42
3.432462210904688
  0
ELLIPSE
  5
12C
330
1F
100
AcDbEntity
  8
1
100
AcDbEllipse
 10
389.769263
 20
366.496864
 30
0.0
 11
-11.12015627046757
 21
1.241024477364707
 31
0.0
210
0.0
220
0.0
230
1.0
 40
0.019553
 41
3.979821173808737
 42
4.075459931086953
  0
ELLIPSE
  5
12D
330
1F
100
AcDbEntity
  8
1
100
AcDbEllipse
 10
398.210098
 20
363.085744
 30
0.0
 11
1.413897323650274
 21
4.110281055827373
 31
0.0
210
0.0
220
0.0
230
0.9999999999999998
 40
0.492418
 41
1.020523485307951
 42
1.455473470878693
  0
ELLIPSE
  5
12E
330
1F
100
AcDbEntity
  8
1
100
AcDbEllipse
 10
400.3920879999999
 20
364.661625
 30
0.0
 11
-3.494943526310743
 21
-6.10823599240278
 31
0.0
210
0.0
220
0.0
230
1.0
 40
0.509287
 41
5.006267424956938
 42
6.105468128303392
  0
ELLIPSE
  5
12F
330
1F
100
AcDbEntity
  8
1
100
AcDbEllipse
 10
388.025202
 20
359.888658
 30
0.0
 11
-0.0000000000000002
 21
-2.5
 31
0.0
210
0.0
220
0.0
230
1.0
 40
0.9848079999999999
 41
3.237763103780366
 42
5.807507040954521
  0
ELLIPSE
  5
130
330
1F
100
AcDbEntity
  8
1
100
AcDbEllipse
 10
393.792271
 20
369.252857
 30
0.0
 11
0.0000000000000002
 21
3.0
 31
0.0
210
0.0
220
0.0
230
1.0
 40
0.9848079999999999
 41
3.262528734661348
 42
3.337162040862116
  0
ELLIPSE
  5
131
330
1F
100
AcDbEntity
  8
1
100
AcDbEllipse
 10
389.769263
 20
366.496864
 30
0.0
 11
-11.12015627046757
 21
1.241024477364707
 31
0.0
210
0.0
220
0.0
230
1.0
 40
0.019553
 41
3.321213198974416
 42
3.347442569835186
  0
ELLIPSE
  5
132
330
1F
100
AcDbEntity
  8
1
100
AcDbEllipse
 10
389.526712
 20
364.930672
 30
0.0
 11
-10.97878760148411
 21
1.915742852644459
 31
0.0
210
0.0
220
0.0
230
1.0
 40
0.179905
 41
3.002967121228937
 42
3.090482697460598
  0
ELLIPSE
  5
133
330
1F
100
AcDbEntity
  8
1
100
AcDbEllipse
 10
389.977561
 20
366.008075
 30
0.0
 11
-0.0000000000000007
 21
-11.09724171327634
 31
0.0
210
0.0
220
0.0
230
1.0
 40
0.9848079999999999
 41
1.288473501784572
 42
1.324591984597903
  0
ELLIPSE
  5
134
330
1F
100
AcDbEntity
  8
1
100
AcDbEllipse
 10
389.616656
 20
365.520181
 30
0.0
 11
10.96956779338536
 21
-2.204683047628654
 31
0.0
210
0.0
220
0.0
230
1.0
 40
0.034723
 41
6.247808040800465
 42
6.281653029571284
  0
ELLIPSE
  5
135
330
1F
100
AcDbEntity
  8
1
100
AcDbEllipse
 10
389.802661
 20
379.127303
 30
0.0
 11
0.0000000000000007
 21
11.8374680033396
 31
0.0
210
0.0
220
0.0
230
0.9999999999999998
 40
0.9848079999999999
 41
2.468552279829686
 42
2.483003559358895
  0
ELLIPSE
  5
136
330
1F
100
AcDbEntity
  8
1
100
AcDbEllipse
 10
394.505965
 20
369.252857
 30
0.0
 11
0.0000000000000002
 21
3.0
 31
0.0
210
0.0
220
0.0
230
1.0
 40
0.9848079999999999
 41
3.028751068311121
 42
3.229000931073718
  0
ELLIPSE
  5
137
330
1F
100
AcDbEntity
  8
1
100
AcDbEllipse
 10
393.91737
 20
369.320587
 30
0.0
 11
0.0000000000000002
 21
3.0
 31
0.0
210
0.0
220
0.0
230
1.0
 40
0.9848079999999999
 41
2.828501018200316
 42
3.028751068311131
  0
ELLIPSE
  5
138
330
1F
100
AcDbEntity
  8
1
100
AcDbEllipse
 10
390.186423
 20
379.127303
 30
0.0
 11
-0.0000000000000007
 21
-12.16775471632116
 31
0.0
210
0.0
220
0.0
230
0.9999999999999998
 40
0.9848079999999999
 41
5.566743809224485
 42
5.814436718918686
  0
ELLIPSE
  5
139
330
1F
100
AcDbEntity
  8
1
100
AcDbEllipse
 10
382.998531
 20
372.870156
 30
0.0
 11
0.0000000000000002
 21
3.0
 31
0.0
210
0.0
220
0.0
230
1.0
 40
0.9848079999999999
 41
2.084831947755688
 42
2.908881173461318
  0
ELLIPSE
  5
13A
330
1F
100
AcDbEntity
  8
1
100
AcDbEllipse
 10
389.736184
 20
372.571065
 30
0.0
 11
-0.0000000000000002
 21
-2.850000000000001
 31
0.0
210
0.0
220
0.0
230
1.0
 40
0.9848079999999999
 41
3.141652161376281
 42
6.283146471565303
  0
ELLIPSE
  5
13B
330
1F
100
AcDbEntity
  8
1
100
AcDbEllipse
 10
389.793315
 20
374.0819259999999
 30
0.0
 11
0.0
 21
-0.0953174225105373
 31
0.0
210
0.0
220
0.0
230
1.0
 40
0.9848079999999999
 41
0.8859425797523384
 42
1.562674496633029
  0
ELLIPSE
  5
13C
330
1F
100
AcDbEntity
  8
1
100
AcDbEllipse
 10
389.9810470000001
 20
374.080378
 30
0.0
 11
0.0
 21
-0.0953174225105371
 31
0.0
210
0.0
220
0.0
230
1.0
 40
0.9848079999999999
 41
3.503936457743785
 42
4.704267150222746
  0
ELLIPSE
  5
13D
330
1F
100
AcDbEntity
  8
1
100
AcDbEllipse
 10
390.157535
 20
373.607629
 30
0.0
 11
0.0
 21
-0.6008944156305269
 31
0.0
210
0.0
220
0.0
230
0.9999999999999998
 40
0.9848080000000001
 41
2.23940641351367
 42
3.50393645774386
  0
ELLIPSE
  5
13E
330
1F
100
AcDbEntity
  8
1
100
AcDbEllipse
 10
390.548226
 20
373.921034
 30
0.0
 11
0.0
 21
-0.0953174225105393
 31
0.0
210
0.0
220
0.0
230
0.9999999999999998
 40
0.9848080000000001
 41
1.03907572103481
 42
2.239406413513611
  0
ELLIPSE
  5
13F
330
1F
100
AcDbEntity
  8
1
100
AcDbEllipse
 10
390.7100450000001
 20
373.824379
 30
0.0
 11
0.0
 21
-0.0953174225105393
 31
0.0
210
0.0
220
0.0
230
0.9999999999999998
 40
0.9848080000000001
 41
4.180668374624461
 42
4.857400291505148
  0
ELLIPSE
  5
140
330
1F
100
AcDbEntity
  8
1
100
AcDbEllipse
 10
391.202715
 20
373.897436
 30
0.0
 11
0.0
 21
-0.6008944156305267
 31
0.0
210
0.0
220
0.0
230
1.0
 40
0.9848080000000001
 41
4.857400291505169
 42
6.121930335735345
  0
ELLIPSE
  5
141
330
1F
100
AcDbEntity
  8
1
100
AcDbEllipse
 10
391.122775
 20
373.398418
 30
0.0
 11
0.0
 21
-0.0953174225105373
 31
0.0
210
0.0
220
0.0
230
1.0
 40
0.9848079999999999
 41
6.121930335735566
 42
6.798662252616109
  0
ELLIPSE
  5
142
330
1F
100
AcDbEntity
  8
1
100
AcDbEllipse
 10
391.21532
 20
373.232555
 30
0.0
 11
0.0
 21
-0.0953174225105371
 31
0.0
210
0.0
220
0.0
230
1.0
 40
0.9848079999999999
 41
2.456738906547271
 42
3.657069599026185
  0
ELLIPSE
  5
143
330
1F
100
AcDbEntity
  8
1
100
AcDbEllipse
 10
390.900371
 20
372.84098
 30
0.0
 11
0.0
 21
-0.6008944156305269
 31
0.0
210
0.0
220
0.0
230
0.9999999999999998
 40
0.9848080000000001
 41
1.192208862317087
 42
2.456738906547267
  0
ELLIPSE
  5
144
330
1F
100
AcDbEntity
  8
1
100
AcDbEllipse
 10
391.36301
 20
372.654114
 30
0.0
 11
0.0
 21
-0.0953174225105393
 31
0.0
210
0.0
220
0.0
230
0.9999999999999998
 40
0.9848080000000001
 41
6.275063477017772
 42
7.475394169496643
  0
ELLIPSE
  5
145
330
1F
100
AcDbEntity
  8
1
100
AcDbEllipse
 10
391.361485
 20
372.463486
 30
0.0
 11
0.0
 21
-0.0953174225105393
 31
0.0
210
0.0
220
0.0
230
0.9999999999999998
 40
0.9848080000000001
 41
3.13347082342798
 42
3.810202740308696
  0
ELLIPSE
  5
14B
330
1F
100
AcDbEntity
  8
1
100
AcDbEllipse
 10
382.768942
 20
378.554599
 30
0.0
 11
-0.6005800956619208
 21
7.661304002682022
 31
0.0
210
0.0
220
0.0
230
0.9999999999999998
 40
0.5644960000000001
 41
1.781938874902318
 42
2.173906767069751
  0
ELLIPSE
  5
14C
330
1F
100
AcDbEntity
  8
1
100
AcDbEllipse
 10
390.103789
 20
366.006551
 30
0.0
 11
0.0000000000000008
 21
12.27070460253211
 31
0.0
210
0.0
220
0.0
230
1.0
 40
0.9848079999999999
 41
5.0656487766818
 42
6.327423354577539
  0
ELLIPSE
  5
14D
330
1F
100
AcDbEntity
  8
1
100
AcDbEllipse
 10
379.616568
 20
376.835913
 30
0.0
 11
0.0000000000000001
 21
0.9809999999999998
 31
0.0
210
0.0
220
0.0
230
0.9999999999999998
 40
0.9848079999999999
 41
0.0442380473979411
 42
1.7730044786164
  0
ELLIPSE
  5
14E
330
1F
100
AcDbEntity
  8
1
100
AcDbEllipse
 10
390.508229
 20
379.103258
 30
0.0
 11
0.0000000000000008
 21
12.27070460253211
 31
0.0
210
0.0
220
0.0
230
1.0
 40
0.9848079999999999
 41
1.773004478616403
 42
2.665094674845191
  0
ELLIPSE
  5
14F
330
1F
100
AcDbEntity
  8
1
100
AcDbEllipse
 10
390.508229
 20
379.103258
 30
0.0
 11
0.0000000000000008
 21
12.27070460253211
 31
0.0
210
0.0
220
0.0
230
1.0
 40
0.9848079999999999
 41
2.961058463327851
 42
3.028751068308256
  0
ELLIPSE
  5
150
330
1F
100
AcDbEntity
  8
1
100
AcDbEllipse
 10
401.533922
 20
369.497492
 30
0.0
 11
0.0279581485308131
 21
-0.1473714420460389
 31
0.0
210
0.0
220
0.0
230
1.0
 40
0.170695
 41
1.518761677361124
 42
1.538424796361636
  0
ELLIPSE
  5
151
330
1F
100
AcDbEntity
  8
1
100
AcDbEllipse
 10
390.184751
 20
365.88878
 30
0.0
 11
-0.8332304599459444
 21
12.96595453774785
 31
0.0
210
0.0
220
0.0
230
1.0
 40
0.9232889999999999
 41
4.719187974291464
 42
4.965433314934212
  0
ELLIPSE
  5
152
330
1F
100
AcDbEntity
  8
1
100
AcDbEllipse
 10
400.6625509999999
 20
365.613427
 30
0.0
 11
-0.2697908154862663
 21
0.0315639047984713
 31
0.0
210
0.0
220
0.0
230
1.0
 40
0.101961
 41
1.589402086656793
 42
2.200267324891167
  0
ELLIPSE
  5
153
330
1F
100
AcDbEntity
  8
1
100
AcDbEllipse
 10
398.366148
 20
359.0229470000001
 30
0.0
 11
-0.3820352256492306
 21
0.1185288419041608
 31
0.0
210
0.0
220
0.0
230
1.0
 40
0.052178
 41
4.894835652816794
 42
5.331167965815382
  0
ELLIPSE
  5
154
330
1F
100
AcDbEntity
  8
1
100
AcDbEllipse
 10
389.286342
 20
365.986012
 30
0.0
 11
0.0000000000000007
 21
10.88757339713799
 31
0.0
210
0.0
220
0.0
230
1.0
 40
0.9848079999999999
 41
3.867291225373153
 42
4.032154618301298
  0
ELLIPSE
  5
155
330
1F
100
AcDbEntity
  8
1
100
AcDbEllipse
 10
389.286342
 20
365.986012
 30
0.0
 11
0.0000000000000007
 21
10.88757339713799
 31
0.0
210
0.0
220
0.0
230
1.0
 40
0.9848079999999999
 41
3.662344914458113
 42
3.815469965790152
  0
ELLIPSE
  5
156
330
1F
100
AcDbEntity
  8
1
100
AcDbEllipse
 10
389.286342
 20
365.986012
 30
0.0
 11
0.0000000000000007
 21
10.88757339713799
 31
0.0
210
0.0
220
0.0
230
1.0
 40
0.9848079999999999
 41
3.096593707848101
 42
3.618475931885611
  0
ELLIPSE
  5
157
330
1F
100
AcDbEntity
  8
1
100
AcDbEllipse
 10
397.392293
 20
359.32663
 30
0.0
 11
0.0
 21
0.2999999784146229
 31
0.0
210
0.0
220
0.0
230
1.0
 40
0.9848080000000001
 41
4.032415431751828
 42
4.406653066864537
  0
ELLIPSE
  5
158
330
1F
100
AcDbEntity
  8
1
100
AcDbEllipse
 10
397.874099
 20
361.516896
 30
0.0
 11
0.0
 21
-0.5000000000000037
 31
0.0
210
0.0
220
0.0
230
1.0
 40
0.9848079999999999
 41
1.428576279572728
 42
2.061059641528504
  0
ELLIPSE
  5
159
330
1F
100
AcDbEntity
  8
1
100
AcDbEllipse
 10
388.83303
 20
359.440861
 30
0.0
 11
-0.0000000000000001
 21
-2.0
 31
0.0
210
0.0
220
0.0
230
1.0
 40
0.9848079999999999
 41
2.877737408844686
 42
3.141533142688676
  0
ELLIPSE
  5
15A
330
1F
100
AcDbEntity
  8
1
100
AcDbEllipse
 10
388.034248
 20
359.440861
 30
0.0
 11
0.0000000000000001
 21
2.0
 31
0.0
210
0.0
220
0.0
230
1.0
 40
0.9848079999999999
 41
0.0
 42
6.283185307179585
  0
ELLIPSE
  5
15B
330
1F
100
AcDbEntity
  8
1
100
AcDbEllipse
 10
387.964789
 20
359.440861
 30
0.0
 11
0.0000000000000001
 21
1.6
 31
0.0
210
0.0
220
0.0
230
1.0
 40
0.9848079999999999
 41
0.0
 42
6.283185307179585
  0
ELLIPSE
  5
15C
330
1F
100
AcDbEntity
  8
1
100
AcDbEllipse
 10
389.773032
 20
372.571065
 30
0.0
 11
0.0000000000000002
 21
3.163429519687671
 31
0.0
210
0.0
220
0.0
230
1.0
 40
0.9848079999999999
 41
0.1311227388922103
 42
0.519109451504359
  0
ELLIPSE
  5
15D
330
1F
100
AcDbEntity
  8
1
100
AcDbEllipse
 10
389.773032
 20
372.571065
 30
0.0
 11
0.0000000000000002
 21
3.163429519687671
 31
0.0
210
0.0
220
0.0
230
1.0
 40
0.9848079999999999
 41
2.622405707480333
 42
3.028751057552562
  0
SPLINE
  5
15E
330
1F
100
AcDbEntity
  8
1
100
AcDbSpline
210
0.0
220
0.0
230
1.0
 70
     8
 71
     3
 72
    14
 73
    10
 74
     0
 42
0.000000001
 43
0.0000000001
 40
0.0
 40
0.0
 40
0.0
 40
0.0
 40
0.5245554309049407
 40
0.5245554309049407
 40
0.786833146357432
 40
0.786833146357432
 40
0.9179720040836777
 40
0.9179720040836777
 40
1.0
 40
1.0
 40
1.0
 40
1.0
 10
377.7348390371563
 20
354.2899815491079
 30
0.0
 10
377.6592831942493
 20
354.2984357509129
 30
0.0
 10
377.5849576478001
 20
354.3140047712103
 30
0.0
 10
377.4752943378335
 20
354.3479123536747
 30
0.0
 10
377.4390463171471
 20
354.3609868882189
 30
0.0
 10
377.3851530254419
 20
354.3833672450245
 30
0.0
 10
377.3672364631893
 20
354.3913064306155
 30
0.0
 10
377.3384850481546
 20
354.4048708528189
 30
0.0
 10
377.3274999687919
 20
354.4102530209965
 30
0.0
 10
377.3165935545912
 20
354.415797704926
 30
0.0
  0
SPLINE
  5
15F
330
1F
100
AcDbEntity
  8
1
100
AcDbSpline
210
0.0
220
0.0
230
1.0
 70
     8
 71
     3
 72
    11
 73
     7
 74
     0
 42
0.000000001
 43
0.0000000001
 40
0.0
 40
0.0
 40
0.0
 40
0.0
 40
0.0017130858781789
 40
0.3440348901001608
 40
0.6870694590858918
 40
1.0
 40
1.0
 40
1.0
 40
1.0
 10
388.312790286681
 20
361.440887732926
 30
0.0
 10
388.3130819015001
 20
361.441072227295
 30
0.0
 10
388.3716541012721
 20
361.4781101702562
 30
0.0
 10
388.4917949222993
 20
361.5466164585873
 30
0.0
 10
388.6741086953474
 20
361.6296597227363
 30
0.0
 10
388.7978638415238
 20
361.6733904987993
 30
0.0
 10
388.8576101764365
 20
361.6917955258651
 30
0.0
  0
SPLINE
  5
160
330
1F
100
AcDbEntity
  8
1
100
AcDbSpline
210
0.0
220
0.0
230
1.0
 70
    12
 71
     2
 72
     6
 73
     3
 74
     0
 42
0.000000001
 43
0.0000000001
 40
0.0
 40
0.0
 40
0.0
 40
1.0
 40
1.0
 40
1.0
 10
388.8699169754569
 20
354.4102203149837
 30
0.0
 41
0.5000000087072884
 10
388.8709172707744
 20
354.4101753497425
 30
0.0
 41
0.4999999912927115
 10
388.8719175623518
 20
354.4101305733413
 30
0.0
 41
0.5000000087072884
  0
SPLINE
  5
161
330
1F
100
AcDbEntity
  8
1
100
AcDbSpline
210
0.0
220
0.0
230
1.0
 70
     8
 71
     3
 72
    28
 73
    24
 74
     0
 42
0.000000001
 43
0.0000000001
 40
0.0
 40
0.0
 40
0.0
 40
0.0
 40
0.2499999999999786
 40
0.2499999999999786
 40
0.4999999999999571
 40
0.4999999999999571
 40
0.6249999999999579
 40
0.6249999999999579
 40
0.7499999999999588
 40
0.7499999999999588
 40
0.8124999999999698
 40
0.8124999999999698
 40
0.8749999999999806
 40
0.8749999999999806
 40
0.9062499999999861
 40
0.9062499999999861
 40
0.9374999999999918
 40
0.9374999999999918
 40
0.9687499999999971
 40
0.9687499999999971
 40
0.9843749999999987
 40
0.9843749999999987
 40
1.0
 40
1.0
 40
1.0
 40
1.0
 10
401.2477387599601
 20
361.7494116137196
 30
0.0
 10
401.26405974693
 20
361.7497746324108
 30
0.0
 10
401.2802707139393
 20
361.7498230488352
 30
0.0
 10
401.3123431312259
 20
361.748910518479
 30
0.0
 10
401.3282089567221
 20
361.7479721794234
 30
0.0
 10
401.3515034165155
 20
361.7451437884365
 30
0.0
 10
401.3591803166526
 20
361.7439607968117
 30
0.0
 10
401.37425206148
 20
361.7408240860402
 30
0.0
 10
401.3816531610745
 20
361.7388881836952
 30
0.0
 10
401.3923366452121
 20
361.7348953971016
 30
0.0
 10
401.3958267369265
 20
361.7333801958596
 30
0.0
 10
401.402567046064
 20
361.7297563303511
 30
0.0
 10
401.4058254008443
 20
361.7276608130637
 30
0.0
 10
401.4103497612116
 20
361.7236723008748
 30
0.0
 10
401.4117970127881
 20
361.7221988311974
 30
0.0
 10
401.4144785649617
 20
361.7187927408193
 30
0.0
 10
401.4157210744685
 20
361.7168647333622
 30
0.0
 10
401.4177674569216
 20
361.7121704989912
 30
0.0
 10
401.4186162172651
 20
361.7094235832529
 30
0.0
 10
401.4189323833114
 20
361.7037728415962
 30
0.0
 10
401.4188684499788
 20
361.7016405383762
 30
0.0
 10
401.4180799247229
 20
361.6965971228743
 30
0.0
 10
401.4173369190676
 20
361.6937641734123
 30
0.0
 10
401.416278270806
 20
361.690902063754
 30
0.0
  0
SPLINE
  5
162
330
1F
100
AcDbEntity
  8
1
100
AcDbSpline
210
0.0
220
0.0
230
1.0
 70
     8
 71
     3
 72
    49
 73
    45
 74
     0
 42
0.000000001
 43
0.0000000001
 40
0.0
 40
0.0
 40
0.0
 40
0.0
 40
0.0624999999999963
 40
0.0624999999999963
 40
0.0937499999999945
 40
0.0937499999999945
 40
0.1249999999999926
 40
0.1562499999999908
 40
0.1562499999999908
 40
0.187499999999989
 40
0.187499999999989
 40
0.2499999999999891
 40
0.2499999999999891
 40
0.3124999999999893
 40
0.3124999999999893
 40
0.3437499999999895
 40
0.3437499999999895
 40
0.3749999999999896
 40
0.4062499999999897
 40
0.4062499999999897
 40
0.4374999999999899
 40
0.4374999999999899
 40
0.4687499999999902
 40
0.4687499999999902
 40
0.4999999999999902
 40
0.4999999999999902
 40
0.5624999999999907
 40
0.5624999999999907
 40
0.5937499999999911
 40
0.5937499999999911
 40
0.6249999999999915
 40
0.6249999999999915
 40
0.7499999999999993
 40
0.7499999999999993
 40
0.8125000000000015
 40
0.8125000000000015
 40
0.8437500000000014
 40
0.8437500000000014
 40
0.875000000000001
 40
0.9062500000000007
 40
0.9062500000000007
 40
0.9375000000000005
 40
0.9375000000000005
 40
1.0
 40
1.0
 40
1.0
 40
1.0
 10
388.8719175623517
 20
354.4101305733413
 30
0.0
 10
389.0941778595028
 20
354.4001913123865
 30
0.0
 10
389.3164750928009
 20
354.3968469060409
 30
0.0
 10
389.6499762574103
 20
354.4017065555899
 30
0.0
 10
389.761193723901
 20
354.4049758494418
 30
0.0
 10
389.9833823037992
 20
354.4148049009663
 30
0.0
 10
390.2053400313628
 20
354.4279216679961
 30
0.0
 10
390.4268365864302
 20
354.4476062877707
 30
0.0
 10
390.6481022319898
 20
354.4705794380298
 30
0.0
 10
390.7586018256797
 20
354.4837098936613
 30
0.0
 10
391.0892632701581
 20
354.5279760915328
 30
0.0
 10
391.3087920630725
 20
354.5640066617894
 30
0.0
 10
391.7457495185736
 20
354.6490816132472
 30
0.0
 10
391.9627802456944
 20
354.6980457382683
 30
0.0
 10
392.2861567775957
 20
354.7811210611522
 30
0.0
 10
392.3936209458014
 20
354.8104293000043
 30
0.0
 10
392.6075336551858
 20
354.8721811629098
 30
0.0
 10
392.8204818115204
 20
354.9370793331314
 30
0.0
 10
393.0315026080079
 20
355.0082644219048
 30
0.0
 10
393.2415581340238
 20
355.0825981582476
 30
0.0
 10
393.3460555314662
 20
355.1213235728736
 30
0.0
 10
393.5537912496246
 20
355.2018131819949
 30
0.0
 10
393.6570596607221
 20
355.2435879111779
 30
0.0
 10
393.8623975524978
 20
355.3301973067434
 30
0.0
 10
393.9644983179582
 20
355.3750464204203
 30
0.0
 10
394.2687712460098
 20
355.5140912008952
 30
0.0
 10
394.4687644339174
 20
355.6127062543589
 30
0.0
 10
394.7644737626352
 20
355.7695010523215
 30
0.0
 10
394.8623487062737
 20
355.8232577794741
 30
0.0
 10
395.0563847878602
 20
355.9335758576781
 30
0.0
 10
395.1525793750917
 20
355.990154138024
 30
0.0
 10
395.6294377489168
 20
356.2801370830015
 30
0.0
 10
395.997981527575
 20
356.5350298595947
 30
0.0
 10
396.5266279060804
 20
356.9485002170377
 30
0.0
 10
396.6987326795103
 20
357.0914214302346
 30
0.0
 10
396.9507245382637
 20
357.3134489885206
 30
0.0
 10
397.0336938426631
 20
357.3887357511448
 30
0.0
 10
397.1973188329123
 20
357.5416269946821
 30
0.0
 10
397.3586958696036
 20
357.6968926462374
 30
0.0
 10
397.5155798752494
 20
357.8569040759251
 30
0.0
 10
397.6702130596547
 20
358.0192929425824
 30
0.0
 10
397.7463628891387
 20
358.1016342077995
 30
0.0
 10
397.9710953838346
 20
358.3518526288441
 30
0.0
 10
398.1160553504333
 20
358.5230168097099
 30
0.0
 10
398.2561431800773
 20
358.6985422362903
 30
0.0
  0
SPLINE
  5
163
330
1F
100
AcDbEntity
  8
1
100
AcDbSpline
210
0.0
220
0.0
230
1.0
 70
     8
 71
     3
 72
     8
 73
     4
 74
     0
 42
0.000000001
 43
0.0000000001
 40
0.0
 40
0.0
 40
0.0
 40
0.0
 40
1.0
 40
1.0
 40
1.0
 40
1.0
 10
398.2561431800773
 20
358.6985422362903
 30
0.0
 10
398.2825155879759
 20
358.7315814613955
 30
0.0
 10
398.3089524185889
 20
358.7646213343171
 30
0.0
 10
398.3354470193747
 20
358.7976654637212
 30
0.0
  0
SPLINE
  5
164
330
1F
100
AcDbEntity
  8
1
100
AcDbSpline
210
0.0
220
0.0
230
1.0
 70
     8
 71
     3
 72
     8
 73
     4
 74
     0
 42
0.000000001
 43
0.0000000001
 40
0.0
 40
0.0
 40
0.0
 40
0.0
 40
1.0
 40
1.0
 40
1.0
 40
1.0
 10
398.4020551311175
 20
359.0343396944646
 30
0.0
 10
398.3775911210338
 20
358.9557597163662
 30
0.0
 10
398.3554480859221
 20
358.8767048890801
 30
0.0
 10
398.3354470193829
 20
358.7976654637147
 30
0.0
  0
SPLINE
  5
165
330
1F
100
AcDbEntity
  8
1
100
AcDbSpline
210
0.0
220
0.0
230
1.0
 70
     8
 71
     3
 72
    10
 73
     6
 74
     0
 42
0.000000001
 43
0.0000000001
 40
0.0
 40
0.0
 40
0.0
 40
0.0
 40
0.5
 40
0.5
 40
1.0
 40
1.0
 40
1.0
 40
1.0
 10
390.6433263195255
 20
366.6188160134723
 30
0.0
 10
390.3559849414479
 20
366.6513197903175
 30
0.0
 10
390.0698596787866
 20
366.6913104840233
 30
0.0
 10
389.4999312061433
 20
366.7855868481402
 30
0.0
 10
389.2161282369309
 20
366.8398740018993
 30
0.0
 10
388.9334410700766
 20
366.9010297901797
 30
0.0
  0
SPLINE
  5
166
330
1F
100
AcDbEntity
  8
1
100
AcDbSpline
210
0.0
220
0.0
230
1.0
 70
     8
 71
     3
 72
    52
 73
    48
 74
     0
 42
0.000000001
 43
0.0000000001
 40
0.0
 40
0.0
 40
0.0
 40
0.0
 40
0.0624999999999998
 40
0.0624999999999998
 40
0.1249999999999996
 40
0.1249999999999996
 40
0.1562499999999994
 40
0.1562499999999994
 40
0.1718749999999995
 40
0.1718749999999995
 40
0.1874999999999997
 40
0.1874999999999997
 40
0.2499999999999991
 40
0.2499999999999991
 40
0.3124999999999986
 40
0.3124999999999986
 40
0.3437499999999965
 40
0.3437499999999965
 40
0.3749999999999944
 40
0.3749999999999944
 40
0.4374999999999908
 40
0.4374999999999908
 40
0.4999999999999872
 40
0.4999999999999872
 40
0.5156249999999868
 40
0.5156249999999868
 40
0.5312499999999865
 40
0.5624999999999859
 40
0.5624999999999859
 40
0.6249999999999849
 40
0.6249999999999849
 40
0.6874999999999841
 40
0.6874999999999841
 40
0.7187499999999844
 40
0.7187499999999844
 40
0.7499999999999848
 40
0.7499999999999848
 40
0.8124999999999877
 40
0.8124999999999877
 40
0.8749999999999909
 40
0.8749999999999909
 40
0.9374999999999937
 40
0.9374999999999937
 40
0.9531249999999939
 40
0.9531249999999939
 40
0.9687499999999944
 40
1.0
 40
1.0
 40
1.0
 40
1.0
 10
388.9334410700766
 20
361.9501060739444
 30
0.0
 10
389.0307575743849
 20
361.8864380602143
 30
0.0
 10
389.1223353399337
 20
361.8179938140767
 30
0.0
 10
389.2951591226408
 20
361.6725785472642
 30
0.0
 10
389.376397552334
 20
361.5956009918154
 30
0.0
 10
389.4908900303822
 20
361.4741138008402
 30
0.0
 10
389.5278225609867
 20
361.4326112131518
 30
0.0
 10
389.5813892835875
 20
361.3688672390206
 30
0.0
 10
389.5989556129459
 20
361.3473482650708
 30
0.0
 10
389.6332583635853
 20
361.3040977670433
 30
0.0
 10
389.6500216733739
 20
361.2823355282732
 30
0.0
 10
389.7319488724939
 20
361.1728613389526
 30
0.0
 10
389.7914687456099
 20
361.0831693440841
 30
0.0
 10
389.8993513992518
 20
360.8999656220437
 30
0.0
 10
389.9477096823476
 20
360.8064520447143
 30
0.0
 10
390.0121445971979
 20
360.663474362272
 30
0.0
 10
390.0322838010516
 20
360.6153028755547
 30
0.0
 10
390.0694961891468
 20
360.5190846976269
 30
0.0
 10
390.0866276430706
 20
360.4709181793652
 30
0.0
 10
390.1337634490793
 20
360.3262692252164
 30
0.0
 10
390.1595231735413
 20
360.2296384303617
 30
0.0
 10
390.2002197426278
 20
360.0360732696846
 30
0.0
 10
390.2151550872908
 20
359.9391387050263
 30
0.0
 10
390.2271031256283
 20
359.8178188663072
 30
0.0
 10
390.2291569927752
 20
359.7935210683623
 30
0.0
 10
390.232574452475
 20
359.7451259842347
 30
0.0
 10
390.236672319804
 20
359.672780806371
 30
0.0
 10
390.237735100166
 20
359.601169463925
 30
0.0
 10
390.235905856353
 20
359.4589099144914
 30
0.0
 10
390.2294261487505
 20
359.3653521278906
 30
0.0
 10
390.2061113739472
 20
359.1807766798361
 30
0.0
 10
390.189277169183
 20
359.0897589305345
 30
0.0
 10
390.1560653057143
 20
358.9551751882753
 30
0.0
 10
390.1436509497169
 20
358.9105949860192
 30
0.0
 10
390.1161420323905
 20
358.8222804445649
 30
0.0
 10
390.1011336020937
 20
358.7788133701916
 30
0.0
 10
390.0523793169285
 20
358.6504526547468
 30
0.0
 10
390.0149187877635
 20
358.5675930820188
 30
0.0
 10
389.9299191411774
 20
358.4072971210563
 30
0.0
 10
389.8823834522196
 20
358.3298594648809
 30
0.0
 10
389.7765744639777
 20
358.1806223321131
 30
0.0
 10
389.7183100635571
 20
358.1088191996092
 30
0.0
 10
389.6379378810977
 20
358.0229042328261
 30
0.0
 10
389.6215270272402
 20
358.0059614527878
 30
0.0
 10
389.5881526100965
 20
357.9726898833702
 30
0.0
 10
389.5372042890177
 20
357.9236425991578
 30
0.0
 10
389.483572450608
 20
357.8771804642047
 30
0.0
 10
389.4465883834452
 20
357.8473731230383
 30
0.0
  0
SPLINE
  5
167
330
1F
100
AcDbEntity
  8
1
100
AcDbSpline
210
0.0
220
0.0
230
1.0
 70
     8
 71
     3
 72
    92
 73
    88
 74
     0
 42
0.000000001
 43
0.0000000001
 40
0.0
 40
0.0
 40
0.0
 40
0.0
 40
0.0312500000000225
 40
0.0625000000000449
 40
0.0625000000000449
 40
0.0781250000000562
 40
0.0859375000000596
 40
0.0859375000000596
 40
0.0937500000000631
 40
0.0937500000000631
 40
0.12500000000009
 40
0.1562500000001168
 40
0.1562500000001168
 40
0.171875000000128
 40
0.171875000000128
 40
0.1796875000001313
 40
0.1796875000001313
 40
0.1875000000001345
 40
0.1875000000001345
 40
0.2187500000001343
 40
0.2500000000001339
 40
0.2500000000001339
 40
0.2656250000001317
 40
0.2656250000001317
 40
0.2812500000001295
 40
0.2812500000001295
 40
0.3125000000001248
 40
0.3125000000001248
 40
0.3437500000001202
 40
0.3437500000001202
 40
0.359375000000116
 40
0.359375000000116
 40
0.3671875000001155
 40
0.3671875000001155
 40
0.3750000000001152
 40
0.40625000000011
 40
0.40625000000011
 40
0.4375000000001049
 40
0.4375000000001049
 40
0.4531250000001024
 40
0.4531250000001024
 40
0.4687500000000996
 40
0.4687500000000996
 40
0.5000000000000956
 40
0.5000000000000956
 40
0.5312500000000916
 40
0.5312500000000916
 40
0.5390625000000907
 40
0.5390625000000907
 40
0.5468750000000897
 40
0.5625000000000872
 40
0.5625000000000872
 40
0.5937500000000819
 40
0.5937500000000819
 40
0.6250000000000768
 40
0.6250000000000768
 40
0.6406250000000739
 40
0.6406250000000739
 40
0.6562500000000713
 40
0.6562500000000713
 40
0.687500000000065
 40
0.687500000000065
 40
0.7187500000000587
 40
0.7187500000000587
 40
0.7343750000000555
 40
0.7343750000000555
 40
0.7500000000000524
 40
0.7500000000000524
 40
0.8125000000000369
 40
0.8125000000000369
 40
0.8437500000000303
 40
0.8437500000000303
 40
0.8750000000000238
 40
0.8750000000000238
 40
0.8906250000000206
 40
0.8906250000000206
 40
0.9062500000000172
 40
0.9062500000000172
 40
0.937500000000014
 40
0.937500000000014
 40
0.9687500000000108
 40
0.9687500000000108
 40
0.9843750000000072
 40
0.9843750000000072
 40
0.9921875000000035
 40
0.9921875000000035
 40
1.0
 40
1.0
 40
1.0
 40
1.0
 10
388.9334410700766
 20
361.9501060739444
 30
0.0
 10
388.8540460112874
 20
362.0020492230436
 30
0.0
 10
388.6908670257572
 20
362.0972075362147
 30
0.0
 10
388.5190006397528
 20
362.1749379681257
 30
0.0
 10
388.3867667519522
 20
362.2264982944049
 30
0.0
 10
388.3198145405843
 20
362.2505907022918
 30
0.0
 10
388.2515777302781
 20
362.2720796068742
 30
0.0
 10
388.2057961737564
 20
362.2858163225576
 30
0.0
 10
388.1827273637508
 20
362.292398953901
 30
0.0
 10
388.0670451978691
 20
362.3237031500349
 30
0.0
 10
387.8809654786501
 20
362.3632405073069
 30
0.0
 10
387.6929340014724
 20
362.3820783519531
 30
0.0
 10
387.5511631316033
 20
362.3883028864231
 30
0.0
 10
387.5037813748427
 20
362.3890574026761
 30
0.0
 10
387.4325171079122
 20
362.3881615449367
 30
0.0
 10
387.4087303950692
 20
362.3875247699836
 30
0.0
 10
387.3610920787103
 20
362.3855642786994
 30
0.0
 10
387.3371985818553
 20
362.3842371093606
 30
0.0
 10
387.218255367119
 20
362.3759058035255
 30
0.0
 10
387.0309634151266
 20
362.3517921278347
 30
0.0
 10
386.8495712633351
 20
362.3067510150914
 30
0.0
 10
386.7157887106518
 20
362.2650518161235
 30
0.0
 10
386.6715724714808
 20
362.2498292040485
 30
0.0
 10
386.5839170591927
 20
362.2166866956068
 30
0.0
 10
386.5403469565519
 20
362.1987009874965
 30
0.0
 10
386.4125269677377
 20
362.1413727688044
 30
0.0
 10
386.3307468678097
 20
362.098552663187
 30
0.0
 10
386.17388494579
 20
362.0041153151151
 30
0.0
 10
386.0988039251671
 20
361.9524965941482
 30
0.0
 10
385.9912793880764
 20
361.8685270817415
 30
0.0
 10
385.9562893497758
 20
361.8394446042478
 30
0.0
 10
385.9051088051371
 20
361.7941674846593
 30
0.0
 10
385.8883124594716
 20
361.7788391845948
 30
0.0
 10
385.8553648972576
 20
361.7478338070491
 30
0.0
 10
385.7745137413678
 20
361.6693597313686
 30
0.0
 10
385.7011020778272
 20
361.5862208834967
 30
0.0
 10
385.5928011946692
 20
361.4476670701968
 30
0.0
 10
385.5432313534
 20
361.375622846371
 30
0.0
 10
385.4756956925357
 20
361.2635906225799
 30
0.0
 10
385.4542802758352
 20
361.2254909482969
 30
0.0
 10
385.4141829443282
 20
361.1488733746524
 30
0.0
 10
385.3954437957332
 20
361.110272552701
 30
0.0
 10
385.3430006959347
 20
360.9936645214909
 30
0.0
 10
385.3130620527007
 20
360.9148547087597
 30
0.0
 10
385.2626623535203
 20
360.7553844426332
 30
0.0
 10
385.2422032761819
 20
360.674723193772
 30
0.0
 10
385.2223677375558
 20
360.5728672138487
 30
0.0
 10
385.2186925714964
 20
360.5524632511178
 30
0.0
 10
385.2119424390572
 20
360.5117526080062
 30
0.0
 10
385.2027040702909
 20
360.4507635182449
 30
0.0
 10
385.1960592126378
 20
360.3900089119663
 30
0.0
 10
385.1860785312971
 20
360.2688211223236
 30
0.0
 10
385.1838290342602
 20
360.1884582013176
 30
0.0
 10
385.1875595012337
 20
360.0286263448293
 30
0.0
 10
385.1935410546769
 20
359.9491573129638
 30
0.0
 10
385.2084272583144
 20
359.8306429526786
 30
0.0
 10
385.2143799592548
 20
359.7912651703868
 30
0.0
 10
385.2281072637247
 20
359.7133443038121
 30
0.0
 10
385.2358906399456
 20
359.6747228034242
 30
0.0
 10
385.2618902872283
 20
359.5598397838438
 30
0.0
 10
385.2827497345767
 20
359.4845583932448
 30
0.0
 10
385.3311068209772
 20
359.3364591136609
 30
0.0
 10
385.3586053849615
 20
359.2636415217993
 30
0.0
 10
385.4046675603521
 20
359.15617997623
 30
0.0
 10
385.4208254258019
 20
359.1206538857627
 30
0.0
 10
385.4547378845514
 20
359.0501798847732
 30
0.0
 10
385.4725243561496
 20
359.0151748100151
 30
0.0
 10
385.5649412053475
 20
358.8424981663517
 30
0.0
 10
385.649958541487
 20
358.7116074420026
 30
0.0
 10
385.7934165137452
 20
358.5249947648267
 30
0.0
 10
385.8439120723188
 20
358.4644209962954
 30
0.0
 10
385.9504034381798
 20
358.346454886487
 30
0.0
 10
386.0063976134494
 20
358.2890622000602
 30
0.0
 10
386.0947799972087
 20
358.2053574673637
 30
0.0
 10
386.1250220806784
 20
358.1778148510756
 30
0.0
 10
386.1866216234856
 20
358.1238924016845
 30
0.0
 10
386.2180129226897
 20
358.0974772380904
 30
0.0
 10
386.3140046936895
 20
358.0198613592977
 30
0.0
 10
386.3804155464956
 20
357.9702851936655
 30
0.0
 10
386.5184622613986
 20
357.875535335329
 30
0.0
 10
386.590094787753
 20
357.8303597504714
 30
0.0
 10
386.7019622112477
 20
357.7660847195388
 30
0.0
 10
386.7399902491369
 20
357.7452426947341
 30
0.0
 10
386.7982314814865
 20
357.7148955460003
 30
0.0
 10
386.8178453112712
 20
357.7049326196032
 30
0.0
 10
386.8574913101637
 20
357.6853211687245
 30
0.0
 10
386.8775510357211
 20
357.6756600223329
 30
0.0
 10
386.8977408389599
 20
357.6662025049795
 30
0.0
  0
SPLINE
  5
168
330
1F
100
AcDbEntity
  8
1
100
AcDbSpline
210
0.0
220
0.0
230
1.0
 70
     8
 71
     3
 72
    10
 73
     6
 74
     0
 42
0.000000001
 43
0.0000000001
 40
0.0
 40
0.0
 40
0.0
 40
0.0
 40
0.5
 40
0.5
 40
1.0
 40
1.0
 40
1.0
 40
1.0
 10
386.4810022943213
 20
367.6268332524535
 30
0.0
 10
386.8799711852233
 20
367.4757973134061
 30
0.0
 10
387.2838993758216
 20
367.3396332895805
 30
0.0
 10
388.1014331659501
 20
367.0975094546538
 30
0.0
 10
388.5150380049288
 20
366.9915459941972
 30
0.0
 10
388.9334410700766
 20
366.9010297901797
 30
0.0
  0
SPLINE
  5
169
330
1F
100
AcDbEntity
  8
1
100
AcDbSpline
210
0.0
220
0.0
230
1.0
 70
     8
 71
     2
 72
     9
 73
     6
 74
     0
 42
0.000000001
 43
0.0000000001
 40
0.0
 40
0.0
 40
0.0
 40
0.1967576641866322
 40
0.4959623725538256
 40
0.7951670809210193
 40
1.0
 40
1.0
 40
1.0
 10
375.9879939999334
 20
376.9121338368685
 30
0.0
 10
376.3142813273876
 20
376.0259461062921
 30
0.0
 10
377.394859941424
 20
373.8988481432489
 30
0.0
 10
379.1299097975693
 20
371.6110112588444
 30
0.0
 10
380.9073309083107
 20
369.9808774732091
 30
0.0
 10
381.7015397445539
 20
369.4156466194292
 30
0.0
  0
SPLINE
  5
16A
330
1F
100
AcDbEntity
  8
1
100
AcDbSpline
210
0.0
220
0.0
230
1.0
 70
    12
 71
     2
 72
     6
 73
     3
 74
     0
 42
0.000000001
 43
0.0000000001
 40
0.0
 40
0.0
 40
0.0
 40
1.0
 40
1.0
 40
1.0
 10
377.5063634504203
 20
354.4181646688257
 30
0.0
 41
0.5000000297374044
 10
377.484222120614
 20
354.4182786824269
 30
0.0
 41
0.4999999702625957
 10
377.4620821388483
 20
354.4183939838234
 30
0.0
 41
0.5000000297374044
  0
SPLINE
  5
16B
330
1F
100
AcDbEntity
  8
1
100
AcDbSpline
210
0.0
220
0.0
230
1.0
 70
     8
 71
     3
 72
    81
 73
    77
 74
     0
 42
0.000000001
 43
0.0000000001
 40
0.0
 40
0.0
 40
0.0
 40
0.0
 40
0.0624999999999933
 40
0.0624999999999933
 40
0.1249999999999866
 40
0.1249999999999866
 40
0.1562499999999826
 40
0.1562499999999826
 40
0.1874999999999786
 40
0.1874999999999786
 40
0.2187499999999745
 40
0.2187499999999745
 40
0.2265624999999741
 40
0.2265624999999741
 40
0.2343749999999736
 40
0.2499999999999727
 40
0.2499999999999727
 40
0.2812499999999717
 40
0.2812499999999717
 40
0.3124999999999709
 40
0.3124999999999709
 40
0.3203124999999712
 40
0.3203124999999712
 40
0.3281249999999716
 40
0.3437499999999712
 40
0.3437499999999712
 40
0.3749999999999694
 40
0.3749999999999694
 40
0.4062499999999675
 40
0.4062499999999675
 40
0.4140624999999673
 40
0.4140624999999673
 40
0.421874999999967
 40
0.421874999999967
 40
0.4374999999999662
 40
0.4374999999999662
 40
0.4687499999999653
 40
0.4687499999999653
 40
0.4765624999999652
 40
0.4765624999999652
 40
0.4843749999999651
 40
0.4843749999999651
 40
0.4999999999999651
 40
0.4999999999999651
 40
0.5312499999999645
 40
0.5312499999999645
 40
0.5468749999999643
 40
0.5468749999999643
 40
0.5546874999999642
 40
0.5546874999999642
 40
0.5624999999999642
 40
0.5624999999999642
 40
0.5937499999999649
 40
0.5937499999999649
 40
0.6249999999999655
 40
0.6249999999999655
 40
0.6406249999999665
 40
0.648437499999967
 40
0.648437499999967
 40
0.6562499999999675
 40
0.6562499999999675
 40
0.6874999999999691
 40
0.6874999999999691
 40
0.7187499999999708
 40
0.7187499999999708
 40
0.7499999999999724
 40
0.7499999999999724
 40
0.812499999999977
 40
0.812499999999977
 40
0.8437499999999802
 40
0.8437499999999802
 40
0.8749999999999836
 40
0.8749999999999836
 40
0.9374999999999918
 40
0.9374999999999918
 40
1.0
 40
1.0
 40
1.0
 40
1.0
 10
374.7879292605507
 20
372.0864525934558
 30
0.0
 10
374.5677267946415
 20
372.1682857684678
 30
0.0
 10
374.352925879825
 20
372.2565343673003
 30
0.0
 10
373.9350223481793
 20
372.4462261285463
 30
0.0
 10
373.7319069149105
 20
372.5476570895033
 30
0.0
 10
373.4370991956994
 20
372.7103186611558
 30
0.0
 10
373.3404805635734
 20
372.7662975021865
 30
0.0
 10
373.1508342835897
 20
372.8819723870274
 30
0.0
 10
373.0578052837751
 20
372.9416672078309
 30
0.0
 10
372.8757325671669
 20
373.065068490574
 30
0.0
 10
372.7866865552674
 20
373.1287728722585
 30
0.0
 10
372.6782155875042
 20
373.2111840829033
 30
0.0
 10
372.6566779404743
 20
373.2277955524054
 30
0.0
 10
372.6140593913549
 20
373.2611765971191
 30
0.0
 10
372.5507597373036
 20
373.3115286343623
 30
0.0
 10
372.4893848019832
 20
373.3627312276628
 30
0.0
 10
372.3693292384212
 20
373.4663036790577
 30
0.0
 10
372.2928737950505
 20
373.5369038309764
 30
0.0
 10
372.1480290776828
 20
373.6814771542218
 30
0.0
 10
372.0796333616557
 20
373.7554477218328
 30
0.0
 10
372.0000017706449
 20
373.8502940603666
 30
0.0
 10
371.9843511730654
 20
373.8694074638616
 30
0.0
 10
371.9538217451763
 20
373.9076838167003
 30
0.0
 10
371.9091438507672
 20
373.9652189300299
 30
0.0
 10
371.8678805211839
 20
374.0231163287456
 30
0.0
 10
371.7901202961414
 20
374.1394019133842
 30
0.0
 10
371.7446167071251
 20
374.2175771528808
 30
0.0
 10
371.6678123898339
 20
374.3753336748592
 30
0.0
 10
371.6365023223707
 20
374.4549137586257
 30
0.0
 10
371.6076310779714
 20
374.5553970459935
 30
0.0
 10
371.6023723151482
 20
374.5755444280884
 30
0.0
 10
371.592930340868
 20
374.6159452908765
 30
0.0
 10
371.5887727401758
 20
374.6360946635058
 30
0.0
 10
371.5780356233458
 20
374.6962013171848
 30
0.0
 10
371.5731721681479
 20
374.7358975641704
 30
0.0
 10
371.565497357429
 20
374.8538653331694
 30
0.0
 10
371.5695924506674
 20
374.9310161934893
 30
0.0
 10
371.5864776184846
 20
375.0255939955073
 30
0.0
 10
371.5904436849411
 20
375.0444164928783
 30
0.0
 10
371.599562979338
 20
375.0818754437954
 30
0.0
 10
371.6047289607297
 20
375.1005509746644
 30
0.0
 10
371.621920256853
 20
375.1559799058348
 30
0.0
 10
371.6356076092804
 20
375.1920819506007
 30
0.0
 10
371.682973593598
 20
375.2980007966633
 30
0.0
 10
371.7229440480846
 20
375.3654352054682
 30
0.0
 10
371.7942593334095
 20
375.4623698622362
 30
0.0
 10
371.8199276816633
 20
375.4939772593882
 30
0.0
 10
371.8611464729273
 20
375.5403906524089
 30
0.0
 10
371.8753410464127
 20
375.5556949101872
 30
0.0
 10
371.9044148113316
 20
375.5857823345455
 30
0.0
 10
371.9193170127677
 20
375.600592175956
 30
0.0
 10
371.9955652642182
 20
375.6735337020367
 30
0.0
 10
372.0620988057869
 20
375.7283591651137
 30
0.0
 10
372.2043806219066
 20
375.8322339536988
 30
0.0
 10
372.2801361012578
 20
375.8812783302031
 30
0.0
 10
372.3996626593208
 20
375.9512123025466
 30
0.0
 10
372.4609039114276
 20
375.9852679020792
 30
0.0
 10
372.5242047777841
 20
376.0180641399865
 30
0.0
 10
372.5668475546354
 20
376.0396590139692
 30
0.0
 10
372.5883860303814
 20
376.0503193440383
 30
0.0
 10
372.6967426263924
 20
376.1027847120066
 30
0.0
 10
372.7858614026552
 20
376.1422562752928
 30
0.0
 10
372.9681299261652
 20
376.2171175904151
 30
0.0
 10
373.0612827210492
 20
376.2525039101225
 30
0.0
 10
373.2510046780697
 20
376.3198660027101
 30
0.0
 10
373.3475756471664
 20
376.351839740266
 30
0.0
 10
373.6417035377501
 20
376.4434143749681
 30
0.0
 10
373.8436427912457
 20
376.4987049755223
 30
0.0
 10
374.1533020847342
 20
376.5751783884081
 30
0.0
 10
374.257704530057
 20
376.5995926040359
 30
0.0
 10
374.4683198855887
 20
376.6464626536136
 30
0.0
 10
374.5743556663317
 20
376.6688802899159
 30
0.0
 10
374.8943955865755
 20
376.7334659812858
 30
0.0
 10
375.1103218664908
 20
376.7729832962471
 30
0.0
 10
375.5462926729472
 20
376.846470583951
 30
0.0
 10
375.7663417058734
 20
376.8804333140243
 30
0.0
 10
375.9880911420839
 20
376.9121545528934
 30
0.0
  0
SPLINE
  5
16C
330
1F
100
AcDbEntity
  8
1
100
AcDbSpline
210
0.0
220
0.0
230
1.0
 70
     8
 71
     3
 72
    33
 73
    29
 74
     0
 42
0.000000001
 43
0.0000000001
 40
0.0
 40
0.0
 40
0.0
 40
0.0
 40
0.0059090163285281
 40
0.0059090163285281
 40
0.0775371493317156
 40
0.0775371493317156
 40
0.1133512158333012
 40
0.1133512158333012
 40
0.1491652823348867
 40
0.1491652823348867
 40
0.2924215483412761
 40
0.2924215483412761
 40
0.3640496813444637
 40
0.3640496813444637
 40
0.4356778143476513
 40
0.4356778143476513
 40
0.5073059473508391
 40
0.5073059473508391
 40
0.5789340803540268
 40
0.6505622133572141
 40
0.6505622133572141
 40
0.7221903463604019
 40
0.7221903463604019
 40
0.7938184793635896
 40
0.7938184793635896
 40
0.865446612366777
 40
0.865446612366777
 40
1.0
 40
1.0
 40
1.0
 40
1.0
 10
378.987460045871
 20
377.5691053348439
 30
0.0
 10
378.9851509243477
 20
377.5691471942804
 30
0.0
 10
378.9828443887001
 20
377.5691898137787
 30
0.0
 10
378.9526147868628
 20
377.5697589448291
 30
0.0
 10
378.9250839478722
 20
377.5703946485888
 30
0.0
 10
378.8843688603295
 20
377.5714972100881
 30
0.0
 10
378.870869217514
 20
377.5718904025883
 30
0.0
 10
378.844249480385
 20
377.5727178450996
 30
0.0
 10
378.8311162128163
 20
377.5731523394904
 30
0.0
 10
378.7663075446117
 20
377.5754186138885
 30
0.0
 10
378.7171828495845
 20
377.577530953993
 30
0.0
 10
378.6473814113122
 20
377.5809699545419
 30
0.0
 10
378.6246902033235
 20
377.5821659652779
 30
0.0
 10
378.5811154188451
 20
377.584591416783
 30
0.0
 10
378.5602120026135
 20
377.5858211984312
 30
0.0
 10
378.520128716035
 20
377.5882836848868
 30
0.0
 10
378.5009396796608
 20
377.5895173760551
 30
0.0
 10
378.4647350562626
 20
377.5919259221991
 30
0.0
 10
378.4305661347052
 20
377.5942839083324
 30
0.0
 10
378.4003292936119
 20
377.5964887218489
 30
0.0
 10
378.3720372701105
 20
377.5985919241179
 30
0.0
 10
378.3588488061836
 20
377.5995938720598
 30
0.0
 10
378.3345028229156
 20
377.6014661592691
 30
0.0
 10
378.3234248250637
 20
377.6023302802532
 30
0.0
 10
378.3034136782076
 20
377.6038969968944
 30
0.0
 10
378.294467624708
 20
377.6046006275543
 30
0.0
 10
378.2718910761702
 20
377.60636238478
 30
0.0
 10
378.2611764714307
 20
377.6071770850374
 30
0.0
 10
378.2543179842804
 20
377.6076360994284
 30
0.0
  0
SPLINE
  5
16D
330
1F
100
AcDbEntity
  8
1
100
AcDbSpline
210
0.0
220
0.0
230
1.0
 70
     8
 71
     3
 72
    30
 73
    26
 74
     0
 42
0.000000001
 43
0.0000000001
 40
0.0
 40
0.0
 40
0.0
 40
0.0
 40
0.0320620626175923
 40
0.0320620626175923
 40
0.1703389108150755
 40
0.1703389108150755
 40
0.3086157590125589
 40
0.3086157590125589
 40
0.3431849710619312
 40
0.3431849710619312
 40
0.3777541831113034
 40
0.4468926072100408
 40
0.4468926072100408
 40
0.5851694554075242
 40
0.5851694554075242
 40
0.6543078795062659
 40
0.6543078795062659
 40
0.7234463036050073
 40
0.7234463036050073
 40
0.861723151802504
 40
0.861723151802504
 40
0.896292363851882
 40
0.896292363851882
 40
0.9308615759012596
 40
1.0
 40
1.0
 40
1.0
 40
1.0
 10
378.2452375825763
 20
377.6080061994965
 30
0.0
 10
378.2452451945446
 20
377.6079605758854
 30
0.0
 10
378.2454948136398
 20
377.6078922247086
 30
0.0
 10
378.248122028355
 20
377.607407333817
 30
0.0
 10
378.2547287287593
 20
377.6065963307503
 30
0.0
 10
378.2766524578978
 20
377.6042172497029
 30
0.0
 10
378.2919671236032
 20
377.602648781669
 30
0.0
 10
378.3168929799955
 20
377.600264430767
 30
0.0
 10
378.322174378327
 20
377.5997659713953
 30
0.0
 10
378.3332230595724
 20
377.5987385466676
 30
0.0
 10
378.3505597275387
 20
377.597148347742
 30
0.0
 10
378.3701638572038
 20
377.5954245428761
 30
0.0
 10
378.4123978394686
 20
377.5918348262947
 30
0.0
 10
378.4445612415402
 20
377.5892512924303
 30
0.0
 10
378.4992706864468
 20
377.5852427120107
 30
0.0
 10
378.5186507413144
 20
377.5838812582197
 30
0.0
 10
378.5588130409532
 20
377.5812026856442
 30
0.0
 10
378.5796846812641
 20
377.5798786481316
 30
0.0
 10
378.6446735770334
 20
377.5759979971142
 30
0.0
 10
378.6911418720446
 20
377.5735315269022
 30
0.0
 10
378.7534767125998
 20
377.5707618957348
 30
0.0
 10
378.7661920346971
 20
377.5702223924569
 30
0.0
 10
378.7919006373992
 20
377.5691861663412
 30
0.0
 10
378.8307707776486
 20
377.5677000001568
 30
0.0
 10
378.8705500216287
 20
377.5664298255066
 30
0.0
 10
378.8974723741089
 20
377.5656892309432
 30
0.0
  0
SPLINE
  5
16E
330
1F
100
AcDbEntity
  8
1
100
AcDbSpline
210
0.0
220
0.0
230
1.0
 70
     8
 71
     3
 72
    30
 73
    26
 74
     0
 42
0.000000001
 43
0.0000000001
 40
0.0
 40
0.0
 40
0.0
 40
0.0
 40
0.0858995989918164
 40
0.0858995989918164
 40
0.1717991979836327
 40
0.1717991979836327
 40
0.2576987969754491
 40
0.2576987969754491
 40
0.3435983959672654
 40
0.3435983959672654
 40
0.4294979949590818
 40
0.4294979949590818
 40
0.5153975939508982
 40
0.5153975939508982
 40
0.6012971929427146
 40
0.6012971929427146
 40
0.6871967919345309
 40
0.6871967919345309
 40
0.7730963909263473
 40
0.7730963909263473
 40
0.8589959899181634
 40
0.8589959899181634
 40
0.9448955889099799
 40
0.9448955889099799
 40
1.0
 40
1.0
 40
1.0
 40
1.0
 10
376.4995285250569
 20
354.4187117031878
 30
0.0
 10
376.4690883239538
 20
354.418711700561
 30
0.0
 10
376.4387677359725
 20
354.4186515769149
 30
0.0
 10
376.3783590945327
 20
354.4184173856233
 30
0.0
 10
376.3482265463232
 20
354.4182429660207
 30
0.0
 10
376.2883912582864
 20
354.4177907607356
 30
0.0
 10
376.2588112947155
 20
354.417514110984
 30
0.0
 10
376.2003115709471
 20
354.4168756734803
 30
0.0
 10
376.1713297780939
 20
354.4165129758841
 30
0.0
 10
376.1143489552072
 20
354.4157252566507
 30
0.0
 10
376.0863873585017
 20
354.4153009936871
 30
0.0
 10
376.0315069717925
 20
354.4144146235387
 30
0.0
 10
376.0045300685839
 20
354.4139514227908
 30
0.0
 10
375.9520098099051
 20
354.4130191935325
 30
0.0
 10
375.9264502867422
 20
354.4125500175872
 30
0.0
 10
375.8767269475183
 20
354.4116331496566
 30
0.0
 10
375.8525246541517
 20
354.4111847652662
 30
0.0
 10
375.8059303003342
 20
354.4103462781064
 30
0.0
 10
375.7834945423002
 20
354.4099553352581
 30
0.0
 10
375.7403568238044
 20
354.4092601735049
 30
0.0
 10
375.7196465554607
 20
354.4089560581176
 30
0.0
 10
375.6803595735388
 20
354.408470719683
 30
0.0
 10
375.6617322624197
 20
354.4082885786803
 30
0.0
 10
375.6328492973931
 20
354.4081138580896
 30
0.0
 10
375.6219971553535
 20
354.4080769771585
 30
0.0
 10
375.6116191422533
 20
354.4080752133439
 30
0.0
  0
SPLINE
  5
16F
330
1F
100
AcDbEntity
  8
1
100
AcDbSpline
210
0.0
220
0.0
230
1.0
 70
    24
 71
     3
 72
     8
 73
     4
 74
     0
 42
0.000000001
 43
0.0000000001
 40
0.0
 40
0.0
 40
0.0
 40
0.0
 40
1.0
 40
1.0
 40
1.0
 40
1.0
 10
376.4995285250569
 20
354.4187117031878
 30
0.0
 10
376.779857007709
 20
354.41871172738
 30
0.0
 10
377.0601854903611
 20
354.4187117515721
 30
0.0
 10
377.3405139730133
 20
354.4187117757642
 30
0.0
  0
SPLINE
  5
170
330
1F
100
AcDbEntity
  8
1
100
AcDbSpline
210
0.0
220
0.0
230
1.0
 70
     8
 71
     3
 72
     9
 73
     5
 74
     0
 42
0.000000001
 43
0.0000000001
 40
0.0
 40
0.0
 40
0.0
 40
0.0
 40
0.5
 40
1.0
 40
1.0
 40
1.0
 40
1.0
 10
377.4620821388483
 20
354.4183939838234
 30
0.0
 10
377.441957249803
 20
354.4184987909472
 30
0.0
 10
377.4015713032666
 20
354.4186578360942
 30
0.0
 10
377.3609128031507
 20
354.4187117775245
 30
0.0
 10
377.3405139730133
 20
354.4187117757642
 30
0.0
  0
SPLINE
  5
171
330
1F
100
AcDbEntity
  8
1
100
AcDbSpline
210
0.0
220
0.0
230
1.0
 70
     8
 71
     3
 72
    63
 73
    59
 74
     0
 42
0.000000001
 43
0.0000000001
 40
0.0
 40
0.0
 40
0.0
 40
0.0
 40
0.0134666122166704
 40
0.0134666122166704
 40
0.0759622172916845
 40
0.0759622172916845
 40
0.1384578223666985
 40
0.1384578223666985
 40
0.1697056249042056
 40
0.1697056249042056
 40
0.1853295261729592
 40
0.1853295261729592
 40
0.2009534274417127
 40
0.2009534274417127
 40
0.2634490325167321
 40
0.2634490325167321
 40
0.294696835054242
 40
0.294696835054242
 40
0.3259446375917517
 40
0.3571924401292614
 40
0.3571924401292614
 40
0.3728163413980164
 40
0.3728163413980164
 40
0.388440242666771
 40
0.388440242666771
 40
0.4509358477417652
 40
0.4509358477417652
 40
0.4821836502792668
 40
0.4821836502792668
 40
0.5134314528167682
 40
0.5134314528167682
 40
0.5759270578917714
 40
0.5759270578917714
 40
0.6071748604292728
 40
0.6071748604292728
 40
0.6384226629667743
 40
0.6384226629667743
 40
0.7009182680417857
 40
0.7009182680417857
 40
0.7165421693105424
 40
0.7165421693105424
 40
0.732166070579299
 40
0.732166070579299
 40
0.7634138731168191
 40
0.7634138731168191
 40
0.8259094781918594
 40
0.8259094781918594
 40
0.841533379460616
 40
0.841533379460616
 40
0.8571572807293723
 40
0.8884050832668847
 40
0.9196528858043976
 40
0.9196528858043976
 40
0.9352767870731527
 40
0.9352767870731527
 40
0.9509006883419077
 40
0.9509006883419077
 40
1.0
 40
1.0
 40
1.0
 40
1.0
 10
373.9248483747142
 20
377.6080750666285
 30
0.0
 10
373.9248374988567
 20
377.6080757045528
 30
0.0
 10
373.9250631511491
 20
377.6080626061647
 30
0.0
 10
373.9276529114054
 20
377.6079121609058
 30
0.0
 10
373.9347772098379
 20
377.6074958120018
 30
0.0
 10
373.9593068348399
 20
377.6061112231113
 30
0.0
 10
373.976276899074
 20
377.6051685047697
 30
0.0
 10
374.0083757362149
 20
377.60348127379
 30
0.0
 10
374.0201915876931
 20
377.602873209158
 30
0.0
 10
374.0396152921801
 20
377.6019051535621
 30
0.0
 10
374.0463740277057
 20
377.6015731728585
 30
0.0
 10
374.0603059993225
 20
377.6009004683931
 30
0.0
 10
374.0674969501407
 20
377.600558852783
 30
0.0
 10
374.1045508085372
 20
377.5988312470293
 30
0.0
 10
374.1376791153497
 20
377.5973869312583
 30
0.0
 10
374.1925078154532
 20
377.5952509840984
 30
0.0
 10
374.2116964497682
 20
377.5945427953449
 30
0.0
 10
374.2510087469685
 20
377.5931851731905
 30
0.0
 10
374.2914327600536
 20
377.5918789840215
 30
0.0
 10
374.3340175050792
 20
377.5907088316515
 30
0.0
 10
374.3667660745818
 20
377.5898944226087
 30
0.0
 10
374.3778175008293
 20
377.589633486536
 30
0.0
 10
374.4001936442199
 20
377.589134739824
 30
0.0
 10
374.411547431014
 20
377.5888963878318
 30
0.0
 10
374.468548647958
 20
377.58777649229
 30
0.0
 10
374.5149547371045
 20
377.5871077266323
 30
0.0
 10
374.5857220364097
 20
377.5864852130491
 30
0.0
 10
374.6095055311337
 20
377.5863411080333
 30
0.0
 10
374.6574692286156
 20
377.586186263416
 30
0.0
 10
374.6816891427088
 20
377.5861763908463
 30
0.0
 10
374.7534909237
 20
377.5863488633719
 30
0.0
 10
374.8007004568469
 20
377.5867304936321
 30
0.0
 10
374.8705325706869
 20
377.5876698945669
 30
0.0
 10
374.8936451711804
 20
377.5880441919069
 30
0.0
 10
374.9395278284434
 20
377.5889093260191
 30
0.0
 10
374.9620245137622
 20
377.5893951922678
 30
0.0
 10
375.027800596197
 20
377.5909803151457
 30
0.0
 10
375.0695630660322
 20
377.5922107443431
 30
0.0
 10
375.1190843455482
 20
377.5938857502059
 30
0.0
 10
375.1288533271428
 20
377.5942275825244
 30
0.0
 10
375.1481139275489
 20
377.5949227839427
 30
0.0
 10
375.157625935559
 20
377.595276975779
 30
0.0
 10
375.1854381637711
 20
377.5963420135578
 30
0.0
 10
375.2030981955317
 20
377.5970580712533
 30
0.0
 10
375.2534749691073
 20
377.5991935386713
 30
0.0
 10
375.2836153764783
 20
377.6006008254005
 30
0.0
 10
375.3167330835632
 20
377.6022349547071
 30
0.0
 10
375.3231449238094
 20
377.6025564282897
 30
0.0
 10
375.3353880833325
 20
377.6031785482031
 30
0.0
 10
375.3528749197239
 20
377.604080161917
 30
0.0
 10
375.377710042244
 20
377.6054105072894
 30
0.0
 10
375.3930049799935
 20
377.6062607665318
 30
0.0
 10
375.4027180820257
 20
377.606806666887
 30
0.0
 10
375.4056622190877
 20
377.6069733303233
 30
0.0
 10
375.4109490741043
 20
377.6072740368878
 30
0.0
 10
375.4132957323049
 20
377.6074083080238
 30
0.0
 10
375.4216442463425
 20
377.6078876319451
 30
0.0
 10
375.4248067466538
 20
377.6080719495367
 30
0.0
 10
375.4248522770062
 20
377.608075047742
 30
0.0
  0
SPLINE
  5
172
330
1F
100
AcDbEntity
  8
1
100
AcDbSpline
210
0.0
220
0.0
230
1.0
 70
     9
 71
     3
 72
   120
 73
   116
 74
     0
 42
0.000000001
 43
0.0000000001
 40
0.0
 40
0.0
 40
0.0
 40
0.0
 40
0.0312499999999914
 40
0.0312499999999914
 40
0.0468749999999862
 40
0.0468749999999862
 40
0.0624999999999811
 40
0.0624999999999811
 40
0.0937499999999701
 40
0.0937499999999701
 40
0.1015624999999672
 40
0.1015624999999672
 40
0.1093749999999643
 40
0.1249999999999586
 40
0.1406249999999529
 40
0.1406249999999529
 40
0.1562499999999472
 40
0.1562499999999472
 40
0.187499999999936
 40
0.187499999999936
 40
0.1953124999999325
 40
0.1953124999999325
 40
0.2031249999999291
 40
0.2031249999999291
 40
0.2187499999999257
 40
0.2187499999999257
 40
0.2499999999999226
 40
0.2499999999999226
 40
0.2578124999999186
 40
0.2578124999999186
 40
0.2656249999999146
 40
0.2812499999999065
 40
0.2968749999998986
 40
0.2968749999998986
 40
0.3046874999998923
 40
0.3046874999998923
 40
0.3124999999998859
 40
0.3124999999998859
 40
0.3437499999998751
 40
0.3437499999998751
 40
0.3593749999998697
 40
0.3593749999998697
 40
0.367187499999867
 40
0.367187499999867
 40
0.3749999999998643
 40
0.3749999999998643
 40
0.4062499999998537
 40
0.4062499999998537
 40
0.4140624999998543
 40
0.4140624999998543
 40
0.4218749999998549
 40
0.4218749999998549
 40
0.4374999999998563
 40
0.4374999999998563
 40
0.4687499999998549
 40
0.4687499999998549
 40
0.4765624999998546
 40
0.4765624999998546
 40
0.4843749999998542
 40
0.4999999999998562
 40
0.5156249999998584
 40
0.5156249999998584
 40
0.5234374999998584
 40
0.5234374999998584
 40
0.5312499999998584
 40
0.5312499999998584
 40
0.5624999999998616
 40
0.5624999999998616
 40
0.5781249999998632
 40
0.5781249999998632
 40
0.5859374999998641
 40
0.5859374999998641
 40
0.5937499999998649
 40
0.5937499999998649
 40
0.6249999999998679
 40
0.6249999999998679
 40
0.6406249999998698
 40
0.6406249999998698
 40
0.6562499999998714
 40
0.6718749999998731
 40
0.6718749999998731
 40
0.6796874999998741
 40
0.6796874999998741
 40
0.6874999999998748
 40
0.6874999999998748
 40
0.7187499999998874
 40
0.7187499999998874
 40
0.7343749999998957
 40
0.7343749999998957
 40
0.7499999999999038
 40
0.7499999999999038
 40
0.7812499999999202
 40
0.7812499999999202
 40
0.7968749999999308
 40
0.7968749999999308
 40
0.8124999999999413
 40
0.8124999999999413
 40
0.8437499999999673
 40
0.8437499999999673
 40
0.8593749999999779
 40
0.8593749999999779
 40
0.8749999999999886
 40
0.8906249999999991
 40
0.8906249999999991
 40
0.8984375000000021
 40
0.8984375000000021
 40
0.9062500000000051
 40
0.9062500000000051
 40
0.9375000000000033
 40
0.9375000000000033
 40
0.9531250000000024
 40
0.9531250000000024
 40
0.9687500000000015
 40
0.9687500000000015
 40
1.0
 40
1.0
 40
1.0
 40
1.0
 10
372.7638272637619
 20
354.422435243906
 30
0.0
 10
372.7869168987976
 20
354.4243144094612
 30
0.0
 10
372.8057762128204
 20
354.4264649495671
 30
0.0
 10
372.8278183334384
 20
354.4301756324511
 30
0.0
 10
372.8341176316969
 20
354.4314936907934
 30
0.0
 10
372.8445386521479
 20
354.4343078012682
 30
0.0
 10
372.8485714455243
 20
354.4357798187199
 30
0.0
 10
372.8572636328429
 20
354.4403940988972
 30
0.0
 10
372.8585496288583
 20
354.4437343753136
 30
0.0
 10
372.8544283312755
 20
354.4482534160356
 30
0.0
 10
372.8533105531202
 20
354.4491766075438
 30
0.0
 10
372.8505195378926
 20
354.4510370708148
 30
0.0
 10
372.8454952836399
 20
354.4538545290872
 30
0.0
 10
372.8330431726502
 20
354.4586769056962
 30
0.0
 10
372.8188210416089
 20
354.4626528833564
 30
0.0
 10
372.8024492428491
 20
354.466678044668
 30
0.0
 10
372.7931395783463
 20
354.4687232192912
 30
0.0
 10
372.7625616134454
 20
354.4747857441217
 30
0.0
 10
372.7385548857427
 20
354.4787673553657
 30
0.0
 10
372.7041433457802
 20
354.4835934039433
 30
0.0
 10
372.6970387899756
 20
354.4845509634551
 30
0.0
 10
372.6823798882157
 20
354.4864484224569
 30
0.0
 10
372.6748057637537
 20
354.4873905777227
 30
0.0
 10
372.65161654783
 20
354.4901608894941
 30
0.0
 10
372.6355017420449
 20
354.4919382224846
 30
0.0
 10
372.5852577739924
 20
354.4970429053656
 30
0.0
 10
372.5492468951328
 20
354.5001450084692
 30
0.0
 10
372.5010287842969
 20
354.5035569006204
 30
0.0
 10
372.4912118125371
 20
354.5042163754218
 30
0.0
 10
372.4714592449305
 20
354.5054727686927
 30
0.0
 10
372.4415791836199
 20
354.507268764597
 30
0.0
 10
372.3905501689916
 20
354.5098153221094
 30
0.0
 10
372.3484340754883
 20
354.5113597950689
 30
0.0
 10
372.3163554653858
 20
354.5123240895996
 30
0.0
 10
372.3055805332824
 20
354.5126131440404
 30
0.0
 10
372.2838636803341
 20
354.51312451059
 30
0.0
 10
372.2729059641003
 20
354.5133469102103
 30
0.0
 10
372.2182702033209
 20
354.5142781734712
 30
0.0
 10
372.1746267333696
 20
354.5144592904949
 30
0.0
 10
372.109256651815
 20
354.5139010388939
 30
0.0
 10
372.0874825857395
 20
354.5135761057265
 30
0.0
 10
372.0548460921317
 20
354.5128775801162
 30
0.0
 10
372.0439463000806
 20
354.5126086936219
 30
0.0
 10
372.0223672321492
 20
354.5120059681099
 30
0.0
 10
372.0116694950817
 20
354.5116719022827
 30
0.0
 10
371.9586318802353
 20
354.5098433032723
 30
0.0
 10
371.9176328691982
 20
354.5078765969997
 30
0.0
 10
371.8681728388323
 20
354.504844065212
 30
0.0
 10
371.8583710433138
 20
354.5042086910407
 30
0.0
 10
371.8389510744379
 20
354.5028809659643
 30
0.0
 10
371.8293070475316
 20
354.5021865914026
 30
0.0
 10
371.8008957374457
 20
354.5000371990515
 30
0.0
 10
371.7826376411836
 20
354.4985163433141
 30
0.0
 10
371.7298582464652
 20
354.4937208376043
 30
0.0
 10
371.6973122298913
 20
354.4902148044278
 30
0.0
 10
371.6600464386069
 20
354.4855199604145
 30
0.0
 10
371.6527472921205
 20
354.4845626979335
 30
0.0
 10
371.6385974896083
 20
354.4826311042417
 30
0.0
 10
371.6180834189515
 20
354.4797135530305
 30
0.0
 10
371.587375164722
 20
354.4747685079997
 30
0.0
 10
371.5664896831245
 20
354.4707570185803
 30
0.0
 10
371.55223538105
 20
354.4677379769106
 30
0.0
 10
371.5477193507061
 20
354.46672987536
 30
0.0
 10
371.5391685941174
 20
354.4647117102883
 30
0.0
 10
371.5351241108514
 20
354.4636989915858
 30
0.0
 10
371.5162630966934
 20
354.4586670537825
 30
0.0
 10
371.5056121448908
 20
354.4547828727743
 30
0.0
 10
371.4961722547741
 20
354.4492112392426
 30
0.0
 10
371.4941230890878
 20
354.4473963273578
 30
0.0
 10
371.4927559359726
 20
354.4447417765804
 30
0.0
 10
371.492586414038
 20
354.4438657307767
 30
0.0
 10
371.4928286282076
 20
354.4421544881685
 30
0.0
 10
371.4932379443292
 20
354.4413182063061
 30
0.0
 10
371.4967003249291
 20
354.4372312001854
 30
0.0
 10
371.5039595070587
 20
354.4342631345248
 30
0.0
 10
371.5216077166181
 20
354.4302270704582
 30
0.0
 10
371.5286776220103
 20
354.4289448689653
 30
0.0
 10
371.5448344729473
 20
354.4265616499485
 30
0.0
 10
371.5630123749708
 20
354.4243506216142
 30
0.0
 10
371.5851132692648
 20
354.4224469697669
 30
0.0
 10
371.6031589369982
 20
354.4211227687597
 30
0.0
 10
371.6094195986493
 20
354.4206986445104
 30
0.0
 10
371.6224369936142
 20
354.419883201219
 30
0.0
 10
371.6292135715868
 20
354.4194908859114
 30
0.0
 10
371.6640382350638
 20
354.4176237762275
 30
0.0
 10
371.6949256090782
 20
354.4164233267727
 30
0.0
 10
371.7455572194849
 20
354.4149366077286
 30
0.0
 10
371.7631566577662
 20
354.4144939491407
 30
0.0
 10
371.7998235849148
 20
354.4136992219135
 30
0.0
 10
371.8187026742905
 20
354.4133514444216
 30
0.0
 10
371.876479901757
 20
354.4124362008408
 30
0.0
 10
371.9166893590553
 20
354.4119908353115
 30
0.0
 10
371.9795133867082
 20
354.4114937166705
 30
0.0
 10
372.0009623468977
 20
354.4113567948971
 30
0.0
 10
372.0439014090762
 20
354.4111376537487
 30
0.0
 10
372.0654694171003
 20
354.4110545956357
 30
0.0
 10
372.1304615538455
 20
354.4108746227468
 30
0.0
 10
372.1741710808012
 20
354.410844788069
 30
0.0
 10
372.2403274470652
 20
354.4109335024347
 30
0.0
 10
372.2622332077256
 20
354.410985645964
 30
0.0
 10
372.3054801707003
 20
354.411136861556
 30
0.0
 10
372.3482544630915
 20
354.4113351429992
 30
0.0
 10
372.3900878870292
 20
354.4116401053915
 30
0.0
 10
372.4211017722288
 20
354.4119168675062
 30
0.0
 10
372.4313794315331
 20
354.4120171640328
 30
0.0
 10
372.4518113913676
 20
354.4122356585376
 30
0.0
 10
372.4619849689115
 20
354.4123541465831
 30
0.0
 10
372.5120136868582
 20
354.4129897132233
 30
0.0
 10
372.5497341654878
 20
354.4136371169242
 30
0.0
 10
372.6028805806541
 20
354.414904868807
 30
0.0
 10
372.6200197362935
 20
354.4153773320953
 30
0.0
 10
372.653097997101
 20
354.4164434141284
 30
0.0
 10
372.6690541664869
 20
354.4170388579852
 30
0.0
 10
372.7140990859197
 20
354.4190026278416
 30
0.0
 10
372.740737628726
 20
354.4205560783508
 30
0.0
 10
372.7638272637618
 20
354.422435243906
 30
0.0
  0
SPLINE
  5
173
330
1F
100
AcDbEntity
  8
1
100
AcDbSpline
210
0.0
220
0.0
230
1.0
 70
     8
 71
     3
 72
     8
 73
     4
 74
     0
 42
0.000000001
 43
0.0000000001
 40
0.0
 40
0.0
 40
0.0
 40
0.0
 40
1.0
 40
1.0
 40
1.0
 40
1.0
 10
380.1896100454979
 20
369.9880727339812
 30
0.0
 10
379.8434182427333
 20
370.1433378458944
 30
0.0
 10
379.4971773500752
 20
370.298617725632
 30
0.0
 10
379.1508991806864
 20
370.4539088194132
 30
0.0
  0
SPLINE
  5
174
330
1F
100
AcDbEntity
  8
1
100
AcDbSpline
210
0.0
220
0.0
230
1.0
 70
     8
 71
     3
 72
     8
 73
     4
 74
     0
 42
0.000000001
 43
0.0000000001
 40
0.0
 40
0.0
 40
0.0
 40
0.0
 40
1.0
 40
1.0
 40
1.0
 40
1.0
 10
380.1896100454979
 20
355.4902195296415
 30
0.0
 10
379.8439183520873
 20
355.1375550662232
 30
0.0
 10
379.4976331278833
 20
354.7854998428778
 30
0.0
 10
379.1508991806864
 20
354.4339052191036
 30
0.0
  0
SPLINE
  5
175
330
1F
100
AcDbEntity
  8
1
100
AcDbSpline
210
0.0
220
0.0
230
1.0
 70
     8
 71
     3
 72
    18
 73
    14
 74
     0
 42
0.000000001
 43
0.0000000001
 40
0.0
 40
0.0
 40
0.0
 40
0.0
 40
0.2500000000000013
 40
0.2500000000000013
 40
0.375000000000002
 40
0.375000000000002
 40
0.5000000000000028
 40
0.5000000000000028
 40
0.6250000000000036
 40
0.6250000000000036
 40
0.7500000000000043
 40
0.7500000000000043
 40
1.0
 40
1.0
 40
1.0
 40
1.0
 10
391.1502108962596
 20
372.6188841721747
 30
0.0
 10
391.1463463472693
 20
372.6096554145925
 30
0.0
 10
391.1410067179854
 20
372.6011256469933
 30
0.0
 10
391.1314188881044
 20
372.5899753230872
 30
0.0
 10
391.1279453787905
 20
372.5865043064226
 30
0.0
 10
391.1204392737218
 20
372.5800578095772
 30
0.0
 10
391.1164403402147
 20
372.5771186963354
 30
0.0
 10
391.108158802663
 20
372.5719135323561
 30
0.0
 10
391.1038496084048
 20
372.5696242738248
 30
0.0
 10
391.0948996803932
 20
372.5656633849173
 30
0.0
 10
391.0902207854273
 20
372.5639837987499
 30
0.0
 10
391.0760580442801
 20
372.5600139303098
 30
0.0
 10
391.0664042984263
 20
372.5587235405598
 30
0.0
 10
391.0565376074438
 20
372.5588000065777
 30
0.0
  0
SPLINE
  5
176
330
1F
100
AcDbEntity
  8
1
100
AcDbSpline
210
0.0
220
0.0
230
1.0
 70
     8
 71
     3
 72
    10
 73
     6
 74
     0
 42
0.000000001
 43
0.0000000001
 40
0.0
 40
0.0
 40
0.0
 40
0.0
 40
0.5
 40
0.5
 40
1.0
 40
1.0
 40
1.0
 40
1.0
 10
390.9938228925157
 20
372.5382797865782
 30
0.0
 10
391.0028765853002
 20
372.5451119568505
 30
0.0
 10
391.0128590350875
 20
372.5502524118994
 30
0.0
 10
391.0342820197218
 20
372.5572049712499
 30
0.0
 10
391.045271922732
 20
372.5588873146781
 30
0.0
 10
391.0565376074438
 20
372.5588000065777
 30
0.0
  0
SPLINE
  5
177
330
1F
100
AcDbEntity
  8
1
100
AcDbSpline
210
0.0
220
0.0
230
1.0
 70
     8
 71
     3
 72
    27
 73
    23
 74
     0
 42
0.000000001
 43
0.0000000001
 40
0.0
 40
0.0
 40
0.0
 40
0.0
 40
0.1249999999999578
 40
0.1249999999999578
 40
0.1874999999999355
 40
0.1874999999999355
 40
0.2499999999999131
 40
0.2499999999999131
 40
0.3749999999998979
 40
0.3749999999998979
 40
0.4374999999999015
 40
0.4374999999999015
 40
0.4999999999999049
 40
0.4999999999999049
 40
0.6249999999999251
 40
0.6249999999999251
 40
0.6874999999999377
 40
0.6874999999999377
 40
0.7499999999999499
 40
0.7499999999999499
 40
0.8749999999999749
 40
1.0
 40
1.0
 40
1.0
 40
1.0
 10
390.9746767427225
 20
373.3063794291723
 30
0.0
 10
390.9996690198592
 20
373.2863132855356
 30
0.0
 10
391.0227932877263
 20
373.2644886012094
 30
0.0
 10
391.0547249115853
 20
373.2291578581681
 30
0.0
 10
391.0649075358534
 20
373.2169466623923
 30
0.0
 10
391.0843321607566
 20
373.1916385939436
 30
0.0
 10
391.0935953289946
 20
373.178500800458
 30
0.0
 10
391.1195193278921
 20
373.1383741316594
 30
0.0
 10
391.1344726853124
 20
373.1105095143629
 30
0.0
 10
391.1534668384295
 20
373.0670693592359
 30
0.0
 10
391.159222887622
 20
373.0523141560997
 30
0.0
 10
391.1695610648937
 20
373.0222422642261
 30
0.0
 10
391.1741591468924
 20
373.0068530362751
 30
0.0
 10
391.1859572796254
 20
372.9605164002991
 30
0.0
 10
391.1912228062764
 20
372.9293466605445
 30
0.0
 10
391.1953379574397
 20
372.8821869673762
 30
0.0
 10
391.1960760867167
 20
372.8663992349219
 30
0.0
 10
391.1962683017248
 20
372.8346864549624
 30
0.0
 10
391.1957174163246
 20
372.8187024443789
 30
0.0
 10
391.1921106587107
 20
372.7709584762247
 30
0.0
 10
391.1822080041472
 20
372.7085031677107
 30
0.0
 10
391.1625532392745
 20
372.6483583726488
 30
0.0
 10
391.1502108962596
 20
372.6188841721747
 30
0.0
  0
SPLINE
  5
178
330
1F
100
AcDbEntity
  8
1
100
AcDbSpline
210
0.0
220
0.0
230
1.0
 70
     8
 71
     3
 72
    20
 73
    16
 74
     0
 42
0.000000001
 43
0.0000000001
 40
0.0
 40
0.0
 40
0.0
 40
0.0
 40
0.1250000000000104
 40
0.1250000000000104
 40
0.2500000000000208
 40
0.2500000000000208
 40
0.3750000000000312
 40
0.3750000000000312
 40
0.5000000000000416
 40
0.5000000000000416
 40
0.625000000000052
 40
0.625000000000052
 40
0.7500000000000623
 40
0.7500000000000623
 40
1.0
 40
1.0
 40
1.0
 40
1.0
 10
390.8512586161487
 20
371.8053997524796
 30
0.0
 10
390.8555480735229
 20
371.8030151872204
 30
0.0
 10
390.8596366620222
 20
371.8003477845569
 30
0.0
 10
390.8674146698563
 20
371.7944510897333
 30
0.0
 10
390.8711052817293
 20
371.7912136482062
 30
0.0
 10
390.8779107012257
 20
371.7843258575531
 30
0.0
 10
390.8810499345132
 20
371.7806590223121
 30
0.0
 10
390.8867925853833
 20
371.7728725697194
 30
0.0
 10
390.8894125271169
 20
371.7687178803917
 30
0.0
 10
390.8939638917598
 20
371.7601366435978
 30
0.0
 10
390.8959042644556
 20
371.7557095737625
 30
0.0
 10
390.8991078440136
 20
371.7465805776533
 30
0.0
 10
390.9003767664582
 20
371.7418464850463
 30
0.0
 10
390.9030471241554
 20
371.7274276991187
 30
0.0
 10
390.9033247412584
 20
371.7177281180962
 30
0.0
 10
390.9020054605915
 20
371.7079383558439
 30
0.0
  0
SPLINE
  5
179
330
1F
100
AcDbEntity
  8
1
100
AcDbSpline
210
0.0
220
0.0
230
1.0
 70
     8
 71
     3
 72
    10
 73
     6
 74
     0
 42
0.000000001
 43
0.0000000001
 40
0.0
 40
0.0
 40
0.0
 40
0.0
 40
0.5
 40
0.5
 40
1.0
 40
1.0
 40
1.0
 40
1.0
 10
390.8512586161487
 20
371.8053997524796
 30
0.0
 10
390.8414538792988
 20
371.8108503334803
 30
0.0
 10
390.8327456084074
 20
371.8177160108593
 30
0.0
 10
390.8176983324242
 20
371.8342179604364
 30
0.0
 10
390.811698811372
 20
371.8434642978568
 30
0.0
 10
390.8073145990854
 20
371.8537704036387
 30
0.0
  0
SPLINE
  5
17A
330
1F
100
AcDbEntity
  8
1
100
AcDbSpline
210
0.0
220
0.0
230
1.0
 70
     8
 71
     3
 72
     8
 73
     4
 74
     0
 42
0.000000001
 43
0.0000000001
 40
0.0
 40
0.0
 40
0.0
 40
0.0
 40
1.0
 40
1.0
 40
1.0
 40
1.0
 10
390.8141607693734
 20
373.3030905871211
 30
0.0
 10
390.8088654124147
 20
373.3030879743405
 30
0.0
 10
390.8035553298761
 20
373.3034997915594
 30
0.0
 10
390.7982298525759
 20
373.3043374713696
 30
0.0
  0
SPLINE
  5
17B
330
1F
100
AcDbEntity
  8
1
100
AcDbSpline
210
0.0
220
0.0
230
1.0
 70
     8
 71
     3
 72
    24
 73
    20
 74
     0
 42
0.000000001
 43
0.0000000001
 40
0.0
 40
0.0
 40
0.0
 40
0.0
 40
0.1249999999999949
 40
0.1249999999999949
 40
0.2499999999999897
 40
0.2499999999999897
 40
0.3124999999999891
 40
0.3124999999999891
 40
0.3749999999999887
 40
0.3749999999999887
 40
0.499999999999991
 40
0.499999999999991
 40
0.6249999999999931
 40
0.6249999999999931
 40
0.7499999999999955
 40
0.7499999999999955
 40
0.8749999999999978
 40
0.8749999999999978
 40
1.0
 40
1.0
 40
1.0
 40
1.0
 10
390.8073145990854
 20
371.8537704036387
 30
0.0
 10
390.794897910985
 20
371.8829587030779
 30
0.0
 10
390.7849175557104
 20
371.9127960630393
 30
0.0
 10
390.7698330695788
 20
371.9738095772683
 30
0.0
 10
390.7647265494367
 20
372.004985028089
 30
0.0
 10
390.7610306897927
 20
372.0528683623155
 30
0.0
 10
390.7604765322268
 20
372.0689176396188
 30
0.0
 10
390.7607338973549
 20
372.1008034903886
 30
0.0
 10
390.7615403644844
 20
372.1166991216692
 30
0.0
 10
390.7659964954238
 20
372.1642466857422
 30
0.0
 10
390.7716825779958
 20
372.1958093741721
 30
0.0
 10
390.7887334503341
 20
372.2583511729208
 30
0.0
 10
390.7998395867575
 20
372.2884152810922
 30
0.0
 10
390.826913067412
 20
372.3462709198378
 30
0.0
 10
390.8428879511072
 20
372.3740716717945
 30
0.0
 10
390.8797480620285
 20
372.4273281544484
 30
0.0
 10
390.9000910339864
 20
372.452009593392
 30
0.0
 10
390.9443064890983
 20
372.4978112721934
 30
0.0
 10
390.9681808477803
 20
372.5189295810949
 30
0.0
 10
390.9938228925157
 20
372.5382797865782
 30
0.0
  0
SPLINE
  5
17C
330
1F
100
AcDbEntity
  8
1
100
AcDbSpline
210
0.0
220
0.0
230
1.0
 70
     8
 71
     3
 72
    24
 73
    20
 74
     0
 42
0.000000001
 43
0.0000000001
 40
0.0
 40
0.0
 40
0.0
 40
0.0
 40
0.1708125157590693
 40
0.1708125157590693
 40
0.2562187736386127
 40
0.2562187736386127
 40
0.3416250315181561
 40
0.3416250315181561
 40
0.5124375472772753
 40
0.5124375472772753
 40
0.5978438051568368
 40
0.5978438051568368
 40
0.6832500630363984
 40
0.6832500630363984
 40
0.854062578795521
 40
0.854062578795521
 40
0.9394688366751127
 40
0.9394688366751127
 40
1.0
 40
1.0
 40
1.0
 40
1.0
 10
390.9020054605915
 20
371.7079383558439
 30
0.0
 10
390.8977859891768
 20
371.676627640075
 30
0.0
 10
390.8910818435793
 20
371.64599099017
 30
0.0
 10
390.8773653867358
 20
371.6010372742279
 30
0.0
 10
390.87218036262
 20
371.5862203230792
 30
0.0
 10
390.8605610281767
 20
371.5569292270903
 30
0.0
 10
390.8541025767117
 20
371.5424162939163
 30
0.0
 10
390.8331455362422
 20
371.5000899736994
 30
0.0
 10
390.8170081682794
 20
371.473273185968
 30
0.0
 10
390.7896083881204
 20
371.4351170883439
 30
0.0
 10
390.7799403319422
 20
371.4227448329356
 30
0.0
 10
390.7595131281275
 20
371.3987074542683
 30
0.0
 10
390.7487000328476
 20
371.3869919295906
 30
0.0
 10
390.7150792716015
 20
371.3534472730781
 30
0.0
 10
390.6910767545168
 20
371.3331413172081
 30
0.0
 10
390.6527610090043
 20
371.3056748111783
 30
0.0
 10
390.6396018867951
 20
371.2970204538181
 30
0.0
 10
390.6164457689832
 20
371.2830997675732
 30
0.0
 10
390.6066174042646
 20
371.2775678645322
 30
0.0
 10
390.5966244294485
 20
371.2723148301577
 30
0.0
  0
SPLINE
  5
17D
330
1F
100
AcDbEntity
  8
1
100
AcDbSpline
210
0.0
220
0.0
230
1.0
 70
     8
 71
     3
 72
    18
 73
    14
 74
     0
 42
0.000000001
 43
0.0000000001
 40
0.0
 40
0.0
 40
0.0
 40
0.0
 40
0.2500000000000306
 40
0.2500000000000306
 40
0.3750000000000255
 40
0.3750000000000255
 40
0.5000000000000205
 40
0.5000000000000205
 40
0.6250000000000153
 40
0.6250000000000153
 40
0.7500000000000103
 40
0.7500000000000103
 40
1.0
 40
1.0
 40
1.0
 40
1.0
 10
390.3218624394943
 20
373.9801205343423
 30
0.0
 10
390.3276762237198
 20
373.9723272470929
 30
0.0
 10
390.3321151385937
 20
373.9636589136535
 30
0.0
 10
390.3365372059681
 20
373.9501690802054
 30
0.0
 10
390.337654957733
 20
373.9455651319217
 30
0.0
 10
390.3391721192043
 20
373.9361417894484
 30
0.0
 10
390.3395583696565
 20
373.9313683713959
 30
0.0
 10
390.3396068719576
 20
373.9219229070442
 30
0.0
 10
390.339274816127
 20
373.9172172898145
 30
0.0
 10
390.3379083614396
 20
373.9078405826349
 30
0.0
 10
390.3368605188188
 20
373.9031339753891
 30
0.0
 10
390.3327385144319
 20
373.8894444617429
 30
0.0
 10
390.3287214457011
 20
373.8808212051783
 30
0.0
 10
390.3234253500523
 20
373.872706083554
 30
0.0
  0
SPLINE
  5
17E
330
1F
100
AcDbEntity
  8
1
100
AcDbSpline
210
0.0
220
0.0
230
1.0
 70
     8
 71
     3
 72
    24
 73
    20
 74
     0
 42
0.000000001
 43
0.0000000001
 40
0.0
 40
0.0
 40
0.0
 40
0.0
 40
0.1249999999999716
 40
0.1249999999999716
 40
0.2499999999999432
 40
0.2499999999999432
 40
0.3124999999999297
 40
0.3124999999999297
 40
0.3749999999999162
 40
0.3749999999999162
 40
0.4999999999999329
 40
0.4999999999999329
 40
0.6249999999999498
 40
0.6249999999999498
 40
0.7499999999999665
 40
0.7499999999999665
 40
0.8749999999999833
 40
0.8749999999999833
 40
1.0
 40
1.0
 40
1.0
 40
1.0
 10
390.7982298525759
 20
373.3043374713696
 30
0.0
 10
390.7663673450307
 20
373.3093493374933
 30
0.0
 10
390.7352363453176
 20
373.3167107024267
 30
0.0
 10
390.6744224233547
 20
373.336124220506
 30
0.0
 10
390.6447388108455
 20
373.3481740896523
 30
0.0
 10
390.6013777164204
 20
373.3700527434009
 30
0.0
 10
390.5872127461752
 20
373.3779421373508
 30
0.0
 10
390.5598029336869
 20
373.3947168392538
 30
0.0
 10
390.5465044685362
 20
373.403628667343
 30
0.0
 10
390.5078304297802
 20
373.4319374364257
 30
0.0
 10
390.4836327357506
 20
373.4529332396018
 30
0.0
 10
390.4388192733233
 20
373.4991972254229
 30
0.0
 10
390.4188533369852
 20
373.5237818637917
 30
0.0
 10
390.3835132714339
 20
373.5756974396178
 30
0.0
 10
390.3681349695185
 20
373.6030398514588
 30
0.0
 10
390.3420454501422
 20
373.6604973137481
 30
0.0
 10
390.3317093021558
 20
373.6897733097842
 30
0.0
 10
390.3159900495652
 20
373.7493829145617
 30
0.0
 10
390.3106096311429
 20
373.7797170250853
 30
0.0
 10
390.3076874867559
 20
373.8106048035128
 30
0.0
  0
SPLINE
  5
17F
330
1F
100
AcDbEntity
  8
1
100
AcDbSpline
210
0.0
220
0.0
230
1.0
 70
     8
 71
     3
 72
    10
 73
     6
 74
     0
 42
0.000000001
 43
0.0000000001
 40
0.0
 40
0.0
 40
0.0
 40
0.0
 40
0.5
 40
0.5
 40
1.0
 40
1.0
 40
1.0
 40
1.0
 10
390.3076874867558
 20
373.8106048035128
 30
0.0
 10
390.3066557043823
 20
373.8215109946926
 30
0.0
 10
390.3075618188712
 20
373.8323340248152
 30
0.0
 10
390.3129872292146
 20
373.8535172986467
 30
0.0
 10
390.3173784003828
 20
373.8634404404693
 30
0.0
 10
390.3234253500523
 20
373.872706083554
 30
0.0
  0
SPLINE
  5
180
330
1F
100
AcDbEntity
  8
1
100
AcDbSpline
210
0.0
220
0.0
230
1.0
 70
     8
 71
     3
 72
     8
 73
     4
 74
     0
 42
0.000000001
 43
0.0000000001
 40
0.0
 40
0.0
 40
0.0
 40
0.0
 40
1.0
 40
1.0
 40
1.0
 40
1.0
 10
396.3622588078139
 20
364.2503075668096
 30
0.0
 10
396.3748503870225
 20
364.3653814223488
 30
0.0
 10
396.3881858698255
 20
364.4805771614955
 30
0.0
 10
396.4022453307413
 20
364.5958915195933
 30
0.0
  0
SPLINE
  5
181
330
1F
100
AcDbEntity
  8
1
100
AcDbSpline
210
0.0
220
0.0
230
1.0
 70
     8
 71
     3
 72
     8
 73
     4
 74
     0
 42
0.000000001
 43
0.0000000001
 40
0.0
 40
0.0
 40
0.0
 40
0.0
 40
1.0
 40
1.0
 40
1.0
 40
1.0
 10
396.4022453307413
 20
358.9642559549858
 30
0.0
 10
396.3881392228102
 20
359.0595774302305
 30
0.0
 10
396.3748085095699
 20
359.1555178277595
 30
0.0
 10
396.3622588078139
 20
359.2520816309134
 30
0.0
  0
SPLINE
  5
182
330
1F
100
AcDbEntity
  8
1
100
AcDbSpline
210
0.0
220
0.0
230
1.0
 70
     8
 71
     3
 72
    10
 73
     6
 74
     0
 42
0.000000001
 43
0.0000000001
 40
0.0
 40
0.0
 40
0.0
 40
0.0
 40
0.3906387173100966
 40
0.3906387173100966
 40
1.0
 40
1.0
 40
1.0
 40
1.0
 10
394.6288230933272
 20
356.5274594447753
 30
0.0
 10
394.8616252909374
 20
356.6859139218451
 30
0.0
 10
395.0937764559807
 20
356.8453088476615
 30
0.0
 10
395.6861636393133
 20
357.2560886273831
 30
0.0
 10
396.0453397419967
 20
357.5090045818106
 30
0.0
 10
396.4022453307413
 20
357.7652004059352
 30
0.0
  0
SPLINE
  5
183
330
1F
100
AcDbEntity
  8
1
100
AcDbSpline
210
0.0
220
0.0
230
1.0
 70
     8
 71
     3
 72
    12
 73
     8
 74
     0
 42
0.000000001
 43
0.0000000001
 40
0.0
 40
0.0
 40
0.0
 40
0.0
 40
0.5000000000000005
 40
0.5000000000000005
 40
0.7500000000000002
 40
0.7500000000000002
 40
1.0
 40
1.0
 40
1.0
 40
1.0
 10
382.5356879819342
 20
369.8712309720315
 30
0.0
 10
382.5094566950733
 20
369.8736968286005
 30
0.0
 10
382.4790582967978
 20
369.8804507149991
 30
0.0
 10
382.4253017611506
 20
369.8993412791853
 30
0.0
 10
382.4060137966696
 20
369.9071093882362
 30
0.0
 10
382.3642021597104
 20
369.9261940353122
 30
0.0
 10
382.3416821632973
 20
369.9375061121164
 30
0.0
 10
382.3171912047454
 20
369.9510221122787
 30
0.0
  0
SPLINE
  5
184
330
1F
100
AcDbEntity
  8
1
100
AcDbSpline
210
0.0
220
0.0
230
1.0
 70
     8
 71
     3
 72
    27
 73
    23
 74
     0
 42
0.000000001
 43
0.0000000001
 40
0.0
 40
0.0
 40
0.0
 40
0.0
 40
0.0625000000000004
 40
0.0625000000000004
 40
0.1250000000000008
 40
0.1875000000000012
 40
0.1875000000000012
 40
0.218750000000003
 40
0.218750000000003
 40
0.2500000000000049
 40
0.2500000000000049
 40
0.3750000000000066
 40
0.3750000000000066
 40
0.5000000000000082
 40
0.5000000000000082
 40
0.5625000000000073
 40
0.5625000000000073
 40
0.6250000000000063
 40
0.6250000000000063
 40
0.7500000000000044
 40
0.7500000000000044
 40
1.0
 40
1.0
 40
1.0
 40
1.0
 10
379.5405107396102
 20
373.4138597068573
 30
0.0
 10
379.5443871621821
 20
373.3876303549619
 30
0.0
 10
379.5485653940277
 20
373.3612506350572
 30
0.0
 10
379.557474971978
 20
373.308548511104
 30
0.0
 10
379.566799293683
 20
373.2567023024291
 30
0.0
 10
379.5768724951535
 20
373.2064015724398
 30
0.0
 10
379.5846813424403
 20
373.1692000989483
 30
0.0
 10
379.5873266493143
 20
373.1568870224093
 30
0.0
 10
379.5926978768321
 20
373.1324272336378
 30
0.0
 10
379.5954297176165
 20
373.1202553200998
 30
0.0
 10
379.6091676112953
 20
373.0602793916909
 30
0.0
 10
379.6204580306926
 20
373.0148410811989
 30
0.0
 10
379.6434693022472
 20
372.9276110109653
 30
0.0
 10
379.6551914647834
 20
372.8858303525266
 30
0.0
 10
379.6730192468869
 20
372.8252310503952
 30
0.0
 10
379.6790126012041
 20
372.8053498938533
 30
0.0
 10
379.6909684408348
 20
372.7665300552086
 30
0.0
 10
379.6969426556298
 20
372.7475501643334
 30
0.0
 10
379.7148557871803
 20
372.6917146123303
 30
0.0
 10
379.7267852646527
 20
372.6559545350109
 30
0.0
 10
379.7625450228576
 20
372.5520024162301
 30
0.0
 10
379.7863471030408
 20
372.4870835115562
 30
0.0
 10
379.8101253277883
 20
372.4249334218939
 30
0.0
  0
SPLINE
  5
185
330
1F
100
AcDbEntity
  8
1
100
AcDbSpline
210
0.0
220
0.0
230
1.0
 70
     8
 71
     3
 72
    14
 73
    10
 74
     0
 42
0.000000001
 43
0.0000000001
 40
0.0
 40
0.0
 40
0.0
 40
0.0
 40
0.25
 40
0.25
 40
0.5
 40
0.5
 40
0.75
 40
0.75
 40
1.0
 40
1.0
 40
1.0
 40
1.0
 10
379.8101253277883
 20
372.4249334218939
 30
0.0
 10
379.8461277416521
 20
372.3308324840208
 30
0.0
 10
379.8863116264237
 20
372.239207587543
 30
0.0
 10
379.9743300249622
 20
372.0600890079298
 30
0.0
 10
380.0221703809644
 20
371.9726024483896
 30
0.0
 10
380.1251475181938
 20
371.8013566219167
 30
0.0
 10
380.1802870204209
 20
371.717600752719
 30
0.0
 10
380.297724782985
 20
371.5536555722497
 30
0.0
 10
380.3600242640799
 20
371.4734678849846
 30
0.0
 10
380.4259155350067
 20
371.39507010801
 30
0.0
  0
SPLINE
  5
186
330
1F
100
AcDbEntity
  8
1
100
AcDbSpline
210
0.0
220
0.0
230
1.0
 70
     8
 71
     3
 72
    15
 73
    11
 74
     0
 42
0.000000001
 43
0.0000000001
 40
0.0
 40
0.0
 40
0.0
 40
0.0
 40
0.2441415924111237
 40
0.2441415924111237
 40
0.3701179936759681
 40
0.3701179936759681
 40
0.4960943949408129
 40
0.4960943949408129
 40
0.7480471974704064
 40
1.0
 40
1.0
 40
1.0
 40
1.0
 10
390.0233117670634
 20
374.1858622202439
 30
0.0
 10
390.0525849028375
 20
374.1774581851457
 30
0.0
 10
390.080813330466
 20
374.1668630632316
 30
0.0
 10
390.1220689251795
 20
374.1475769277067
 30
0.0
 10
390.1358394591607
 20
374.1404435916081
 30
0.0
 10
390.1628297898093
 20
374.125024440183
 30
0.0
 10
390.1760968449766
 20
374.1167055682729
 30
0.0
 10
390.2147072245556
 20
374.0901999133388
 30
0.0
 10
390.2625192707475
 20
374.0511485047641
 30
0.0
 10
390.3032943718674
 20
374.0050107399418
 30
0.0
 10
390.3218624394943
 20
373.9801205343423
 30
0.0
  0
SPLINE
  5
187
330
1F
100
AcDbEntity
  8
1
100
AcDbSpline
210
0.0
220
0.0
230
1.0
 70
     8
 71
     3
 72
    20
 73
    16
 74
     0
 42
0.000000001
 43
0.0000000001
 40
0.0
 40
0.0
 40
0.0
 40
0.0
 40
0.1786790002845201
 40
0.1786790002845201
 40
0.3573580005690399
 40
0.3573580005690399
 40
0.446697500711271
 40
0.446697500711271
 40
0.5360370008535021
 40
0.5360370008535021
 40
0.7147160011378953
 40
0.7147160011378953
 40
0.8933950014222885
 40
0.8933950014222885
 40
1.0
 40
1.0
 40
1.0
 40
1.0
 10
389.5747139667859
 20
371.1204978777695
 30
0.0
 10
389.5926394885282
 20
371.144674516037
 30
0.0
 10
389.6124036080897
 20
371.167150751026
 30
0.0
 10
389.6556635093478
 20
371.2087512427399
 30
0.0
 10
389.679157400501
 20
371.2278770807866
 30
0.0
 10
389.7174732436239
 20
371.2538821145675
 30
0.0
 10
389.7306835478952
 20
371.2620416600588
 30
0.0
 10
389.7576621693888
 20
371.2771525646456
 30
0.0
 10
389.771477318441
 20
371.2841362888411
 30
0.0
 10
389.8139066726886
 20
371.3033749634072
 30
0.0
 10
389.8435478690868
 20
371.3139424950349
 30
0.0
 10
389.9054126693346
 20
371.3302194748793
 30
0.0
 10
389.9367277658214
 20
371.3356987455079
 30
0.0
 10
389.9872979264243
 20
371.3404406784015
 30
0.0
 10
390.0063269355693
 20
371.3413187724112
 30
0.0
 10
390.0254795871244
 20
371.3412926890852
 30
0.0
  0
SPLINE
  5
188
330
1F
100
AcDbEntity
  8
1
100
AcDbSpline
210
0.0
220
0.0
230
1.0
 70
     8
 71
     3
 72
    10
 73
     6
 74
     0
 42
0.000000001
 43
0.0000000001
 40
0.0
 40
0.0
 40
0.0
 40
0.0
 40
0.5
 40
0.5
 40
1.0
 40
1.0
 40
1.0
 40
1.0
 10
389.5573137248126
 20
371.0609780568246
 30
0.0
 10
389.5567202677479
 20
371.0717278763156
 30
0.0
 10
389.5578893085641
 20
371.0822347813273
 30
0.0
 10
389.5637952459962
 20
371.1025839728159
 30
0.0
 10
389.5683844254445
 20
371.1119610533682
 30
0.0
 10
389.5747139667859
 20
371.1204978777695
 30
0.0
  0
SPLINE
  5
189
330
1F
100
AcDbEntity
  8
1
100
AcDbSpline
210
0.0
220
0.0
230
1.0
 70
     8
 71
     3
 72
    20
 73
    16
 74
     0
 42
0.000000001
 43
0.0000000001
 40
0.0
 40
0.0
 40
0.0
 40
0.0
 40
0.1250000000000311
 40
0.1250000000000311
 40
0.2500000000000622
 40
0.2500000000000622
 40
0.3750000000000933
 40
0.3750000000000933
 40
0.5000000000001244
 40
0.5000000000001244
 40
0.6250000000001555
 40
0.6250000000001555
 40
0.7500000000001866
 40
0.7500000000001866
 40
1.0
 40
1.0
 40
1.0
 40
1.0
 10
389.5573137248126
 20
371.0609780568246
 30
0.0
 10
389.5575733588606
 20
371.0562750727053
 30
0.0
 10
389.557490354959
 20
371.0516056820408
 30
0.0
 10
389.5566437083199
 20
371.0423338043153
 30
0.0
 10
389.5558737884222
 20
371.0377259236163
 30
0.0
 10
389.5536851689497
 20
371.0287950843828
 30
0.0
 10
389.5522655500439
 20
371.0244440019085
 30
0.0
 10
389.5487655775199
 20
371.0159749162027
 30
0.0
 10
389.5466645601571
 20
371.0118264990038
 30
0.0
 10
389.5418724953252
 20
371.0039748415304
 30
0.0
 10
389.5391860536502
 20
371.0002645087527
 30
0.0
 10
389.5332276787398
 20
370.9932797603835
 30
0.0
 10
389.5299321322752
 20
370.9899856202803
 30
0.0
 10
389.5192656278558
 20
370.9809486946493
 30
0.0
 10
389.5112935104249
 20
370.9761393377076
 30
0.0
 10
389.5024097279038
 20
370.9726238721718
 30
0.0
  0
SPLINE
  5
18A
330
1F
100
AcDbEntity
  8
1
100
AcDbSpline
210
0.0
220
0.0
230
1.0
 70
     8
 71
     3
 72
    12
 73
     8
 74
     0
 42
0.000000001
 43
0.0000000001
 40
0.0
 40
0.0
 40
0.0
 40
0.0
 40
0.1678350857177368
 40
0.1678350857177368
 40
0.5839175428588673
 40
0.5839175428588673
 40
1.0
 40
1.0
 40
1.0
 40
1.0
 10
389.089077515124
 20
373.8008372021313
 30
0.0
 10
389.076716517456
 20
373.8008548399691
 30
0.0
 10
389.0643693122835
 20
373.8012857652584
 30
0.0
 10
389.0214631857428
 20
373.8042339573267
 30
0.0
 10
388.991868919916
 20
373.8088286437344
 30
0.0
 10
388.9344059162099
 20
373.8226366664335
 30
0.0
 10
388.9065381963488
 20
373.8318524331691
 30
0.0
 10
388.8794938145166
 20
373.8433899624348
 30
0.0
  0
SPLINE
  5
18B
330
1F
100
AcDbEntity
  8
1
100
AcDbSpline
210
0.0
220
0.0
230
1.0
 70
     8
 71
     3
 72
     8
 73
     4
 74
     0
 42
0.000000001
 43
0.0000000001
 40
0.0
 40
0.0
 40
0.0
 40
0.0
 40
1.0
 40
1.0
 40
1.0
 40
1.0
 10
388.8794938145166
 20
373.8433899624348
 30
0.0
 10
388.8711367788494
 20
373.8469551962118
 30
0.0
 10
388.8636013032702
 20
373.8517512821239
 30
0.0
 10
388.8569194599547
 20
373.8576629310694
 30
0.0
  0
SPLINE
  5
18C
330
1F
100
AcDbEntity
  8
1
100
AcDbSpline
210
0.0
220
0.0
230
1.0
 70
     8
 71
     3
 72
     8
 73
     4
 74
     0
 42
0.000000001
 43
0.0000000001
 40
0.0
 40
0.0
 40
0.0
 40
0.0
 40
1.0
 40
1.0
 40
1.0
 40
1.0
 10
389.5024097279038
 20
370.9726238721718
 30
0.0
 10
389.4867032042904
 20
370.9664085306414
 30
0.0
 10
389.4707772079661
 20
370.9609364033834
 30
0.0
 10
389.4546351711815
 20
370.956201417115
 30
0.0
  0
SPLINE
  5
191
330
1F
100
AcDbEntity
  8
1
100
AcDbSpline
210
0.0
220
0.0
230
1.0
 70
     8
 71
     3
 72
     8
 73
     4
 74
     0
 42
0.000000001
 43
0.0000000001
 40
0.0
 40
0.0
 40
0.0
 40
0.0
 40
1.0
 40
1.0
 40
1.0
 40
1.0
 10
378.6527547492025
 20
376.6853268197996
 30
0.0
 10
378.6568442173688
 20
376.6639593280904
 30
0.0
 10
378.6612215743748
 20
376.6415805767011
 30
0.0
 10
378.6660752801883
 20
376.6174679575108
 30
0.0
  0
SPLINE
  5
192
330
1F
100
AcDbEntity
  8
1
100
AcDbSpline
210
0.0
220
0.0
230
1.0
 70
     8
 71
     3
 72
     8
 73
     4
 74
     0
 42
0.000000001
 43
0.0000000001
 40
0.0
 40
0.0
 40
0.0
 40
0.0
 40
1.0
 40
1.0
 40
1.0
 40
1.0
 10
378.6505422943803
 20
376.7502101135248
 30
0.0
 10
378.6505594492363
 20
376.7285515760824
 30
0.0
 10
378.6512976395469
 20
376.7069236365208
 30
0.0
 10
378.6527547492042
 20
376.6853268198066
 30
0.0
  0
SPLINE
  5
193
330
1F
100
AcDbEntity
  8
1
100
AcDbSpline
210
0.0
220
0.0
230
1.0
 70
     8
 71
     3
 72
    28
 73
    24
 74
     0
 42
0.000000001
 43
0.0000000001
 40
0.0
 40
0.0
 40
0.0
 40
0.0
 40
0.2500000000000018
 40
0.2500000000000018
 40
0.5000000000000036
 40
0.5000000000000036
 40
0.6250000000000054
 40
0.6250000000000054
 40
0.7500000000000071
 40
0.7500000000000071
 40
0.8125000000000085
 40
0.8125000000000085
 40
0.8750000000000097
 40
0.8750000000000097
 40
0.9062500000000072
 40
0.9062500000000072
 40
0.9375000000000047
 40
0.9375000000000047
 40
0.9687500000000024
 40
0.9687500000000024
 40
0.9843750000000012
 40
0.9843750000000012
 40
1.0
 40
1.0
 40
1.0
 40
1.0
 10
378.6527547492058
 20
376.6853268197827
 30
0.0
 10
378.6531183249634
 20
376.6869650878767
 30
0.0
 10
378.6535490499109
 20
376.6882745950882
 30
0.0
 10
378.6546223008911
 20
376.6898393881395
 30
0.0
 10
378.6552600116804
 20
376.6901180161676
 30
0.0
 10
378.6565117925296
 20
376.6890511836681
 30
0.0
 10
378.6569788789035
 20
376.6884443701323
 30
0.0
 10
378.6580728710549
 20
376.686424702753
 30
0.0
 10
378.6586960287127
 20
376.6850304651111
 30
0.0
 10
378.6598565715317
 20
376.6817987120629
 30
0.0
 10
378.6602816245025
 20
376.6805284558671
 30
0.0
 10
378.6612548288922
 20
376.6773654731914
 30
0.0
 10
378.6618002937386
 20
376.6754867586939
 30
0.0
 10
378.6627938925527
 20
376.6717804101658
 30
0.0
 10
378.6631549959681
 20
376.6703937408957
 30
0.0
 10
378.6639723312021
 20
376.6671366309196
 30
0.0
 10
378.6644277472145
 20
376.6652715246744
 30
0.0
 10
378.6655114722707
 20
376.6606542218467
 30
0.0
 10
378.6661365865104
 20
376.6579251789673
 30
0.0
 10
378.6673872118984
 20
376.6521997592376
 30
0.0
 10
378.6678546108737
 20
376.6500249941675
 30
0.0
 10
378.6689449887505
 20
376.6448314246047
 30
0.0
 10
378.6695503620182
 20
376.6418907183523
 30
0.0
 10
378.6701550460337
 20
376.6388956821519
 30
0.0
  0
SPLINE
  5
194
330
1F
100
AcDbEntity
  8
1
100
AcDbSpline
210
0.0
220
0.0
230
1.0
 70
     8
 71
     3
 72
    10
 73
     6
 74
     0
 42
0.000000001
 43
0.0000000001
 40
0.0
 40
0.0
 40
0.0
 40
0.0
 40
0.5
 40
0.5
 40
1.0
 40
1.0
 40
1.0
 40
1.0
 10
401.4418684944223
 20
370.2517010651009
 30
0.0
 10
401.4642437851239
 20
370.1900824096526
 30
0.0
 10
401.4857279248673
 20
370.1282640380997
 30
0.0
 10
401.5271291312408
 20
370.0042437028501
 30
0.0
 10
401.54704445557
 20
369.942041612474
 30
0.0
 10
401.566243761877
 20
369.8796525799695
 30
0.0
  0
SPLINE
  5
195
330
1F
100
AcDbEntity
  8
1
100
AcDbSpline
210
0.0
220
0.0
230
1.0
 70
     8
 71
     3
 72
    43
 73
    39
 74
     0
 42
0.000000001
 43
0.0000000001
 40
0.0
 40
0.0
 40
0.0
 40
0.0
 40
0.1249999999999819
 40
0.1249999999999819
 40
0.1874999999999633
 40
0.1874999999999633
 40
0.2187499999999635
 40
0.2187499999999635
 40
0.2499999999999638
 40
0.281249999999964
 40
0.281249999999964
 40
0.3124999999999643
 40
0.3124999999999643
 40
0.3749999999999834
 40
0.3749999999999834
 40
0.4375000000000026
 40
0.4375000000000026
 40
0.4687500000000033
 40
0.4687500000000033
 40
0.5000000000000043
 40
0.5000000000000043
 40
0.6249999999999911
 40
0.6249999999999911
 40
0.6874999999999915
 40
0.6874999999999915
 40
0.7187499999999919
 40
0.7187499999999919
 40
0.7499999999999921
 40
0.7499999999999921
 40
0.8124999999999925
 40
0.8124999999999925
 40
0.8749999999999928
 40
0.8749999999999928
 40
0.9062499999999932
 40
0.9062499999999932
 40
0.9374999999999936
 40
0.9374999999999936
 40
1.0
 40
1.0
 40
1.0
 40
1.0
 10
400.8938669061859
 20
365.5694279489511
 30
0.0
 10
400.9582129510981
 20
365.5667017784185
 30
0.0
 10
401.023679674747
 20
365.5710991865673
 30
0.0
 10
401.1235421640746
 20
365.5882623455868
 30
0.0
 10
401.1571087752454
 20
365.59575758745
 30
0.0
 10
401.2078947763108
 20
365.6097724140443
 30
0.0
 10
401.224927516137
 20
365.6149185979378
 30
0.0
 10
401.2588609852919
 20
365.6260692145133
 30
0.0
 10
401.2927138496224
 20
365.6380890046005
 30
0.0
 10
401.3264054616909
 20
365.6518476012156
 30
0.0
 10
401.3600157853686
 20
365.6664827423376
 30
0.0
 10
401.3768049332149
 20
365.6742509920893
 30
0.0
 10
401.4268455750779
 20
365.6987905309442
 30
0.0
 10
401.459740576513
 20
365.7167715603622
 30
0.0
 10
401.5245976309668
 20
365.755983592567
 30
0.0
 10
401.5565902421518
 20
365.7772495996203
 30
0.0
 10
401.6033037731981
 20
365.8112310577394
 30
0.0
 10
401.6186860055054
 20
365.8229191530603
 30
0.0
 10
401.6490717534962
 20
365.8470188091513
 30
0.0
 10
401.6640970726698
 20
365.8594493005081
 30
0.0
 10
401.738021527804
 20
365.923215845493
 30
0.0
 10
401.7925335297507
 20
365.9786086709842
 30
0.0
 10
401.8676506294585
 20
366.067992416973
 30
0.0
 10
401.8915722063301
 20
366.0988445752898
 30
0.0
 10
401.9257340308768
 20
366.1467511565873
 30
0.0
 10
401.9367925328026
 20
366.1629359074969
 30
0.0
 10
401.9581585800328
 20
366.1955869347654
 30
0.0
 10
401.9684822001426
 20
366.2120756192767
 30
0.0
 10
401.9983823825425
 20
366.2620277656118
 30
0.0
 10
402.0169336733665
 20
366.2960717177107
 30
0.0
 10
402.0508541610473
 20
366.3648104106968
 30
0.0
 10
402.0662518337311
 20
366.3995342928102
 30
0.0
 10
402.0870271885943
 20
366.4521467683679
 30
0.0
 10
402.0935609846354
 20
366.4697663788273
 30
0.0
 10
402.1057889288355
 20
366.5049929736568
 30
0.0
 10
402.1114925457874
 20
366.5226232274288
 30
0.0
 10
402.1273839855812
 20
366.5755643762441
 30
0.0
 10
402.1363711909584
 20
366.6110160090089
 30
0.0
 10
402.1436771466195
 20
366.6462551918493
 30
0.0
  0
SPLINE
  5
196
330
1F
100
AcDbEntity
  8
1
100
AcDbSpline
210
0.0
220
0.0
230
1.0
 70
     8
 71
     3
 72
     8
 73
     4
 74
     0
 42
0.000000001
 43
0.0000000001
 40
0.0
 40
0.0
 40
0.0
 40
0.0
 40
1.0
 40
1.0
 40
1.0
 40
1.0
 10
399.0015896325756
 20
361.3096758132535
 30
0.0
 10
399.0352041333965
 20
361.3014960785404
 30
0.0
 10
399.0688080520652
 20
361.2932752628799
 30
0.0
 10
399.1024027022856
 20
361.2850184661989
 30
0.0
  0
SPLINE
  5
197
330
1F
100
AcDbEntity
  8
1
100
AcDbSpline
210
0.0
220
0.0
230
1.0
 70
     8
 71
     3
 72
     8
 73
     4
 74
     0
 42
0.000000001
 43
0.0000000001
 40
0.0
 40
0.0
 40
0.0
 40
0.0
 40
1.0
 40
1.0
 40
1.0
 40
1.0
 10
399.1024027022856
 20
361.2850184661989
 30
0.0
 10
399.1155526634546
 20
361.3240297446222
 30
0.0
 10
399.1291256693736
 20
361.3628277857009
 30
0.0
 10
399.1430888004789
 20
361.4014291826683
 30
0.0
  0
SPLINE
  5
198
330
1F
100
AcDbEntity
  8
1
100
AcDbSpline
210
0.0
220
0.0
230
1.0
 70
     8
 71
     3
 72
    43
 73
    39
 74
     0
 42
0.000000001
 43
0.0000000001
 40
0.0
 40
0.0
 40
0.0
 40
0.0
 40
0.0368902167692086
 40
0.0368902167692086
 40
0.1056837727142796
 40
0.1056837727142796
 40
0.1400805506868032
 40
0.1400805506868032
 40
0.1744773286593267
 40
0.2088741066318503
 40
0.2088741066318503
 40
0.2432708846043738
 40
0.2432708846043738
 40
0.312064440549421
 40
0.312064440549421
 40
0.3464612185219446
 40
0.3464612185219446
 40
0.3808579964944682
 40
0.4152547744669918
 40
0.4152547744669918
 40
0.4496515524395154
 40
0.4496515524395154
 40
0.5872386643296254
 40
0.5872386643296254
 40
0.6216354423021541
 40
0.6216354423021541
 40
0.6560322202746828
 40
0.6560322202746828
 40
0.7248257762197455
 40
0.7248257762197455
 40
0.7592225541922767
 40
0.7592225541922767
 40
0.7936193321648078
 40
0.8280161101373387
 40
0.8280161101373387
 40
0.8624128881098698
 40
0.8624128881098698
 40
1.0
 40
1.0
 40
1.0
 40
1.0
 10
398.5729541533686
 20
362.60210794466
 30
0.0
 10
398.5899600776813
 20
362.5961042330108
 30
0.0
 10
398.6067950835718
 20
362.589634930298
 30
0.0
 10
398.6545356699814
 20
362.5697705109622
 30
0.0
 10
398.6850141189414
 20
362.5552119507582
 30
0.0
 10
398.729794287395
 20
362.53082099569
 30
0.0
 10
398.7445473761791
 20
362.522270880654
 30
0.0
 10
398.7734813485297
 20
362.5044553577684
 30
0.0
 10
398.8019056390397
 20
362.4858913817443
 30
0.0
 10
398.8293065681393
 20
362.4658247860098
 30
0.0
 10
398.8561895076831
 20
362.4449977051416
 30
0.0
 10
398.8693852351196
 20
362.4341909877801
 30
0.0
 10
398.9079589159884
 20
362.4008059348722
 30
0.0
 10
398.9323935538097
 20
362.377218268832
 30
0.0
 10
398.9671012899701
 20
362.3398174662265
 30
0.0
 10
398.9783593909334
 20
362.3269955135941
 30
0.0
 10
399.0000960903229
 20
362.3008123744941
 30
0.0
 10
399.0210770395691
 20
362.2740680646453
 30
0.0
 10
399.0405472435424
 20
362.2462021331983
 30
0.0
 10
399.0592560368843
 20
362.2177709911448
 30
0.0
 10
399.0682461418393
 20
362.2032418516348
 30
0.0
 10
399.110912267838
 20
362.1297883945437
 30
0.0
 10
399.1380442117108
 20
362.0681705068067
 30
0.0
 10
399.1633669078576
 20
361.9876466488218
 30
0.0
 10
399.1679973407336
 20
361.9713649698238
 30
0.0
 10
399.1763757255794
 20
361.938442047108
 30
0.0
 10
399.1801306092444
 20
361.9217611454176
 30
0.0
 10
399.1899703926828
 20
361.8715379593376
 30
0.0
 10
399.1946499967082
 20
361.837799517546
 30
0.0
 10
399.1988754222486
 20
361.7868112477985
 30
0.0
 10
399.199817364117
 20
361.7697260836122
 30
0.0
 10
399.2007583828126
 20
361.7355944943192
 30
0.0
 10
399.2007608486325
 20
361.7014900639027
 30
0.0
 10
399.1989066007602
 20
361.6674394237793
 30
0.0
 10
399.1961264082843
 20
361.6334156376747
 30
0.0
 10
399.1942685583668
 20
361.6163877621219
 30
0.0
 10
399.1827281105375
 20
361.5318211679188
 30
0.0
 10
399.1663803565027
 20
361.4658192247933
 30
0.0
 10
399.1430888004789
 20
361.4014291826683
 30
0.0
  0
SPLINE
  5
199
330
1F
100
AcDbEntity
  8
1
100
AcDbSpline
210
0.0
220
0.0
230
1.0
 70
     8
 71
     3
 72
     8
 73
     4
 74
     0
 42
0.000000001
 43
0.0000000001
 40
0.0
 40
0.0
 40
0.0
 40
0.0
 40
1.0
 40
1.0
 40
1.0
 40
1.0
 10
401.2477387599694
 20
361.7494116137353
 30
0.0
 10
401.236316553942
 20
361.7292837499952
 30
0.0
 10
401.2250936328743
 20
361.7081517074257
 30
0.0
 10
401.2142264758136
 20
361.6852954336867
 30
0.0
  0
SPLINE
  5
19A
330
1F
100
AcDbEntity
  8
1
100
AcDbSpline
210
0.0
220
0.0
230
1.0
 70
     8
 71
     3
 72
    40
 73
    36
 74
     0
 42
0.000000001
 43
0.0000000001
 40
0.0
 40
0.0
 40
0.0
 40
0.0
 40
0.0312499999999882
 40
0.0312499999999882
 40
0.0624999999999765
 40
0.0624999999999765
 40
0.124999999999978
 40
0.124999999999978
 40
0.1874999999999796
 40
0.1874999999999796
 40
0.2499999999999811
 40
0.2499999999999811
 40
0.3124999999999828
 40
0.3124999999999828
 40
0.3749999999999843
 40
0.3749999999999843
 40
0.4374999999999859
 40
0.4374999999999859
 40
0.4999999999999875
 40
0.4999999999999875
 40
0.562499999999989
 40
0.562499999999989
 40
0.6249999999999906
 40
0.6249999999999906
 40
0.6874999999999922
 40
0.6874999999999922
 40
0.7499999999999938
 40
0.7499999999999938
 40
0.8124999999999953
 40
0.8124999999999953
 40
0.8749999999999968
 40
0.8749999999999968
 40
0.9374999999999984
 40
0.9374999999999984
 40
1.0
 40
1.0
 40
1.0
 40
1.0
 10
400.4741469684576
 20
362.921029983803
 30
0.0
 10
400.4899521784292
 20
362.9178581616382
 30
0.0
 10
400.5057387327926
 20
362.9142886992911
 30
0.0
 10
400.5370517510735
 20
362.9063771882107
 30
0.0
 10
400.5525944842203
 20
362.9020369295619
 30
0.0
 10
400.5988827531842
 20
362.8878659565949
 30
0.0
 10
400.6293573107448
 20
362.8768580874487
 30
0.0
 10
400.6890498214275
 20
362.8518783574278
 30
0.0
 10
400.7182086059316
 20
362.8379404763675
 30
0.0
 10
400.7751553951118
 20
362.8071726855962
 30
0.0
 10
400.802949142218
 20
362.7903264591812
 30
0.0
 10
400.8565801838265
 20
362.7540820873222
 30
0.0
 10
400.8824940999503
 20
362.7346462065779
 30
0.0
 10
400.9325034927063
 20
362.6931214122889
 30
0.0
 10
400.9564114352677
 20
362.6711868677818
 30
0.0
 10
401.0020087521249
 20
362.6250364574655
 30
0.0
 10
401.0237600922523
 20
362.6007432986348
 30
0.0
 10
401.0647017523075
 20
362.5502252630847
 30
0.0
 10
401.0838956036081
 20
362.524013912524
 30
0.0
 10
401.1197314081393
 20
362.4696863092998
 30
0.0
 10
401.1363664449327
 20
362.4415592720726
 30
0.0
 10
401.1667144676757
 20
362.3840018073356
 30
0.0
 10
401.1804791024476
 20
362.3544985653452
 30
0.0
 10
401.205163733678
 20
362.2940286314247
 30
0.0
 10
401.2159839557835
 20
362.2633057693251
 30
0.0
 10
401.2346067710039
 20
362.2009068402157
 30
0.0
 10
401.2424246629397
 20
362.1691395619729
 30
0.0
 10
401.2548943927182
 20
362.1051633024324
 30
0.0
 10
401.2595577450256
 20
362.0729560163614
 30
0.0
 10
401.2657438019909
 20
362.0081045488244
 30
0.0
 10
401.2672546729469
 20
361.9754627008277
 30
0.0
 10
401.2670937288726
 20
361.9104606222436
 30
0.0
 10
401.2654326470752
 20
361.8780043271323
 30
0.0
 10
401.2589254031178
 20
361.8132226563121
 30
0.0
 10
401.2541057656725
 20
361.7811554588515
 30
0.0
 10
401.2477387599649
 20
361.7494116137429
 30
0.0
  0
SPLINE
  5
19B
330
1F
100
AcDbEntity
  8
1
100
AcDbSpline
210
0.0
220
0.0
230
1.0
 70
     8
 71
     3
 72
    12
 73
     8
 74
     0
 42
0.000000001
 43
0.0000000001
 40
0.0
 40
0.0
 40
0.0
 40
0.0
 40
0.5000000000000031
 40
0.5000000000000031
 40
0.7500000000000015
 40
0.7500000000000015
 40
1.0
 40
1.0
 40
1.0
 40
1.0
 10
398.8457877345121
 20
361.3455962105173
 30
0.0
 10
398.8692257013846
 20
361.3405405141451
 30
0.0
 10
398.8939837354117
 20
361.335009955037
 30
0.0
 10
398.9330190429458
 20
361.3260158900321
 30
0.0
 10
398.9463500570768
 20
361.3229005256102
 30
0.0
 10
398.9736718808862
 20
361.31642539732
 30
0.0
 10
398.987561608466
 20
361.3130893851635
 30
0.0
 10
399.0015896325756
 20
361.3096758132536
 30
0.0
  0
SPLINE
  5
19C
330
1F
100
AcDbEntity
  8
1
100
AcDbSpline
210
0.0
220
0.0
230
1.0
 70
     8
 71
     3
 72
    10
 73
     6
 74
     0
 42
0.000000001
 43
0.0000000001
 40
0.0
 40
0.0
 40
0.0
 40
0.0
 40
0.5
 40
0.5
 40
1.0
 40
1.0
 40
1.0
 40
1.0
 10
398.3615310282748
 20
361.4460252287567
 30
0.0
 10
398.4424687143562
 20
361.4301526889588
 30
0.0
 10
398.523253322076
 20
361.4136966820523
 30
0.0
 10
398.6846453471887
 20
361.3801092969686
 30
0.0
 10
398.7652482813546
 20
361.3629690066892
 30
0.0
 10
398.8457877345121
 20
361.3455962105175
 30
0.0
  0
SPLINE
  5
19D
330
1F
100
AcDbEntity
  8
1
100
AcDbSpline
210
0.0
220
0.0
230
1.0
 70
     8
 71
     3
 72
     8
 73
     4
 74
     0
 42
0.000000001
 43
0.0000000001
 40
0.0
 40
0.0
 40
0.0
 40
0.0
 40
1.0
 40
1.0
 40
1.0
 40
1.0
 10
402.1501330814928
 20
366.7462293575749
 30
0.0
 10
402.1506462272591
 20
366.7389578058589
 30
0.0
 10
402.1510224795921
 20
366.7316905884185
 30
0.0
 10
402.1512612317549
 20
366.7244277312348
 30
0.0
  0
SPLINE
  5
19E
330
1F
100
AcDbEntity
  8
1
100
AcDbSpline
210
0.0
220
0.0
230
1.0
 70
     8
 71
     3
 72
    10
 73
     6
 74
     0
 42
0.000000001
 43
0.0000000001
 40
0.0
 40
0.0
 40
0.0
 40
0.0
 40
0.5
 40
0.5
 40
1.0
 40
1.0
 40
1.0
 40
1.0
 10
402.1512612317549
 20
366.7244277312348
 30
0.0
 10
402.1513021191067
 20
366.7107772854016
 30
0.0
 10
402.1506773170033
 20
366.6974353921838
 30
0.0
 10
402.1481456168859
 20
366.6713452287573
 30
0.0
 10
402.1462182827286
 20
366.6585119812589
 30
0.0
 10
402.1436771466195
 20
366.6462551918493
 30
0.0
  0
LINE
  5
19F
330
1F
100
AcDbEntity
  8
SK4
100
AcDbLine
 10
239.174849
 20
366.008075
 30
0.0
 11
324.174849
 21
366.008075
 31
0.0
  0
LINE
  5
1A0
330
1F
100
AcDbEntity
  8
4
100
AcDbLine
 10
321.174849
 20
366.008075
 30
0.0
 11
406.18961
 21
366.008075
 31
0.0
  0
MTEXT
  5
1A4
330
1F
100
AcDbEntity
  8
SK6
100
AcDbMText
 10
308.041662
 20
338.716689
 30
0.0
 40
3.5
 41
0.0
 71
     7
 72
     5
  1
\W0.7426;25L2R080E03-SZP25
  7
cesky
 73
     2
 44
0.8433729999999998
  0
MTEXT
  5
2E8
330
1F
100
AcDbEntity
  8
2
100
AcDbMText
 10
416.6481469999999
 20
363.94293
 30
0.0
 40
3.5
 41
0.0
 71
     7
 72
     5
  1
\W0.7045;25
  7
cesky
 11
0.0000000000000001
 21
1.0
 31
0.0
 73
     2
 44
0.8433729999999998
  0
MTEXT
  5
2E9
330
1F
100
AcDbEntity
  8
2
100
AcDbMText
 10
416.6481469999999
 20
357.20543
 30
0.0
 40
3.5
 41
0.0
 71
     7
 72
     5
  1
\W3.0115;\H2.63;%%c\H3.50;
  7
cesky
 11
0.0000000000000001
 21
1.0
 31
0.0
 73
     2
 44
0.8433729999999998
  0
LINE
  5
2EA
330
1F
100
AcDbEntity
  8
2
100
AcDbLine
 10
403.6748489999999
 20
378.508075
 30
0.0
 11
417.835564
 21
378.508075
 31
0.0
  0
LINE
  5
2EB
330
1F
100
AcDbEntity
  8
2
100
AcDbLine
 10
416.835564
 20
378.508075
 30
0.0
 11
416.835564
 21
357.04793
 31
0.0
  0
SOLID
  5
2EC
330
1F
100
AcDbEntity
  8
2
100
AcDbTrace
 10
416.835564
 20
378.508075
 30
0.0
 11
417.4527089999999
 21
375.008077
 31
0.0
 12
416.21842
 22
375.008073
 32
0.0
 13
416.21842
 23
375.008073
 33
0.0
  0
MTEXT
  5
2ED
330
1F
100
AcDbEntity
  8
2
100
AcDbMText
 10
386.534846
 20
384.873714
 30
0.0
 40
3.5
 41
0.0
 71
     7
 72
     5
  1
\W0.8459;22,3
  7
cesky
 73
     2
 44
0.8433729999999998
  0
LINE
  5
2EE
330
1F
100
AcDbEntity
  8
2
100
AcDbLine
 10
402.174849
 20
380.008075
 30
0.0
 11
402.174849
 21
385.999547
 31
0.0
  0
LINE
  5
2EF
330
1F
100
AcDbEntity
  8
2
100
AcDbLine
 10
379.573843
 20
377.815953
 30
0.0
 11
379.573843
 21
385.999547
 31
0.0
  0
LINE
  5
2F0
330
1F
100
AcDbEntity
  8
2
100
AcDbLine
 10
402.174849
 20
384.999547
 30
0.0
 11
379.573843
 21
384.999547
 31
0.0
  0
SOLID
  5
2F1
330
1F
100
AcDbEntity
  8
2
100
AcDbTrace
 10
402.174849
 20
384.999547
 30
0.0
 11
398.674851
 21
384.382403
 31
0.0
 12
398.674846
 22
385.616692
 32
0.0
 13
398.674846
 23
385.616692
 33
0.0
  0
SOLID
  5
2F2
330
1F
100
AcDbEntity
  8
2
100
AcDbTrace
 10
379.573843
 20
384.999547
 30
0.0
 11
383.073841
 21
385.616692
 31
0.0
 12
383.073846
 22
384.382403
 32
0.0
 13
383.073846
 23
384.382403
 33
0.0
  0
MTEXT
  5
2F3
330
1F
100
AcDbEntity
  8
SK2
100
AcDbMText
 10
360.3603490000001
 20
397.301207
 30
0.0
 40
3.5
 41
0.0
 71
     7
 72
     5
  1
\W0.7045;80
  7
cesky
 73
     2
 44
0.8433729999999998
  0
LINE
  5
2F4
330
1F
100
AcDbEntity
  8
SK2
100
AcDbLine
 10
402.174849
 20
380.008075
 30
0.0
 11
402.174849
 21
398.427041
 31
0.0
  0
LINE
  5
2F5
330
1F
100
AcDbEntity
  8
SK2
100
AcDbLine
 10
322.174849
 20
366.008075
 30
0.0
 11
322.174849
 21
398.427041
 31
0.0
  0
LINE
  5
2F6
330
1F
100
AcDbEntity
  8
SK2
100
AcDbLine
 10
402.174849
 20
397.427041
 30
0.0
 11
322.174849
 21
397.427041
 31
0.0
  0
SOLID
  5
2F7
330
1F
100
AcDbEntity
  8
SK2
100
AcDbTrace
 10
402.174849
 20
397.427041
 30
0.0
 11
398.674851
 21
396.809896
 31
0.0
 12
398.674846
 22
398.044185
 32
0.0
 13
398.674846
 23
398.044185
 33
0.0
  0
SOLID
  5
2F8
330
1F
100
AcDbEntity
  8
SK2
100
AcDbTrace
 10
322.174849
 20
397.427041
 30
0.0
 11
325.674846
 21
398.044185
 31
0.0
 12
325.674851
 22
396.809896
 32
0.0
 13
325.674851
 23
396.809896
 33
0.0
  0
MTEXT
  5
2F9
330
1F
100
AcDbEntity
  8
SK2
100
AcDbMText
 10
318.597849
 20
407.581672
 30
0.0
 40
3.5
 41
0.0
 71
     7
 72
     5
  1
\W0.9524;161
  7
cesky
 73
     2
 44
0.8433729999999998
  0
LINE
  5
2FA
330
1F
100
AcDbEntity
  8
SK2
100
AcDbLine
 10
402.174849
 20
380.008075
 30
0.0
 11
402.174849
 21
408.707505
 31
0.0
  0
LINE
  5
2FB
330
1F
100
AcDbEntity
  8
SK2
100
AcDbLine
 10
241.174849
 20
374.658075
 30
0.0
 11
241.174849
 21
408.707505
 31
0.0
  0
LINE
  5
2FC
330
1F
100
AcDbEntity
  8
SK2
100
AcDbLine
 10
402.174849
 20
407.7075049999999
 30
0.0
 11
241.174849
 21
407.7075049999999
 31
0.0
  0
SOLID
  5
2FD
330
1F
100
AcDbEntity
  8
SK2
100
AcDbTrace
 10
402.174849
 20
407.7075049999999
 30
0.0
 11
398.674851
 21
407.090361
 31
0.0
 12
398.674846
 22
408.32465
 32
0.0
 13
398.674846
 23
408.32465
 33
0.0
  0
SOLID
  5
2FE
330
1F
100
AcDbEntity
  8
SK2
100
AcDbTrace
 10
241.174849
 20
407.7075049999999
 30
0.0
 11
244.674846
 21
408.32465
 31
0.0
 12
244.674851
 22
407.090361
 32
0.0
 13
244.674851
 23
407.090361
 33
0.0
  0
ELLIPSE
  5
303
330
1F
100
AcDbEntity
  8
CUT
100
AcDbEllipse
 10
390.103789
 20
366.006551
 30
0.0
 11
-0.0000000000000008
 21
-12.27070460253211
 31
0.0
210
0.0
220
0.0
230
1.0
 40
0.9848079999999999
 41
1.924056123092006
 42
3.185830700987743
  0
ELLIPSE
  5
304
330
1F
100
AcDbEntity
  8
CUT
100
AcDbEllipse
 10
379.616568
 20
376.835913
 30
0.0
 11
-0.0000000000000001
 21
-0.9809999999999998
 31
0.0
210
0.0
220
0.0
230
1.0
 40
0.9848079999999999
 41
3.185830700987748
 42
4.914597132206193
  0
ELLIPSE
  5
305
330
1F
100
AcDbEntity
  8
CUT
100
AcDbEllipse
 10
390.184751
 20
365.88878
 30
0.0
 11
-0.8332304608592641
 21
12.96595453700616
 31
0.0
210
0.0
220
0.0
230
1.0
 40
0.9232889999999999
 41
4.719187974211843
 42
4.965433314867411
  0
ELLIPSE
  5
306
330
1F
100
AcDbEntity
  8
CUT
100
AcDbEllipse
 10
400.6625509999999
 20
365.613427
 30
0.0
 11
-0.2697908154947382
 21
0.0315639048001837
 31
0.0
210
0.0
220
0.0
230
1.0
 40
0.101961
 41
1.589402086683779
 42
2.200267324902049
  0
ELLIPSE
  5
307
330
1F
100
AcDbEntity
  8
CUT
100
AcDbEllipse
 10
390.508229
 20
379.103258
 30
0.0
 11
-0.0000000000000008
 21
-12.27070460253211
 31
0.0
210
0.0
220
0.0
230
1.0
 40
0.9848079999999999
 41
4.914597132206197
 42
6.17034372189805
  0
LINE
  5
308
330
1F
100
AcDbEntity
  8
CUT
100
AcDbLine
 10
400.893867
 20
365.569428
 30
0.0
 11
400.8187799999999
 21
365.572609
 31
0.0
  0
LINE
  5
309
330
1F
100
AcDbEntity
  8
CUT
100
AcDbLine
 10
379.573843
 20
377.815953
 30
0.0
 11
389.569378
 21
378.265251
 31
0.0
  0
LINE
  5
30A
330
1F
100
AcDbEntity
  8
CUT
100
AcDbLine
 10
400.6643529999999
 20
365.585337
 30
0.0
 11
389.147511
 21
366.910593
 31
0.0
  0
LINE
  5
30B
330
1F
100
AcDbEntity
  8
CUT
100
AcDbLine
 10
402.1501330814928
 20
366.7462293575749
 30
0.0
 11
402.1501330814928
 21
366.7462293575749
 31
0.0
  0
ARC
  5
30C
330
1F
100
AcDbEntity
  8
CUT
100
AcDbCircle
 10
401.5692393721464
 20
366.70524034173
 30
0.0
 40
0.5823380469951822
100
AcDbArc
 50
1.888173814088908
 51
4.03621430317157
  0
ARC
  5
30D
330
1F
100
AcDbEntity
  8
CUT
100
AcDbCircle
 10
400.7458995967958
 20
366.9595928728069
 30
0.0
 40
1.432467305420711
100
AcDbArc
 50
299.1225037695572
 51
347.3649709976151
  0
ARC
  5
30E
330
1F
100
AcDbEntity
  8
CUT
100
AcDbCircle
 10
400.8893279550076
 20
366.7046069446485
 30
0.0
 40
1.139913536807555
100
AcDbArc
 50
280.1522741907752
 51
299.0621812005908
  0
ARC
  5
30F
330
1F
100
AcDbEntity
  8
CUT
100
AcDbCircle
 10
400.9299451198364
 20
366.506239874645
 30
0.0
 40
0.9375063848436772
100
AcDbArc
 50
267.7945324225003
 51
279.8457154041768
  0
ARC
  5
310
330
1F
100
AcDbEntity
  8
CUT
100
AcDbCircle
 10
401.7555746860789
 20
366.722710644387
 30
0.0
 40
0.3956902713185918
100
AcDbArc
 50
352.3081706298141
 51
0.2486342105058843
  0
ARC
  5
311
330
1F
100
AcDbEntity
  8
CUT
100
AcDbCircle
 10
401.798376048427
 20
366.7175406576693
 30
0.0
 40
0.352582566287994
100
AcDbArc
 50
348.3354779493877
 51
352.2098116668771
  0
LINE
  5
312
330
1F
100
AcDbEntity
  8
CUT
100
AcDbLine
 10
401.4418684944224
 20
370.2517010651009
 30
0.0
 11
401.4418684944224
 21
370.2517010651009
 31
0.0
  0
ARC
  5
313
330
1F
100
AcDbEntity
  8
CUT
100
AcDbCircle
 10
394.155033450142
 20
367.6089092300406
 30
0.0
 40
7.751278194337797
100
AcDbArc
 50
17.03470052993108
 51
19.93471293046995
  0
ENDSEC
  0
SECTION
  2
OBJECTS
  0
DICTIONARY
  5
C
330
0
100
AcDbDictionary
281
     1
  3
ACAD_CIP_PREVIOUS_PRODUCT_INFO
350
26B
  3
ACAD_COLOR
350
265
  3
ACAD_DETAILVIEWSTYLE
350
261
  3
ACAD_FIELDLIST
350
2D5
  3
ACAD_GROUP
350
D
  3
ACAD_IMAGE_DICT
350
E5
  3
ACAD_IMAGE_VARS
350
26A
  3
ACAD_LAYOUT
350
1A
  3
ACAD_MATERIAL
350
43
  3
ACAD_MLEADERSTYLE
350
6B
  3
ACAD_MLINESTYLE
350
17
  3
ACAD_PLOTSETTINGS
350
19
  3
ACAD_PLOTSTYLENAME
350
E
  3
ACAD_SCALELIST
350
47
  3
ACAD_SECTIONVIEWSTYLE
350
262
  3
ACAD_TABLESTYLE
350
69
  3
ACAD_VISUALSTYLE
350
2A
  3
ACDB_RECOMPOSE_DATA
350
340
  3
AcDbVariableDictionary
350
21E
  3
AcmDictionary
350
297
  3
AMG
350
26C
  3
AMGSNAPSETTINGS
350
2DF
  0
DICTIONARY
  5
322
330
10
100
AcDbDictionary
280
     1
281
     1
  3
ADSK_XREC_LAYER_RECONCILED
360
323
  0
DICTIONARY
  5
324
330
76
100
AcDbDictionary
280
     1
281
     1
  3
ADSK_XREC_LAYER_RECONCILED
360
325
  0
DICTIONARY
  5
326
330
314
100
AcDbDictionary
280
     1
281
     1
  3
ADSK_XREC_LAYER_RECONCILED
360
327
  0
DICTIONARY
  5
328
330
315
100
AcDbDictionary
280
     1
281
     1
  3
ADSK_XREC_LAYER_RECONCILED
360
329
  0
DICTIONARY
  5
32A
330
316
100
AcDbDictionary
280
     1
281
     1
  3
ADSK_XREC_LAYER_RECONCILED
360
32B
  0
DICTIONARY
  5
32C
330
318
100
AcDbDictionary
280
     1
281
     1
  3
ADSK_XREC_LAYER_RECONCILED
360
32D
  0
DICTIONARY
  5
32E
330
319
100
AcDbDictionary
280
     1
281
     1
  3
ADSK_XREC_LAYER_RECONCILED
360
32F
  0
DICTIONARY
  5
330
330
31B
100
AcDbDictionary
280
     1
281
     1
  3
ADSK_XREC_LAYER_RECONCILED
360
331
  0
DICTIONARY
  5
332
330
31C
100
AcDbDictionary
280
     1
281
     1
  3
ADSK_XREC_LAYER_RECONCILED
360
333
  0
DICTIONARY
  5
334
330
31D
100
AcDbDictionary
280
     1
281
     1
  3
ADSK_XREC_LAYER_RECONCILED
360
335
  0
DICTIONARY
  5
336
330
31E
100
AcDbDictionary
280
     1
281
     1
  3
ADSK_XREC_LAYER_RECONCILED
360
337
  0
DICTIONARY
  5
338
330
31F
100
AcDbDictionary
280
     1
281
     1
  3
ADSK_XREC_LAYER_RECONCILED
360
339
  0
DICTIONARY
  5
33A
330
320
100
AcDbDictionary
280
     1
281
     1
  3
ADSK_XREC_LAYER_RECONCILED
360
33B
  0
DICTIONARY
  5
2E6
330
1F
100
AcDbDictionary
280
     1
281
     1
  3
ACAD_SORTENTS
360
2E7
  0
XRECORD
  5
26B
102
{ACAD_REACTORS
330
C
102
}
330
C
100
AcDbXrecord
280
     1
300
AMECH_PP
300
2019
300
87089AMECH_PP_2019_0F
  0
DICTIONARY
  5
265
102
{ACAD_REACTORS
330
C
102
}
330
C
100
AcDbDictionary
281
     1
  0
DICTIONARY
  5
261
102
{ACAD_REACTORS
330
C
102
}
330
C
100
AcDbDictionary
281
     1
  3
Metric50
350
267
  0
FIELDLIST
  5
2D5
102
{ACAD_REACTORS
330
C
102
}
330
C
100
AcDbIdSet
 90
        3
330
2D3
330
2D4
330
2D6
100
AcDbFieldList
  0
DICTIONARY
  5
D
102
{ACAD_REACTORS
330
C
102
}
330
C
100
AcDbDictionary
281
     1
  3
NULOVY_BOD
350
321
  0
DICTIONARY
  5
E5
102
{ACAD_REACTORS
330
C
102
}
330
C
100
AcDbDictionary
281
     1
  3
25L2R080E03-SZP25_115009556ndi000_00-2D_DormerPramet_jpg
350
E6
  0
RASTERVARIABLES
  5
26A
102
{ACAD_REACTORS
330
C
102
}
330
C
100
AcDbRasterVariables
 90
        0
 70
     1
 71
     1
 72
     1
  0
DICTIONARY
  5
1A
102
{ACAD_REACTORS
330
C
102
}
330
C
100
AcDbDictionary
281
     1
  3
Layout1
350
1E
  3
Layout2
350
26
  3
Model
350
22
  0
DICTIONARY
  5
43
102
{ACAD_REACTORS
330
C
102
}
330
C
100
AcDbDictionary
281
     1
  3
ByBlock
350
45
  3
ByLayer
350
44
  3
Global
350
46
  0
DICTIONARY
  5
6B
102
{ACAD_REACTORS
330
C
102
}
330
C
100
AcDbDictionary
281
     1
  3
Standard
350
6C
  0
DICTIONARY
  5
17
102
{ACAD_REACTORS
330
C
102
}
330
C
100
AcDbDictionary
281
     1
  3
Standard
350
18
  0
DICTIONARY
  5
19
102
{ACAD_REACTORS
330
C
102
}
330
C
100
AcDbDictionary
281
     1
  0
ACDBDICTIONARYWDFLT
  5
E
102
{ACAD_REACTORS
330
C
102
}
330
C
100
AcDbDictionary
281
     1
  3
Normal
350
F
100
AcDbDictionaryWithDefault
340
F
  0
DICTIONARY
  5
47
102
{ACAD_REACTORS
330
C
102
}
330
C
100
AcDbDictionary
281
     1
  3
A0
350
48
  3
A1
350
49
  3
A2
350
4A
  3
A3
350
4B
  3
A4
350
4C
  3
A5
350
4D
  3
A6
350
4E
  3
A7
350
4F
  3
A8
350
50
  3
A9
350
51
  3
B0
350
52
  3
B1
350
53
  3
B2
350
54
  3
B3
350
55
  3
B4
350
56
  3
B5
350
57
  3
B6
350
58
  3
B7
350
59
  3
B8
350
5A
  3
B9
350
5B
  3
C0
350
5C
  3
C1
350
5D
  3
C2
350
5E
  3
C3
350
5F
  3
C4
350
60
  3
C5
350
61
  3
C6
350
62
  3
C7
350
63
  3
C8
350
64
  3
C9
350
65
  3
D0
350
66
  3
D1
350
67
  3
D2
350
68
  0
DICTIONARY
  5
262
102
{ACAD_REACTORS
330
C
102
}
330
C
100
AcDbDictionary
281
     1
  3
Metric50
350
266
  0
DICTIONARY
  5
69
102
{ACAD_REACTORS
330
C
102
}
330
C
100
AcDbDictionary
281
     1
  3
Standard
350
6A
  0
DICTIONARY
  5
2A
102
{ACAD_REACTORS
330
C
102
}
330
C
100
AcDbDictionary
281
     1
  3
2dWireframe
350
2F
  3
Basic
350
32
  3
Brighten
350
36
  3
ColorChange
350
3A
  3
Conceptual
350
34
  3
Dim
350
35
  3
EdgeColorOff
350
3D
  3
Facepattern
350
39
  3
Flat
350
2B
  3
FlatWithEdges
350
2C
  3
Gouraud
350
2D
  3
GouraudWithEdges
350
2E
  3
Hidden
350
31
  3
JitterOff
350
3B
  3
Linepattern
350
38
  3
OverhangOff
350
3C
  3
Realistic
350
33
  3
Shaded
350
42
  3
Shaded with edges
350
41
  3
Shades of Gray
350
3E
  3
Sketchy
350
3F
  3
Thicken
350
37
  3
Wireframe
350
30
  3
X-Ray
350
40
  0
XRECORD
  5
340
102
{ACAD_REACTORS
330
C
102
}
330
C
100
AcDbXrecord
280
     1
 90
        1
330
6A
  0
DICTIONARY
  5
21E
102
{ACAD_REACTORS
330
C
102
}
330
C
100
AcDbDictionary
281
     1
  3
CANNOSCALE
350
21F
  3
CMLEADERSTYLE
350
260
  3
CTABLESTYLE
350
25F
  3
CVIEWDETAILSTYLE
350
33C
  3
CVIEWSECTIONSTYLE
350
33D
  3
MSLTSCALE
350
220
  3
XCLIPFRAME
350
33E
  0
DICTIONARY
  5
297
102
{ACAD_REACTORS
330
C
102
}
330
C
100
AcDbDictionary
281
     1
  3
AcmStdDictionary
350
29E
  0
DICTIONARY
  5
26C
102
{ACAD_REACTORS
330
C
102
}
330
C
100
AcDbDictionary
281
     1
  0
DICTIONARY
  5
2DF
102
{ACAD_REACTORS
330
C
102
}
330
C
100
AcDbDictionary
281
     1
  0
XRECORD
  5
323
102
{ACAD_REACTORS
330
322
102
}
330
322
100
AcDbXrecord
280
     1
290
     1
  0
XRECORD
  5
325
102
{ACAD_REACTORS
330
324
102
}
330
324
100
AcDbXrecord
280
     1
290
     1
  0
XRECORD
  5
327
102
{ACAD_REACTORS
330
326
102
}
330
326
100
AcDbXrecord
280
     1
290
     1
  0
XRECORD
  5
329
102
{ACAD_REACTORS
330
328
102
}
330
328
100
AcDbXrecord
280
     1
290
     1
  0
XRECORD
  5
32B
102
{ACAD_REACTORS
330
32A
102
}
330
32A
100
AcDbXrecord
280
     1
290
     1
  0
XRECORD
  5
32D
102
{ACAD_REACTORS
330
32C
102
}
330
32C
100
AcDbXrecord
280
     1
290
     1
  0
XRECORD
  5
32F
102
{ACAD_REACTORS
330
32E
102
}
330
32E
100
AcDbXrecord
280
     1
290
     1
  0
XRECORD
  5
331
102
{ACAD_REACTORS
330
330
102
}
330
330
100
AcDbXrecord
280
     1
290
     1
  0
XRECORD
  5
333
102
{ACAD_REACTORS
330
332
102
}
330
332
100
AcDbXrecord
280
     1
290
     1
  0
XRECORD
  5
335
102
{ACAD_REACTORS
330
334
102
}
330
334
100
AcDbXrecord
280
     1
290
     1
  0
XRECORD
  5
337
102
{ACAD_REACTORS
330
336
102
}
330
336
100
AcDbXrecord
280
     1
290
     1
  0
XRECORD
  5
339
102
{ACAD_REACTORS
330
338
102
}
330
338
100
AcDbXrecord
280
     1
290
     1
  0
XRECORD
  5
33B
102
{ACAD_REACTORS
330
33A
102
}
330
33A
100
AcDbXrecord
280
     1
290
     1
  0
SORTENTSTABLE
  5
2E7
102
{ACAD_REACTORS
330
2E6
102
}
330
2E6
100
AcDbSortentsTable
330
1F
331
2E8
  5
1DA
331
2E9
  5
1F2
331
2EA
  5
2E8
331
2EB
  5
2E9
331
2EC
  5
2EA
331
2ED
  5
2EB
331
2EE
  5
2EC
331
2EF
  5
2ED
331
2F0
  5
2EE
331
2F1
  5
2EF
331
2F2
  5
2F0
331
308
  5
311
331
309
  5
312
331
30A
  5
313
331
30B
  5
308
331
30C
  5
309
331
30D
  5
30A
331
30E
  5
30B
331
30F
  5
30C
331
310
  5
30D
331
311
  5
30E
331
312
  5
30F
331
313
  5
310
  0
ACDBDETAILVIEWSTYLE
  5
267
102
{ACAD_XDICTIONARY
360
374
102
}
102
{ACAD_REACTORS
330
261
330
2C9
102
}
330
261
100
AcDbModelDocViewStyle
 70
     0
  3
Metric50
290
     0
100
AcDbDetailViewStyle
 70
     0
 71
     0
 90
        3
 71
     1
340
11
 62
   256
 40
5.0
340
0
 62
   256
 40
5.0
300

 40
0.0
280
     1
 71
     2
340
16
 90
       25
 62
   256
 71
     3
340
11
 62
   256
 40
5.0
 90
        0
 40
15.0
 90
        1
300
%<\AcVar ViewDetailId>% (%<\AcVar ViewScale \f "%sn">%)
 71
     4
340
16
 90
       25
 62
   256
340
16
 90
       25
 62
   256
280
     0
  0
GROUP
  5
321
102
{ACAD_REACTORS
330
D
102
}
330
D
100
AcDbGroup
300

 70
     0
 71
     1
340
73
  0
IMAGEDEF
  5
E6
102
{ACAD_REACTORS
330
E5
330
E9
102
}
330
E5
100
AcDbRasterImageDef
 90
        0
  1
R:\Katalog\Data\ZP\25L2R080E03-SZP25\25L2R080E03-SZP25_115009556ndi000_00-2D_DormerPramet.jpg
 10
2089.0
 20
531.0
 11
0.0004786979415989
 21
0.0004786979415989
280
     1
281
     0
  0
LAYOUT
  5
1E
102
{ACAD_REACTORS
330
1A
102
}
330
1A
100
AcDbPlotSettings
  1

  2
none_device
  4

  6

 40
0.0
 41
0.0
 42
0.0
 43
0.0
 44
0.0
 45
0.0
 46
0.0
 47
0.0
 48
0.0
 49
0.0
140
0.0
141
0.0
142
1.0
143
1.0
 70
   688
 72
     0
 73
     0
 74
     5
  7

 75
    16
147
1.0
 76
     0
 77
     2
 78
   300
148
0.0
149
0.0
100
AcDbLayout
  1
Layout1
 70
     1
 71
     1
 10
-0.5
 20
-0.5
 11
5.0
 21
5.0
 12
0.0
 22
0.0
 32
0.0
 14
-0.5
 24
-0.5
 34
-0.5
 15
5.0
 25
5.0
 35
5.0
146
0.0
 13
0.0
 23
0.0
 33
0.0
 16
1.0
 26
0.0
 36
0.0
 17
0.0
 27
1.0
 37
0.0
 76
     0
330
1B
  0
LAYOUT
  5
26
102
{ACAD_REACTORS
330
1A
102
}
330
1A
100
AcDbPlotSettings
  1

  2
none_device
  4

  6

 40
0.0
 41
0.0
 42
0.0
 43
0.0
 44
0.0
 45
0.0
 46
0.0
 47
0.0
 48
0.0
 49
0.0
140
0.0
141
0.0
142
1.0
143
1.0
 70
   688
 72
     0
 73
     0
 74
     5
  7

 75
    16
147
1.0
 76
     0
 77
     2
 78
   300
148
0.0
149
0.0
100
AcDbLayout
  1
Layout2
 70
     1
 71
     2
 10
0.0
 20
0.0
 11
0.0
 21
0.0
 12
0.0
 22
0.0
 32
0.0
 14
0.0
 24
0.0
 34
0.0
 15
0.0
 25
0.0
 35
0.0
146
0.0
 13
0.0
 23
0.0
 33
0.0
 16
1.0
 26
0.0
 36
0.0
 17
0.0
 27
1.0
 37
0.0
 76
     0
330
23
  0
LAYOUT
  5
22
102
{ACAD_REACTORS
330
1A
102
}
330
1A
100
AcDbPlotSettings
  1

  2
none_device
  4
Letter_(8.50_x_11.00_Inches)
  6

 40
6.349999999999999
 41
6.349999999999999
 42
6.350005
 43
6.350005
 44
215.9
 45
279.4
 46
0.0
 47
0.0
 48
0.0
 49
0.0
140
0.0
141
0.0
142
1.0
143
1.0
 70
  1712
 72
     0
 73
     0
 74
     0
  7

 75
     0
147
1.0
 76
     0
 77
     2
 78
   300
148
0.0
149
0.0
100
AcDbLayout
  1
Model
 70
     1
 71
     0
 10
-0.5
 20
-0.5
 11
5.0
 21
5.0
 12
0.0
 22
0.0
 32
0.0
 14
-0.5
 24
-0.5
 34
-0.5
 15
5.0
 25
5.0
 35
5.0
146
0.0
 13
0.0
 23
0.0
 33
0.0
 16
1.0
 26
0.0
 36
0.0
 17
0.0
 27
1.0
 37
0.0
 76
     0
330
1F
331
29
  0
MATERIAL
  5
45
102
{ACAD_XDICTIONARY
360
254
102
}
102
{ACAD_REACTORS
330
43
102
}
330
43
100
AcDbMaterial
  1
ByBlock
  0
MATERIAL
  5
44
102
{ACAD_XDICTIONARY
360
252
102
}
102
{ACAD_REACTORS
330
43
102
}
330
43
100
AcDbMaterial
  1
ByLayer
  0
MATERIAL
  5
46
102
{ACAD_XDICTIONARY
360
256
102
}
102
{ACAD_REACTORS
330
43
102
}
330
43
100
AcDbMaterial
  1
Global
  0
MLEADERSTYLE
  5
6C
102
{ACAD_REACTORS
330
6B
102
}
330
6B
100
AcDbMLeaderStyle
170
     2
171
     1
172
     0
 90
        2
 40
0.0
 41
0.0
173
     1
 91
-1056964608
340
14
 92
       -2
290
     1
 42
0.09
291
     1
 43
0.36
  3
Standard
 44
0.18
300

342
11
174
     1
178
     6
175
     1
176
     0
 93
-1056964608
 45
0.18
292
     0
297
     0
 46
0.18
 94
-1056964608
 47
1.0
 49
1.0
140
1.0
293
     1
141
0.0
294
     1
177
     0
142
1.0
295
     0
296
     0
143
0.125
1001
ACAD_MLEADERVER
1070
     2
  0
MLINESTYLE
  5
18
102
{ACAD_REACTORS
330
17
102
}
330
17
100
AcDbMlineStyle
  2
STANDARD
 70
     0
  3

 62
   256
 51
90.0
 52
90.0
 71
     2
 49
0.5
 62
   256
  6
BYLAYER
 49
-0.5
 62
   256
  6
BYLAYER
  0
ACDBPLACEHOLDER
  5
F
102
{ACAD_REACTORS
330
E
102
}
330
E
  0
SCALE
  5
48
102
{ACAD_REACTORS
330
47
102
}
330
47
100
AcDbScale
 70
     0
300
1:1
140
1.0
141
1.0
290
     1
  0
SCALE
  5
49
102
{ACAD_REACTORS
330
47
102
}
330
47
100
AcDbScale
 70
     0
300
1:2
140
1.0
141
2.0
290
     0
  0
SCALE
  5
4A
102
{ACAD_REACTORS
330
47
102
}
330
47
100
AcDbScale
 70
     0
300
1:4
140
1.0
141
4.0
290
     0
  0
SCALE
  5
4B
102
{ACAD_REACTORS
330
47
102
}
330
47
100
AcDbScale
 70
     0
300
1:5
140
1.0
141
5.0
290
     0
  0
SCALE
  5
4C
102
{ACAD_REACTORS
330
47
102
}
330
47
100
AcDbScale
 70
     0
300
1:8
140
1.0
141
8.0
290
     0
  0
SCALE
  5
4D
102
{ACAD_REACTORS
330
47
102
}
330
47
100
AcDbScale
 70
     0
300
1:10
140
1.0
141
10.0
290
     0
  0
SCALE
  5
4E
102
{ACAD_REACTORS
330
47
102
}
330
47
100
AcDbScale
 70
     0
300
1:16
140
1.0
141
16.0
290
     0
  0
SCALE
  5
4F
102
{ACAD_REACTORS
330
47
102
}
330
47
100
AcDbScale
 70
     0
300
1:20
140
1.0
141
20.0
290
     0
  0
SCALE
  5
50
102
{ACAD_REACTORS
330
47
102
}
330
47
100
AcDbScale
 70
     0
300
1:30
140
1.0
141
30.0
290
     0
  0
SCALE
  5
51
102
{ACAD_REACTORS
330
47
102
}
330
47
100
AcDbScale
 70
     0
300
1:40
140
1.0
141
40.0
290
     0
  0
SCALE
  5
52
102
{ACAD_REACTORS
330
47
102
}
330
47
100
AcDbScale
 70
     0
300
1:50
140
1.0
141
50.0
290
     0
  0
SCALE
  5
53
102
{ACAD_REACTORS
330
47
102
}
330
47
100
AcDbScale
 70
     0
300
1:100
140
1.0
141
100.0
290
     0
  0
SCALE
  5
54
102
{ACAD_REACTORS
330
47
102
}
330
47
100
AcDbScale
 70
     0
300
2:1
140
2.0
141
1.0
290
     0
  0
SCALE
  5
55
102
{ACAD_REACTORS
330
47
102
}
330
47
100
AcDbScale
 70
     0
300
4:1
140
4.0
141
1.0
290
     0
  0
SCALE
  5
56
102
{ACAD_REACTORS
330
47
102
}
330
47
100
AcDbScale
 70
     0
300
8:1
140
8.0
141
1.0
290
     0
  0
SCALE
  5
57
102
{ACAD_REACTORS
330
47
102
}
330
47
100
AcDbScale
 70
     0
300
10:1
140
10.0
141
1.0
290
     0
  0
SCALE
  5
58
102
{ACAD_REACTORS
330
47
102
}
330
47
100
AcDbScale
 70
     0
300
100:1
140
100.0
141
1.0
290
     0
  0
SCALE
  5
59
102
{ACAD_REACTORS
330
47
102
}
330
47
100
AcDbScale
 70
     0
300
1/128" = 1'-0"
140
0.007812
141
12.0
290
     0
  0
SCALE
  5
5A
102
{ACAD_REACTORS
330
47
102
}
330
47
100
AcDbScale
 70
     0
300
1/64" = 1'-0"
140
0.015625
141
12.0
290
     0
  0
SCALE
  5
5B
102
{ACAD_REACTORS
330
47
102
}
330
47
100
AcDbScale
 70
     0
300
1/32" = 1'-0"
140
0.03125
141
12.0
290
     0
  0
SCALE
  5
5C
102
{ACAD_REACTORS
330
47
102
}
330
47
100
AcDbScale
 70
     0
300
1/16" = 1'-0"
140
0.0625
141
12.0
290
     0
  0
SCALE
  5
5D
102
{ACAD_REACTORS
330
47
102
}
330
47
100
AcDbScale
 70
     0
300
3/32" = 1'-0"
140
0.09375
141
12.0
290
     0
  0
SCALE
  5
5E
102
{ACAD_REACTORS
330
47
102
}
330
47
100
AcDbScale
 70
     0
300
1/8" = 1'-0"
140
0.125
141
12.0
290
     0
  0
SCALE
  5
5F
102
{ACAD_REACTORS
330
47
102
}
330
47
100
AcDbScale
 70
     0
300
3/16" = 1'-0"
140
0.1875
141
12.0
290
     0
  0
SCALE
  5
60
102
{ACAD_REACTORS
330
47
102
}
330
47
100
AcDbScale
 70
     0
300
1/4" = 1'-0"
140
0.25
141
12.0
290
     0
  0
SCALE
  5
61
102
{ACAD_REACTORS
330
47
102
}
330
47
100
AcDbScale
 70
     0
300
3/8" = 1'-0"
140
0.375
141
12.0
290
     0
  0
SCALE
  5
62
102
{ACAD_REACTORS
330
47
102
}
330
47
100
AcDbScale
 70
     0
300
1/2" = 1'-0"
140
0.5
141
12.0
290
     0
  0
SCALE
  5
63
102
{ACAD_REACTORS
330
47
102
}
330
47
100
AcDbScale
 70
     0
300
3/4" = 1'-0"
140
0.75
141
12.0
290
     0
  0
SCALE
  5
64
102
{ACAD_REACTORS
330
47
102
}
330
47
100
AcDbScale
 70
     0
300
1" = 1'-0"
140
1.0
141
12.0
290
     0
  0
SCALE
  5
65
102
{ACAD_REACTORS
330
47
102
}
330
47
100
AcDbScale
 70
     0
300
1-1/2" = 1'-0"
140
1.5
141
12.0
290
     0
  0
SCALE
  5
66
102
{ACAD_REACTORS
330
47
102
}
330
47
100
AcDbScale
 70
     0
300
3" = 1'-0"
140
3.0
141
12.0
290
     0
  0
SCALE
  5
67
102
{ACAD_REACTORS
330
47
102
}
330
47
100
AcDbScale
 70
     0
300
6" = 1'-0"
140
6.0
141
12.0
290
     0
  0
SCALE
  5
68
102
{ACAD_REACTORS
330
47
102
}
330
47
100
AcDbScale
 70
     0
300
1'-0" = 1'-0"
140
12.0
141
12.0
290
     0
  0
ACDBSECTIONVIEWSTYLE
  5
266
102
{ACAD_XDICTIONARY
360
372
102
}
102
{ACAD_REACTORS
330
262
330
2C8
102
}
330
262
100
AcDbModelDocViewStyle
 70
     0
  3
Metric50
290
     0
100
AcDbSectionViewStyle
 70
     0
 71
     0
 90
      102
 71
     1
340
11
 62
   256
 40
5.0
340
0
340
0
 62
   256
 40
5.0
300
I, O, Q, S, X, Z
 40
10.0
 90
        0
 40
2.5
 90
        0
 71
     2
340
16
 90
       25
 62
   256
340
16
 90
       50
 62
   256
 40
5.0
 40
2.5
 40
5.0
 71
     3
340
11
 62
   256
 40
5.0
 90
        0
 40
15.0
 90
        1
300
%<\AcVar ViewSectionStartId>%-%<\AcVar ViewSectionEndId>% (%<\AcVar ViewScale \f "%sn">%)
 71
     4
 62
   256
 62
   257
300
ANSI31
 40
1.0
 90
        0
290
     0
290
     0
 90
        6
 40
0.0
 40
1.570796326794896
 40
0.2617993877991494
 40
1.308996938995747
 40
-0.2617993877991494
 40
1.832595714594046
  0
TABLESTYLE
  5
6A
102
{ACAD_XDICTIONARY
360
258
102
}
102
{ACAD_REACTORS
330
69
102
}
330
69
100
AcDbTableStyle
  3
Standard
 70
     0
 71
     0
 40
0.06
 41
0.06
280
     0
281
     0
  7
Standard
140
0.18
170
     2
 62
     0
 63
     7
283
     0
274
    -2
284
     1
 64
     0
275
    -2
285
     1
 65
     0
276
    -2
286
     1
 66
     0
277
    -2
287
     1
 67
     0
278
    -2
288
     1
 68
     0
279
    -2
289
     1
 69
     0
  7
Standard
140
0.25
170
     5
 62
     0
 63
     7
283
     0
274
    -2
284
     1
 64
     0
275
    -2
285
     1
 65
     0
276
    -2
286
     1
 66
     0
277
    -2
287
     1
 67
     0
278
    -2
288
     1
 68
     0
279
    -2
289
     1
 69
     0
  7
Standard
140
0.18
170
     5
 62
     0
 63
     7
283
     0
274
    -2
284
     1
 64
     0
275
    -2
285
     1
 65
     0
276
    -2
286
     1
 66
     0
277
    -2
287
     1
 67
     0
278
    -2
288
     1
 68
     0
279
    -2
289
     1
 69
     0
  0
VISUALSTYLE
  5
2F
102
{ACAD_XDICTIONARY
360
349
102
}
102
{ACAD_REACTORS
330
2A
102
}
330
2A
100
AcDbVisualStyle
  2

 70
     4
 71
     0
 72
     2
 73
     0
 90
        0
 40
-0.6
 41
-30.0
 62
     5
 63
     7
421
 16777215
 74
     1
 91
        4
 64
     7
 65
   257
 75
     1
175
     1
 42
1.0
 92
        0
 66
   257
 43
1.0
 76
     1
 77
     6
 78
     2
 67
     7
 79
     5
170
     0
171
     0
290
     0
174
     0
 93
        1
 44
0.0
173
     0
291
     0
 45
0.0
1001
ACAD
1000
AcDbSavedByObjectVersion
1070
     0
  0
VISUALSTYLE
  5
32
102
{ACAD_XDICTIONARY
360
34F
102
}
102
{ACAD_REACTORS
330
2A
102
}
330
2A
100
AcDbVisualStyle
  2

 70
     7
 71
     1
 72
     0
 73
     1
 90
        0
 40
-0.6
 41
-30.0
 62
     5
 63
     7
421
 16777215
 74
     0
 91
        4
 64
     7
 65
   257
 75
     1
175
     1
 42
1.0
 92
        8
 66
     7
 43
1.0
 76
     1
 77
     6
 78
     2
 67
     7
 79
     5
170
     0
171
     0
290
     0
174
     0
 93
        1
 44
0.0
173
     0
291
     1
 45
0.0
1001
ACAD
1000
AcDbSavedByObjectVersion
1070
     0
  0
VISUALSTYLE
  5
36
102
{ACAD_XDICTIONARY
360
357
102
}
102
{ACAD_REACTORS
330
2A
102
}
330
2A
100
AcDbVisualStyle
  2

 70
    12
 71
     2
 72
     2
 73
     0
 90
        0
 40
-0.6
 41
-30.0
 62
     5
 63
     7
421
 16777215
 74
     1
 91
        4
 64
     7
 65
   257
 75
     1
175
     1
 42
1.0
 92
        8
 66
     7
 43
1.0
 76
     1
 77
     6
 78
     2
 67
     7
 79
     5
170
     0
171
     0
290
     0
174
     0
 93
        1
 44
50.0
173
     0
291
     1
 45
0.0
1001
ACAD
1000
AcDbSavedByObjectVersion
1070
     0
  0
VISUALSTYLE
  5
3A
102
{ACAD_XDICTIONARY
360
35F
102
}
102
{ACAD_REACTORS
330
2A
102
}
330
2A
100
AcDbVisualStyle
  2

 70
    16
 71
     2
 72
     2
 73
     3
 90
        0
 40
-0.6
 41
-30.0
 62
     5
 63
     8
421
  8421504
 74
     1
 91
        4
 64
     7
 65
   257
 75
     1
175
     1
 42
1.0
 92
        8
 66
     8
424
  8421504
 43
1.0
 76
     1
 77
     6
 78
     2
 67
     7
 79
     5
170
     0
171
     0
290
     0
174
     0
 93
        1
 44
0.0
173
     0
291
     1
 45
0.0
1001
ACAD
1000
AcDbSavedByObjectVersion
1070
     0
  0
VISUALSTYLE
  5
34
102
{ACAD_XDICTIONARY
360
353
102
}
102
{ACAD_REACTORS
330
2A
102
}
330
2A
100
AcDbVisualStyle
  2

 70
     9
 71
     3
 72
     2
 73
     0
 90
        0
 40
-0.6
 41
-30.0
 62
     5
 63
     7
421
 16777215
 74
     2
 91
        2
 64
     7
 65
   257
 75
     1
175
     1
 42
179.0
 92
        8
 66
     7
 43
1.0
 76
     1
 77
     6
 78
     2
 67
     7
 79
     3
170
     0
171
     0
290
     0
174
     0
 93
        1
 44
0.0
173
     0
291
     0
 45
0.0
1001
ACAD
1000
AcDbSavedByObjectVersion
1070
     0
  0
VISUALSTYLE
  5
35
102
{ACAD_XDICTIONARY
360
355
102
}
102
{ACAD_REACTORS
330
2A
102
}
330
2A
100
AcDbVisualStyle
  2

 70
    11
 71
     2
 72
     2
 73
     0
 90
        0
 40
-0.6
 41
-30.0
 62
     5
 63
     7
421
 16777215
 74
     1
 91
        4
 64
     7
 65
   257
 75
     1
175
     1
 42
1.0
 92
        8
 66
     7
 43
1.0
 76
     1
 77
     6
 78
     2
 67
     7
 79
     5
170
     0
171
     0
290
     0
174
     0
 93
        1
 44
-50.0
173
     0
291
     1
 45
0.0
1001
ACAD
1000
AcDbSavedByObjectVersion
1070
     0
  0
VISUALSTYLE
  5
3D
102
{ACAD_XDICTIONARY
360
365
102
}
102
{ACAD_REACTORS
330
2A
102
}
330
2A
100
AcDbVisualStyle
  2

 70
    22
 71
     2
 72
     2
 73
     0
 90
        0
 40
-0.6
 41
-30.0
 62
     5
 63
     7
421
 16777215
 74
     1
 91
        4
 64
     7
 65
   257
 75
     1
175
     1
 42
1.0
 92
        8
 66
     7
 43
1.0
 76
     1
 77
     6
 78
     2
 67
     7
 79
     5
170
     0
171
     0
290
     0
174
     0
 93
        1
 44
0.0
173
     0
291
     1
 45
0.0
1001
ACAD
1000
AcDbSavedByObjectVersion
1070
     0
  0
VISUALSTYLE
  5
39
102
{ACAD_XDICTIONARY
360
35D
102
}
102
{ACAD_REACTORS
330
2A
102
}
330
2A
100
AcDbVisualStyle
  2

 70
    15
 71
     2
 72
     2
 73
     0
 90
        0
 40
-0.6
 41
-30.0
 62
     5
 63
     7
421
 16777215
 74
     1
 91
        4
 64
     7
 65
   257
 75
     1
175
     1
 42
1.0
 92
        8
 66
     7
 43
1.0
 76
     1
 77
     6
 78
     2
 67
     7
 79
     5
170
     0
171
     0
290
     0
174
     0
 93
        1
 44
0.0
173
     0
291
     1
 45
0.0
1001
ACAD
1000
AcDbSavedByObjectVersion
1070
     0
  0
VISUALSTYLE
  5
2B
102
{ACAD_XDICTIONARY
360
341
102
}
102
{ACAD_REACTORS
330
2A
102
}
330
2A
100
AcDbVisualStyle
  2

 70
     0
 71
     2
 72
     1
 73
     1
 90
        2
 40
-0.6
 41
30.0
 62
     5
 63
     7
421
 16777215
 74
     0
 91
        0
 64
     7
 65
   257
 75
     1
175
     1
 42
1.0
 92
        8
 66
     7
 43
1.0
 76
     1
 77
     6
 78
     2
 67
     7
 79
     5
170
     0
171
     0
290
     0
174
     0
 93
       13
 44
0.0
173
     0
291
     1
 45
0.0
1001
ACAD
1000
AcDbSavedByObjectVersion
1070
     0
  0
VISUALSTYLE
  5
2C
102
{ACAD_XDICTIONARY
360
343
102
}
102
{ACAD_REACTORS
330
2A
102
}
330
2A
100
AcDbVisualStyle
  2

 70
     1
 71
     2
 72
     1
 73
     1
 90
        2
 40
-0.6
 41
30.0
 62
     5
 63
     7
421
 16777215
 74
     1
 91
        0
 64
     7
 65
   257
 75
     1
175
     1
 42
1.0
 92
        0
 66
   257
 43
1.0
 76
     1
 77
     6
 78
     2
 67
     7
 79
     5
170
     0
171
     0
290
     0
174
     0
 93
       13
 44
0.0
173
     0
291
     1
 45
0.0
1001
ACAD
1000
AcDbSavedByObjectVersion
1070
     0
  0
VISUALSTYLE
  5
2D
102
{ACAD_XDICTIONARY
360
345
102
}
102
{ACAD_REACTORS
330
2A
102
}
330
2A
100
AcDbVisualStyle
  2

 70
     2
 71
     2
 72
     2
 73
     1
 90
        2
 40
-0.6
 41
30.0
 62
     5
 63
     7
421
 16777215
 74
     0
 91
        0
 64
     7
 65
   257
 75
     1
175
     1
 42
1.0
 92
        0
 66
     7
 43
1.0
 76
     1
 77
     6
 78
     2
 67
     7
 79
     5
170
     0
171
     0
290
     0
174
     0
 93
       13
 44
0.0
173
     0
291
     1
 45
0.0
1001
ACAD
1000
AcDbSavedByObjectVersion
1070
     0
  0
VISUALSTYLE
  5
2E
102
{ACAD_XDICTIONARY
360
347
102
}
102
{ACAD_REACTORS
330
2A
102
}
330
2A
100
AcDbVisualStyle
  2

 70
     3
 71
     2
 72
     2
 73
     1
 90
        2
 40
-0.6
 41
30.0
 62
     5
 63
     7
421
 16777215
 74
     1
 91
        0
 64
     7
 65
   257
 75
     1
175
     1
 42
1.0
 92
        0
 66
   257
 43
1.0
 76
     1
 77
     6
 78
     2
 67
     7
 79
     5
170
     0
171
     0
290
     0
174
     0
 93
       13
 44
0.0
173
     0
291
     1
 45
0.0
1001
ACAD
1000
AcDbSavedByObjectVersion
1070
     0
  0
VISUALSTYLE
  5
31
102
{ACAD_XDICTIONARY
360
34D
102
}
102
{ACAD_REACTORS
330
2A
102
}
330
2A
100
AcDbVisualStyle
  2

 70
     6
 71
     1
 72
     2
 73
     2
 90
        0
 40
-0.6
 41
-30.0
 62
     5
 63
     7
421
 16777215
 74
     2
 91
        2
 64
     7
 65
   257
 75
     2
175
     1
 42
40.0
 92
        0
 66
   257
 43
1.0
 76
     1
 77
     6
 78
     2
 67
     7
 79
     3
170
     0
171
     0
290
     0
174
     0
 93
        1
 44
0.0
173
     0
291
     0
 45
0.0
1001
ACAD
1000
AcDbSavedByObjectVersion
1070
     0
  0
VISUALSTYLE
  5
3B
102
{ACAD_XDICTIONARY
360
361
102
}
102
{ACAD_REACTORS
330
2A
102
}
330
2A
100
AcDbVisualStyle
  2

 70
    20
 71
     2
 72
     2
 73
     0
 90
        0
 40
-0.6
 41
-30.0
 62
     5
 63
     7
421
 16777215
 74
     1
 91
        4
 64
     7
 65
   257
 75
     1
175
     1
 42
1.0
 92
       10
 66
     7
 43
1.0
 76
     1
 77
     6
 78
     2
 67
     7
 79
     5
170
     0
171
     0
290
     0
174
     0
 93
        1
 44
0.0
173
     0
291
     1
 45
0.0
1001
ACAD
1000
AcDbSavedByObjectVersion
1070
     0
  0
VISUALSTYLE
  5
38
102
{ACAD_XDICTIONARY
360
35B
102
}
102
{ACAD_REACTORS
330
2A
102
}
330
2A
100
AcDbVisualStyle
  2

 70
    14
 71
     2
 72
     2
 73
     0
 90
        0
 40
-0.6
 41
-30.0
 62
     5
 63
     7
421
 16777215
 74
     1
 91
        4
 64
     7
 65
   257
 75
     7
175
     7
 42
1.0
 92
        8
 66
     7
 43
1.0
 76
     1
 77
     6
 78
     2
 67
     7
 79
     5
170
     0
171
     0
290
     0
174
     0
 93
        1
 44
0.0
173
     0
291
     1
 45
0.0
1001
ACAD
1000
AcDbSavedByObjectVersion
1070
     0
  0
VISUALSTYLE
  5
3C
102
{ACAD_XDICTIONARY
360
363
102
}
102
{ACAD_REACTORS
330
2A
102
}
330
2A
100
AcDbVisualStyle
  2

 70
    21
 71
     2
 72
     2
 73
     0
 90
        0
 40
-0.6
 41
-30.0
 62
     5
 63
     7
421
 16777215
 74
     1
 91
        4
 64
     7
 65
   257
 75
     1
175
     1
 42
1.0
 92
        9
 66
     7
 43
1.0
 76
     1
 77
     6
 78
     2
 67
     7
 79
     5
170
     0
171
     0
290
     0
174
     0
 93
        1
 44
0.0
173
     0
291
     1
 45
0.0
1001
ACAD
1000
AcDbSavedByObjectVersion
1070
     0
  0
VISUALSTYLE
  5
33
102
{ACAD_XDICTIONARY
360
351
102
}
102
{ACAD_REACTORS
330
2A
102
}
330
2A
100
AcDbVisualStyle
  2

 70
     8
 71
     2
 72
     3
 73
     0
 90
        2
 40
-0.6
 41
30.0
 62
     5
 63
     7
421
 16777215
 74
     0
 91
        0
 64
     7
 65
   257
 75
     1
175
     1
 42
1.0
 92
        8
 66
   257
 43
1.0
 76
     1
 77
     6
 78
     2
 67
     7
 79
     3
170
     0
171
     0
290
     0
174
     0
 93
       13
 44
0.0
173
     0
291
     0
 45
0.0
1001
ACAD
1000
AcDbSavedByObjectVersion
1070
     0
  0
VISUALSTYLE
  5
42
102
{ACAD_XDICTIONARY
360
36F
102
}
102
{ACAD_REACTORS
330
2A
102
}
330
2A
100
AcDbVisualStyle
  2

 70
    27
 71
     2
 72
     2
 73
     1
 90
        2
 40
-0.6
 41
30.0
 62
     5
 63
     7
421
 16777215
 74
     0
 91
        4
 64
     7
 65
   257
 75
     1
175
     1
 42
1.0
 92
        8
 66
   257
 43
1.0
 76
     1
 77
     6
 78
     2
 67
     8
425
  7895160
 79
     3
170
     0
171
     0
290
     0
174
     0
 93
        5
 44
0.0
173
     0
291
     0
 45
0.0
1001
ACAD
1000
AcDbSavedByObjectVersion
1070
     0
  0
VISUALSTYLE
  5
41
102
{ACAD_XDICTIONARY
360
36D
102
}
102
{ACAD_REACTORS
330
2A
102
}
330
2A
100
AcDbVisualStyle
  2

 70
    26
 71
     2
 72
     2
 73
     1
 90
        2
 40
-0.6
 41
30.0
 62
     5
 63
     7
421
 16777215
 74
     1
 91
       10
 64
     7
 65
   257
 75
     2
175
     1
 42
1.0
 92
        8
 66
   257
 43
1.0
 76
     1
 77
     6
 78
     2
 67
     7
 79
     3
170
     0
171
     0
290
     0
174
     0
 93
        5
 44
0.0
173
     0
291
     0
 45
0.0
1001
ACAD
1000
AcDbSavedByObjectVersion
1070
     0
  0
VISUALSTYLE
  5
3E
102
{ACAD_XDICTIONARY
360
367
102
}
102
{ACAD_REACTORS
330
2A
102
}
330
2A
100
AcDbVisualStyle
  2

 70
    23
 71
     2
 72
     2
 73
     3
 90
        0
 40
-0.6
 41
-30.0
 62
     5
 63
     7
421
 16777215
 74
     2
 91
        2
 64
     7
 65
     7
 75
     1
175
     1
 42
40.0
 92
        8
 66
     7
 43
1.0
 76
     1
 77
     6
 78
     2
 67
     7
 79
     3
170
     0
171
     0
290
     0
174
     0
 93
        1
 44
0.0
173
     0
291
     0
 45
0.0
1001
ACAD
1000
AcDbSavedByObjectVersion
1070
     0
  0
VISUALSTYLE
  5
3F
102
{ACAD_XDICTIONARY
360
369
102
}
102
{ACAD_REACTORS
330
2A
102
}
330
2A
100
AcDbVisualStyle
  2

 70
    24
 71
     1
 72
     2
 73
     2
 90
        0
 40
-0.6
 41
-30.0
 62
     5
 63
     7
421
 16777215
 74
     2
 91
        2
 64
     7
 65
     7
 75
     1
175
     1
 42
40.0
 92
       11
 66
     7
 43
1.0
 76
     1
 77
     6
 78
     2
 67
     7
 79
     6
170
     0
171
     0
290
     0
174
     0
 93
        1
 44
0.0
173
     0
291
     0
 45
0.0
1001
ACAD
1000
AcDbSavedByObjectVersion
1070
     0
  0
VISUALSTYLE
  5
37
102
{ACAD_XDICTIONARY
360
359
102
}
102
{ACAD_REACTORS
330
2A
102
}
330
2A
100
AcDbVisualStyle
  2

 70
    13
 71
     2
 72
     2
 73
     0
 90
        0
 40
-0.6
 41
-30.0
 62
     5
 63
     7
421
 16777215
 74
     1
 91
        4
 64
     7
 65
   257
 75
     1
175
     1
 42
1.0
 92
       12
 66
     7
 43
1.0
 76
     1
 77
     6
 78
     2
 67
     7
 79
     5
170
     0
171
     0
290
     0
174
     0
 93
        1
 44
0.0
173
     0
291
     1
 45
0.0
1001
ACAD
1000
AcDbSavedByObjectVersion
1070
     0
  0
VISUALSTYLE
  5
30
102
{ACAD_XDICTIONARY
360
34B
102
}
102
{ACAD_REACTORS
330
2A
102
}
330
2A
100
AcDbVisualStyle
  2

 70
     5
 71
     0
 72
     2
 73
     0
 90
        0
 40
-0.6
 41
-30.0
 62
     5
 63
     7
421
 16777215
 74
     1
 91
        4
 64
     7
 65
   257
 75
     1
175
     1
 42
1.0
 92
        0
 66
   257
 43
1.0
 76
     1
 77
     6
 78
     2
 67
     7
 79
     3
170
     0
171
     0
290
     0
174
     0
 93
        1
 44
0.0
173
     0
291
     0
 45
0.0
1001
ACAD
1000
AcDbSavedByObjectVersion
1070
     0
  0
VISUALSTYLE
  5
40
102
{ACAD_XDICTIONARY
360
36B
102
}
102
{ACAD_REACTORS
330
2A
102
}
330
2A
100
AcDbVisualStyle
  2

 70
    25
 71
     2
 72
     2
 73
     1
 90
        1
 40
0.5
 41
-30.0
 62
     5
 63
     7
421
 16777215
 74
     1
 91
        0
 64
     7
 65
   257
 75
     1
175
     1
 42
1.0
 92
        8
 66
     7
 43
1.0
 76
     1
 77
     6
 78
     2
 67
     7
 79
     3
170
     0
171
     0
290
     0
174
     0
 93
       13
 44
0.0
173
     0
291
     0
 45
0.0
1001
ACAD
1000
AcDbSavedByObjectVersion
1070
     0
  0
DICTIONARYVAR
  5
21F
102
{ACAD_REACTORS
330
21E
102
}
330
21E
100
DictionaryVariables
280
     0
  1
1:1
  0
DICTIONARYVAR
  5
260
102
{ACAD_REACTORS
330
21E
102
}
330
21E
100
DictionaryVariables
280
     0
  1
STANDARD
  0
DICTIONARYVAR
  5
25F
102
{ACAD_REACTORS
330
21E
102
}
330
21E
100
DictionaryVariables
280
     0
  1
STANDARD
  0
DICTIONARYVAR
  5
33C
102
{ACAD_REACTORS
330
21E
102
}
330
21E
100
DictionaryVariables
280
     0
  1
Metric50
  0
DICTIONARYVAR
  5
33D
102
{ACAD_REACTORS
330
21E
102
}
330
21E
100
DictionaryVariables
280
     0
  1
Metric50
  0
DICTIONARYVAR
  5
220
102
{ACAD_REACTORS
330
21E
102
}
330
21E
100
DictionaryVariables
280
     0
  1
1
  0
DICTIONARYVAR
  5
33E
102
{ACAD_REACTORS
330
21E
102
}
330
21E
100
DictionaryVariables
280
     0
  1
2
  0
DICTIONARY
  5
29E
102
{ACAD_REACTORS
330
297
102
}
330
297
100
AcDbDictionary
281
     1
  0
DICTIONARY
  5
374
330
267
100
AcDbDictionary
280
     1
281
     1
  3
ACAD_XREC_ROUNDTRIP
360
375
  0
DICTIONARY
  5
254
330
45
100
AcDbDictionary
280
     1
281
     1
  3
ACAD_XREC_ROUNDTRIP
360
255
  0
DICTIONARY
  5
252
330
44
100
AcDbDictionary
280
     1
281
     1
  3
ACAD_XREC_ROUNDTRIP
360
253
  0
DICTIONARY
  5
256
330
46
100
AcDbDictionary
280
     1
281
     1
  3
ACAD_XREC_ROUNDTRIP
360
257
  0
DICTIONARY
  5
372
330
266
100
AcDbDictionary
280
     1
281
     1
  3
ACAD_XREC_ROUNDTRIP
360
373
  0
DICTIONARY
  5
258
330
6A
100
AcDbDictionary
280
     1
281
     1
  3
ACAD_ROUNDTRIP_2008_TABLESTYLE_CELLSTYLEMAP
360
33F
  3
ACAD_XREC_ROUNDTRIP
360
371
  0
DICTIONARY
  5
349
330
2F
100
AcDbDictionary
280
     1
281
     1
  3
ACAD_XREC_ROUNDTRIP
360
34A
  0
DICTIONARY
  5
34F
330
32
100
AcDbDictionary
280
     1
281
     1
  3
ACAD_XREC_ROUNDTRIP
360
350
  0
DICTIONARY
  5
357
330
36
100
AcDbDictionary
280
     1
281
     1
  3
ACAD_XREC_ROUNDTRIP
360
358
  0
DICTIONARY
  5
35F
330
3A
100
AcDbDictionary
280
     1
281
     1
  3
ACAD_XREC_ROUNDTRIP
360
360
  0
DICTIONARY
  5
353
330
34
100
AcDbDictionary
280
     1
281
     1
  3
ACAD_XREC_ROUNDTRIP
360
354
  0
DICTIONARY
  5
355
330
35
100
AcDbDictionary
280
     1
281
     1
  3
ACAD_XREC_ROUNDTRIP
360
356
  0
DICTIONARY
  5
365
330
3D
100
AcDbDictionary
280
     1
281
     1
  3
ACAD_XREC_ROUNDTRIP
360
366
  0
DICTIONARY
  5
35D
330
39
100
AcDbDictionary
280
     1
281
     1
  3
ACAD_XREC_ROUNDTRIP
360
35E
  0
DICTIONARY
  5
341
330
2B
100
AcDbDictionary
280
     1
281
     1
  3
ACAD_XREC_ROUNDTRIP
360
342
  0
DICTIONARY
  5
343
330
2C
100
AcDbDictionary
280
     1
281
     1
  3
ACAD_XREC_ROUNDTRIP
360
344
  0
DICTIONARY
  5
345
330
2D
100
AcDbDictionary
280
     1
281
     1
  3
ACAD_XREC_ROUNDTRIP
360
346
  0
DICTIONARY
  5
347
330
2E
100
AcDbDictionary
280
     1
281
     1
  3
ACAD_XREC_ROUNDTRIP
360
348
  0
DICTIONARY
  5
34D
330
31
100
AcDbDictionary
280
     1
281
     1
  3
ACAD_XREC_ROUNDTRIP
360
34E
  0
DICTIONARY
  5
361
330
3B
100
AcDbDictionary
280
     1
281
     1
  3
ACAD_XREC_ROUNDTRIP
360
362
  0
DICTIONARY
  5
35B
330
38
100
AcDbDictionary
280
     1
281
     1
  3
ACAD_XREC_ROUNDTRIP
360
35C
  0
DICTIONARY
  5
363
330
3C
100
AcDbDictionary
280
     1
281
     1
  3
ACAD_XREC_ROUNDTRIP
360
364
  0
DICTIONARY
  5
351
330
33
100
AcDbDictionary
280
     1
281
     1
  3
ACAD_XREC_ROUNDTRIP
360
352
  0
DICTIONARY
  5
36F
330
42
100
AcDbDictionary
280
     1
281
     1
  3
ACAD_XREC_ROUNDTRIP
360
370
  0
DICTIONARY
  5
36D
330
41
100
AcDbDictionary
280
     1
281
     1
  3
ACAD_XREC_ROUNDTRIP
360
36E
  0
DICTIONARY
  5
367
330
3E
100
AcDbDictionary
280
     1
281
     1
  3
ACAD_XREC_ROUNDTRIP
360
368
  0
DICTIONARY
  5
369
330
3F
100
AcDbDictionary
280
     1
281
     1
  3
ACAD_XREC_ROUNDTRIP
360
36A
  0
DICTIONARY
  5
359
330
37
100
AcDbDictionary
280
     1
281
     1
  3
ACAD_XREC_ROUNDTRIP
360
35A
  0
DICTIONARY
  5
34B
330
30
100
AcDbDictionary
280
     1
281
     1
  3
ACAD_XREC_ROUNDTRIP
360
34C
  0
DICTIONARY
  5
36B
330
40
100
AcDbDictionary
280
     1
281
     1
  3
ACAD_XREC_ROUNDTRIP
360
36C
  0
XRECORD
  5
375
102
{ACAD_REACTORS
330
374
102
}
330
374
100
AcDbXrecord
280
     1
102
DISPLAYNAME
  1
Metric50
102
FLAGS
 90
        0
  0
XRECORD
  5
255
102
{ACAD_REACTORS
330
254
102
}
330
254
100
AcDbXrecord
280
     1
102
MATERIAL
148
0.0
149
0.0
149
0.0
 93
        0
 94
      127
282
     0
 72
     1
 77
     1
171
     1
175
     1
179
     1
273
     0
  0
XRECORD
  5
253
102
{ACAD_REACTORS
330
252
102
}
330
252
100
AcDbXrecord
280
     1
102
MATERIAL
148
0.0
149
0.0
149
0.0
 93
        0
 94
      127
282
     0
 72
     1
 77
     1
171
     1
175
     1
179
     1
273
     0
  0
XRECORD
  5
257
102
{ACAD_REACTORS
330
256
102
}
330
256
100
AcDbXrecord
280
     1
102
MATERIAL
148
0.0
149
0.0
149
0.0
 93
        0
 94
      127
282
     0
 72
     1
 77
     1
171
     1
175
     1
179
     1
273
     0
  0
XRECORD
  5
373
102
{ACAD_REACTORS
330
372
102
}
330
372
100
AcDbXrecord
280
     1
102
DISPLAYNAME
  1
Metric50
102
FLAGS
 90
        0
  0
CELLSTYLEMAP
  5
33F
102
{ACAD_REACTORS
330
258
102
}
330
258
100
AcDbCellStyleMap
 90
        3
300
CELLSTYLE
  1
TABLEFORMAT_BEGIN
 90
        5
170
     1
 91
        0
 92
    32768
 62
   257
 93
        1
300
CONTENTFORMAT
  1
CONTENTFORMAT_BEGIN
 90
        0
 91
        0
 92
        4
 93
        0
300

 40
0.0
140
1.0
 94
        5
 62
     0
340
11
144
0.25
309
CONTENTFORMAT_END
171
     1
301
MARGIN
  1
CELLMARGIN_BEGIN
 40
0.06
 40
0.06
 40
0.06
 40
0.06
 40
0.18
 40
0.18
309
CELLMARGIN_END
 94
        6
 95
        1
302
GRIDFORMAT
  1
GRIDFORMAT_BEGIN
 90
        0
 91
        1
 62
     0
 92
       -2
340
14
 93
        0
 40
0.045
309
GRIDFORMAT_END
 95
        2
302
GRIDFORMAT
  1
GRIDFORMAT_BEGIN
 90
        0
 91
        1
 62
     0
 92
       -2
340
14
 93
        0
 40
0.045
309
GRIDFORMAT_END
 95
        4
302
GRIDFORMAT
  1
GRIDFORMAT_BEGIN
 90
        0
 91
        1
 62
     0
 92
       -2
340
14
 93
        0
 40
0.045
309
GRIDFORMAT_END
 95
        8
302
GRIDFORMAT
  1
GRIDFORMAT_BEGIN
 90
        0
 91
        1
 62
     0
 92
       -2
340
14
 93
        0
 40
0.045
309
GRIDFORMAT_END
 95
       16
302
GRIDFORMAT
  1
GRIDFORMAT_BEGIN
 90
        0
 91
        1
 62
     0
 92
       -2
340
14
 93
        0
 40
0.045
309
GRIDFORMAT_END
 95
       32
302
GRIDFORMAT
  1
GRIDFORMAT_BEGIN
 90
        0
 91
        1
 62
     0
 92
       -2
340
14
 93
        0
 40
0.045
309
GRIDFORMAT_END
309
TABLEFORMAT_END
  1
CELLSTYLE_BEGIN
 90
        1
 91
        1
300
_TITLE
309
CELLSTYLE_END
300
CELLSTYLE
  1
TABLEFORMAT_BEGIN
 90
        5
170
     1
 91
        0
 92
        0
 62
   257
 93
        1
300
CONTENTFORMAT
  1
CONTENTFORMAT_BEGIN
 90
        0
 91
        0
 92
        4
 93
        0
300

 40
0.0
140
1.0
 94
        5
 62
     0
340
11
144
0.18
309
CONTENTFORMAT_END
171
     1
301
MARGIN
  1
CELLMARGIN_BEGIN
 40
0.06
 40
0.06
 40
0.06
 40
0.06
 40
0.18
 40
0.18
309
CELLMARGIN_END
 94
        6
 95
        1
302
GRIDFORMAT
  1
GRIDFORMAT_BEGIN
 90
        0
 91
        1
 62
     0
 92
       -2
340
14
 93
        0
 40
0.045
309
GRIDFORMAT_END
 95
        2
302
GRIDFORMAT
  1
GRIDFORMAT_BEGIN
 90
        0
 91
        1
 62
     0
 92
       -2
340
14
 93
        0
 40
0.045
309
GRIDFORMAT_END
 95
        4
302
GRIDFORMAT
  1
GRIDFORMAT_BEGIN
 90
        0
 91
        1
 62
     0
 92
       -2
340
14
 93
        0
 40
0.045
309
GRIDFORMAT_END
 95
        8
302
GRIDFORMAT
  1
GRIDFORMAT_BEGIN
 90
        0
 91
        1
 62
     0
 92
       -2
340
14
 93
        0
 40
0.045
309
GRIDFORMAT_END
 95
       16
302
GRIDFORMAT
  1
GRIDFORMAT_BEGIN
 90
        0
 91
        1
 62
     0
 92
       -2
340
14
 93
        0
 40
0.045
309
GRIDFORMAT_END
 95
       32
302
GRIDFORMAT
  1
GRIDFORMAT_BEGIN
 90
        0
 91
        1
 62
     0
 92
       -2
340
14
 93
        0
 40
0.045
309
GRIDFORMAT_END
309
TABLEFORMAT_END
  1
CELLSTYLE_BEGIN
 90
        2
 91
        1
300
_HEADER
309
CELLSTYLE_END
300
CELLSTYLE
  1
TABLEFORMAT_BEGIN
 90
        5
170
     1
 91
        0
 92
        0
 62
   257
 93
        1
300
CONTENTFORMAT
  1
CONTENTFORMAT_BEGIN
 90
        0
 91
        0
 92
        4
 93
        0
300

 40
0.0
140
1.0
 94
        2
 62
     0
340
11
144
0.18
309
CONTENTFORMAT_END
171
     1
301
MARGIN
  1
CELLMARGIN_BEGIN
 40
0.06
 40
0.06
 40
0.06
 40
0.06
 40
0.18
 40
0.18
309
CELLMARGIN_END
 94
        6
 95
        1
302
GRIDFORMAT
  1
GRIDFORMAT_BEGIN
 90
        0
 91
        1
 62
     0
 92
       -2
340
14
 93
        0
 40
0.045
309
GRIDFORMAT_END
 95
        2
302
GRIDFORMAT
  1
GRIDFORMAT_BEGIN
 90
        0
 91
        1
 62
     0
 92
       -2
340
14
 93
        0
 40
0.045
309
GRIDFORMAT_END
 95
        4
302
GRIDFORMAT
  1
GRIDFORMAT_BEGIN
 90
        0
 91
        1
 62
     0
 92
       -2
340
14
 93
        0
 40
0.045
309
GRIDFORMAT_END
 95
        8
302
GRIDFORMAT
  1
GRIDFORMAT_BEGIN
 90
        0
 91
        1
 62
     0
 92
       -2
340
14
 93
        0
 40
0.045
309
GRIDFORMAT_END
 95
       16
302
GRIDFORMAT
  1
GRIDFORMAT_BEGIN
 90
        0
 91
        1
 62
     0
 92
       -2
340
14
 93
        0
 40
0.045
309
GRIDFORMAT_END
 95
       32
302
GRIDFORMAT
  1
GRIDFORMAT_BEGIN
 90
        0
 91
        1
 62
     0
 92
       -2
340
14
 93
        0
 40
0.045
309
GRIDFORMAT_END
309
TABLEFORMAT_END
  1
CELLSTYLE_BEGIN
 90
        3
 91
        2
300
_DATA
309
CELLSTYLE_END
  0
XRECORD
  5
371
102
{ACAD_REACTORS
330
258
102
}
330
258
100
AcDbXrecord
280
     1
102
ACAD_ROUNDTRIP_PRE2007_TABLESTYLE
 90
        4
 91
        0
  1

 92
        4
 93
        0
  2

 94
        4
 95
        0
  3

  0
XRECORD
  5
34A
102
{ACAD_REACTORS
330
349
102
}
330
349
100
AcDbXrecord
280
     1
102
RTVSPost2010Prop28
280
     1
102
RTVSPost2010PropOp28
 70
     1
102
RTVSPost2010Prop29
280
     1
102
RTVSPost2010PropOp29
 70
     1
102
RTVSPost2010Prop30
280
     0
102
RTVSPost2010PropOp30
 70
     1
102
RTVSPost2010Prop31
280
     0
102
RTVSPost2010PropOp31
 70
     1
102
RTVSPost2010Prop32
280
     0
102
RTVSPost2010PropOp32
 70
     1
102
RTVSPost2010Prop33
280
     0
102
RTVSPost2010PropOp33
 70
     1
102
RTVSPost2010Prop34
280
     0
102
RTVSPost2010PropOp34
 70
     1
102
RTVSPost2010Prop35
280
     0
102
RTVSPost2010PropOp35
 70
     1
102
RTVSPost2010Prop36
280
     0
102
RTVSPost2010PropOp36
 70
     1
102
RTVSPost2010Prop37
 90
       50
102
RTVSPost2010PropOp37
 70
     1
102
RTVSPost2010Prop38
140
0.0
102
RTVSPost2010PropOp38
 70
     1
102
RTVSPost2010Prop39
140
1.0
102
RTVSPost2010PropOp39
 70
     1
102
RTVSPost2010Prop40
 90
        0
102
RTVSPost2010PropOp40
 70
     1
102
RTVSPost2010Prop41ColorIndex
 90
       18
102
RTVSPost2010Prop41ColorRGB
 90
        0
102
RTVSPost2010PropOp41
 70
     1
102
RTVSPost2010Prop42
 90
       50
102
RTVSPost2010PropOp42
 70
     1
102
RTVSPost2010Prop43
 90
        3
102
RTVSPost2010PropOp43
 70
     1
102
RTVSPost2010Prop44ColorIndex
 90
        5
102
RTVSPost2010Prop44ColorRGB
 90
      255
102
RTVSPost2010PropOp44
 70
     1
102
RTVSPost2010Prop45
280
     0
102
RTVSPost2010PropOp45
 70
     1
102
RTVSPost2010Prop46
 90
       50
102
RTVSPost2010PropOp46
 70
     1
102
RTVSPost2010Prop47
 90
       50
102
RTVSPost2010PropOp47
 70
     1
102
RTVSPost2010Prop48
 90
       50
102
RTVSPost2010PropOp48
 70
     1
102
RTVSPost2010Prop49
280
     0
102
RTVSPost2010PropOp49
 70
     1
102
RTVSPost2010Prop50
 90
       50
102
RTVSPost2010PropOp50
 70
     1
102
RTVSPost2010Prop51ColorIndex
 90
      256
102
RTVSPost2010Prop51ColorRGB
 90
-16777216
102
RTVSPost2010PropOp51
 70
     0
102
RTVSPost2010Prop52
140
1.0
102
RTVSPost2010PropOp52
 70
     0
102
RTVSPost2010Prop53
 90
        2
102
RTVSPost2010PropOp53
 70
     1
102
RTVSPost2010Prop54
  1
strokes_ogs.tif
102
RTVSPost2010PropOp54
 70
     1
102
RTVSPost2010Prop55
280
     0
102
RTVSPost2010PropOp55
 70
     1
102
RTVSPost2010Prop56
140
1.0
102
RTVSPost2010PropOp56
 70
     1
102
RTVSPost2010Prop57
140
1.0
102
RTVSPost2010PropOp57
 70
     1
102
RTVSPropertyOp0
 70
     1
102
RTVSPropertyOp1
 70
     1
102
RTVSPropertyOp2
 70
     1
102
RTVSPropertyOp3
 70
     1
102
RTVSPropertyOp4
 70
     1
102
RTVSPropertyOp5
 70
     1
102
RTVSPropertyOp6
 70
     1
102
RTVSPropertyOp7
 70
     1
102
RTVSPropertyOp8
 70
     1
102
RTVSPropertyOp9
 70
     1
102
RTVSPropertyOp10
 70
     1
102
RTVSPropertyOp11
 70
     1
102
RTVSPropertyOp12
 70
     1
102
RTVSPropertyOp13
 70
     1
102
RTVSPropertyOp14
 70
     1
102
RTVSPropertyOp15
 70
     1
102
RTVSPropertyOp16
 70
     1
102
RTVSPropertyOp17
 70
     1
102
RTVSPropertyOp18
 70
     1
102
RTVSPropertyOp19
 70
     1
102
RTVSPropertyOp20
 70
     1
102
RTVSPropertyOp21
 70
     1
102
RTVSPropertyOp22
 70
     1
102
RTVSPropertyOp23
 70
     1
102
RTVSPropertyOp24
 70
     1
102
RTVSPropertyOp25
 70
     1
102
RTVSPropertyOp26
 70
     1
102
RTVSPropertyOp27
 70
     1
102
RTVSPropertyOp28
 70
     1
102
RTVSPropertyOp29
 70
     1
102
RTVSPropertyOp30
 70
     1
102
RTVSPropertyOp31
 70
     1
102
RTVSPropertyOp32
 70
     1
102
RTVSPropertyOp33
 70
     1
102
RTVSPropertyOp34
 70
     1
102
RTVSPropertyOp35
 70
     1
102
RTVSPropertyOp36
 70
     1
102
RTVSPropertyOp37
 70
     1
102
RTVSPropertyOp38
 70
     1
102
RTVSPropertyOp39
 70
     1
102
RTVSPropertyOp40
 70
     1
102
RTVSPropertyOp41
 70
     1
102
RTVSPropertyOp42
 70
     1
102
RTVSPropertyOp43
 70
     1
102
RTVSPropertyOp44
 70
     1
102
RTVSPropertyOp45
 70
     1
102
RTVSPropertyOp46
 70
     1
102
RTVSPropertyOp47
 70
     1
102
RTVSPropertyOp48
 70
     1
102
RTVSPropertyOp49
 70
     1
102
RTVSPropertyOp50
 70
     1
102
RTVSPropertyOp51
 70
     0
102
RTVSPropertyOp52
 70
     0
102
RTVSPropertyOp53
 70
     1
102
RTVSPropertyOp54
 70
     1
102
RTVSPropertyOp55
 70
     1
102
RTVSPropertyOp56
 70
     1
102
RTVSPropertyOp57
 70
     1
102
RTVSPropertyOp58
 70
     1
102
RTVSPropertyOp59
 70
     1
102
RTVSPropertyOp60
 70
     1
102
RTVSPropertyOp61
 70
     1
102
RTVSPropertyOp62
 70
     1
  0
XRECORD
  5
350
102
{ACAD_REACTORS
330
34F
102
}
330
34F
100
AcDbXrecord
280
     1
102
RTVSPost2010Prop28
280
     0
102
RTVSPost2010PropOp28
 70
     1
102
RTVSPost2010Prop29
280
     1
102
RTVSPost2010PropOp29
 70
     1
102
RTVSPost2010Prop30
280
     1
102
RTVSPost2010PropOp30
 70
     1
102
RTVSPost2010Prop31
280
     0
102
RTVSPost2010PropOp31
 70
     1
102
RTVSPost2010Prop32
280
     0
102
RTVSPost2010PropOp32
 70
     1
102
RTVSPost2010Prop33
280
     0
102
RTVSPost2010PropOp33
 70
     1
102
RTVSPost2010Prop34
280
     0
102
RTVSPost2010PropOp34
 70
     1
102
RTVSPost2010Prop35
280
     0
102
RTVSPost2010PropOp35
 70
     1
102
RTVSPost2010Prop36
280
     0
102
RTVSPost2010PropOp36
 70
     1
102
RTVSPost2010Prop37
 90
       50
102
RTVSPost2010PropOp37
 70
     1
102
RTVSPost2010Prop38
140
0.0
102
RTVSPost2010PropOp38
 70
     1
102
RTVSPost2010Prop39
140
1.0
102
RTVSPost2010PropOp39
 70
     1
102
RTVSPost2010Prop40
 90
        0
102
RTVSPost2010PropOp40
 70
     1
102
RTVSPost2010Prop41ColorIndex
 90
       18
102
RTVSPost2010Prop41ColorRGB
 90
        0
102
RTVSPost2010PropOp41
 70
     1
102
RTVSPost2010Prop42
 90
       50
102
RTVSPost2010PropOp42
 70
     1
102
RTVSPost2010Prop43
 90
        3
102
RTVSPost2010PropOp43
 70
     1
102
RTVSPost2010Prop44ColorIndex
 90
        5
102
RTVSPost2010Prop44ColorRGB
 90
      255
102
RTVSPost2010PropOp44
 70
     1
102
RTVSPost2010Prop45
280
     0
102
RTVSPost2010PropOp45
 70
     1
102
RTVSPost2010Prop46
 90
       50
102
RTVSPost2010PropOp46
 70
     1
102
RTVSPost2010Prop47
 90
       50
102
RTVSPost2010PropOp47
 70
     1
102
RTVSPost2010Prop48
 90
       50
102
RTVSPost2010PropOp48
 70
     1
102
RTVSPost2010Prop49
280
     0
102
RTVSPost2010PropOp49
 70
     1
102
RTVSPost2010Prop50
 90
       50
102
RTVSPost2010PropOp50
 70
     1
102
RTVSPost2010Prop51ColorIndex
 90
      256
102
RTVSPost2010Prop51ColorRGB
 90
-16777216
102
RTVSPost2010PropOp51
 70
     0
102
RTVSPost2010Prop52
140
1.0
102
RTVSPost2010PropOp52
 70
     0
102
RTVSPost2010Prop53
 90
        2
102
RTVSPost2010PropOp53
 70
     1
102
RTVSPost2010Prop54
  1
strokes_ogs.tif
102
RTVSPost2010PropOp54
 70
     1
102
RTVSPost2010Prop55
280
     0
102
RTVSPost2010PropOp55
 70
     1
102
RTVSPost2010Prop56
140
1.0
102
RTVSPost2010PropOp56
 70
     1
102
RTVSPost2010Prop57
140
1.0
102
RTVSPost2010PropOp57
 70
     1
102
RTVSPropertyOp0
 70
     1
102
RTVSPropertyOp1
 70
     1
102
RTVSPropertyOp2
 70
     1
102
RTVSPropertyOp3
 70
     1
102
RTVSPropertyOp4
 70
     1
102
RTVSPropertyOp5
 70
     1
102
RTVSPropertyOp6
 70
     1
102
RTVSPropertyOp7
 70
     1
102
RTVSPropertyOp8
 70
     1
102
RTVSPropertyOp9
 70
     1
102
RTVSPropertyOp10
 70
     1
102
RTVSPropertyOp11
 70
     1
102
RTVSPropertyOp12
 70
     1
102
RTVSPropertyOp13
 70
     1
102
RTVSPropertyOp14
 70
     1
102
RTVSPropertyOp15
 70
     1
102
RTVSPropertyOp16
 70
     1
102
RTVSPropertyOp17
 70
     1
102
RTVSPropertyOp18
 70
     1
102
RTVSPropertyOp19
 70
     1
102
RTVSPropertyOp20
 70
     1
102
RTVSPropertyOp21
 70
     1
102
RTVSPropertyOp22
 70
     1
102
RTVSPropertyOp23
 70
     1
102
RTVSPropertyOp24
 70
     1
102
RTVSPropertyOp25
 70
     1
102
RTVSPropertyOp26
 70
     1
102
RTVSPropertyOp27
 70
     1
102
RTVSPropertyOp28
 70
     1
102
RTVSPropertyOp29
 70
     1
102
RTVSPropertyOp30
 70
     1
102
RTVSPropertyOp31
 70
     1
102
RTVSPropertyOp32
 70
     1
102
RTVSPropertyOp33
 70
     1
102
RTVSPropertyOp34
 70
     1
102
RTVSPropertyOp35
 70
     1
102
RTVSPropertyOp36
 70
     1
102
RTVSPropertyOp37
 70
     1
102
RTVSPropertyOp38
 70
     1
102
RTVSPropertyOp39
 70
     1
102
RTVSPropertyOp40
 70
     1
102
RTVSPropertyOp41
 70
     1
102
RTVSPropertyOp42
 70
     1
102
RTVSPropertyOp43
 70
     1
102
RTVSPropertyOp44
 70
     1
102
RTVSPropertyOp45
 70
     1
102
RTVSPropertyOp46
 70
     1
102
RTVSPropertyOp47
 70
     1
102
RTVSPropertyOp48
 70
     1
102
RTVSPropertyOp49
 70
     1
102
RTVSPropertyOp50
 70
     1
102
RTVSPropertyOp51
 70
     0
102
RTVSPropertyOp52
 70
     0
102
RTVSPropertyOp53
 70
     1
102
RTVSPropertyOp54
 70
     1
102
RTVSPropertyOp55
 70
     1
102
RTVSPropertyOp56
 70
     1
102
RTVSPropertyOp57
 70
     1
102
RTVSPropertyOp58
 70
     1
102
RTVSPropertyOp59
 70
     1
102
RTVSPropertyOp60
 70
     1
102
RTVSPropertyOp61
 70
     1
102
RTVSPropertyOp62
 70
     1
  0
XRECORD
  5
358
102
{ACAD_REACTORS
330
357
102
}
330
357
100
AcDbXrecord
280
     1
102
RTVSPost2010Prop28
280
     0
102
RTVSPost2010PropOp28
 70
     1
102
RTVSPost2010Prop29
280
     1
102
RTVSPost2010PropOp29
 70
     1
102
RTVSPost2010Prop30
280
     1
102
RTVSPost2010PropOp30
 70
     1
102
RTVSPost2010Prop31
280
     0
102
RTVSPost2010PropOp31
 70
     1
102
RTVSPost2010Prop32
280
     0
102
RTVSPost2010PropOp32
 70
     1
102
RTVSPost2010Prop33
280
     0
102
RTVSPost2010PropOp33
 70
     1
102
RTVSPost2010Prop34
280
     0
102
RTVSPost2010PropOp34
 70
     1
102
RTVSPost2010Prop35
280
     0
102
RTVSPost2010PropOp35
 70
     1
102
RTVSPost2010Prop36
280
     0
102
RTVSPost2010PropOp36
 70
     1
102
RTVSPost2010Prop37
 90
       50
102
RTVSPost2010PropOp37
 70
     1
102
RTVSPost2010Prop38
140
0.0
102
RTVSPost2010PropOp38
 70
     1
102
RTVSPost2010Prop39
140
1.0
102
RTVSPost2010PropOp39
 70
     1
102
RTVSPost2010Prop40
 90
        0
102
RTVSPost2010PropOp40
 70
     1
102
RTVSPost2010Prop41ColorIndex
 90
       18
102
RTVSPost2010Prop41ColorRGB
 90
        0
102
RTVSPost2010PropOp41
 70
     1
102
RTVSPost2010Prop42
 90
       50
102
RTVSPost2010PropOp42
 70
     1
102
RTVSPost2010Prop43
 90
        3
102
RTVSPost2010PropOp43
 70
     1
102
RTVSPost2010Prop44ColorIndex
 90
        5
102
RTVSPost2010Prop44ColorRGB
 90
      255
102
RTVSPost2010PropOp44
 70
     1
102
RTVSPost2010Prop45
280
     0
102
RTVSPost2010PropOp45
 70
     1
102
RTVSPost2010Prop46
 90
       50
102
RTVSPost2010PropOp46
 70
     1
102
RTVSPost2010Prop47
 90
       50
102
RTVSPost2010PropOp47
 70
     1
102
RTVSPost2010Prop48
 90
       50
102
RTVSPost2010PropOp48
 70
     1
102
RTVSPost2010Prop49
280
     0
102
RTVSPost2010PropOp49
 70
     1
102
RTVSPost2010Prop50
 90
       50
102
RTVSPost2010PropOp50
 70
     1
102
RTVSPost2010Prop51ColorIndex
 90
      256
102
RTVSPost2010Prop51ColorRGB
 90
-16777216
102
RTVSPost2010PropOp51
 70
     0
102
RTVSPost2010Prop52
140
1.0
102
RTVSPost2010PropOp52
 70
     0
102
RTVSPost2010Prop53
 90
        2
102
RTVSPost2010PropOp53
 70
     1
102
RTVSPost2010Prop54
  1
strokes_ogs.tif
102
RTVSPost2010PropOp54
 70
     1
102
RTVSPost2010Prop55
280
     0
102
RTVSPost2010PropOp55
 70
     1
102
RTVSPost2010Prop56
140
1.0
102
RTVSPost2010PropOp56
 70
     1
102
RTVSPost2010Prop57
140
1.0
102
RTVSPost2010PropOp57
 70
     1
102
RTVSPropertyOp0
 70
     1
102
RTVSPropertyOp1
 70
     1
102
RTVSPropertyOp2
 70
     1
102
RTVSPropertyOp3
 70
     1
102
RTVSPropertyOp4
 70
     1
102
RTVSPropertyOp5
 70
     1
102
RTVSPropertyOp6
 70
     1
102
RTVSPropertyOp7
 70
     1
102
RTVSPropertyOp8
 70
     1
102
RTVSPropertyOp9
 70
     1
102
RTVSPropertyOp10
 70
     1
102
RTVSPropertyOp11
 70
     1
102
RTVSPropertyOp12
 70
     1
102
RTVSPropertyOp13
 70
     1
102
RTVSPropertyOp14
 70
     1
102
RTVSPropertyOp15
 70
     1
102
RTVSPropertyOp16
 70
     1
102
RTVSPropertyOp17
 70
     1
102
RTVSPropertyOp18
 70
     1
102
RTVSPropertyOp19
 70
     1
102
RTVSPropertyOp20
 70
     1
102
RTVSPropertyOp21
 70
     1
102
RTVSPropertyOp22
 70
     1
102
RTVSPropertyOp23
 70
     1
102
RTVSPropertyOp24
 70
     1
102
RTVSPropertyOp25
 70
     1
102
RTVSPropertyOp26
 70
     1
102
RTVSPropertyOp27
 70
     1
102
RTVSPropertyOp28
 70
     1
102
RTVSPropertyOp29
 70
     1
102
RTVSPropertyOp30
 70
     1
102
RTVSPropertyOp31
 70
     1
102
RTVSPropertyOp32
 70
     1
102
RTVSPropertyOp33
 70
     1
102
RTVSPropertyOp34
 70
     1
102
RTVSPropertyOp35
 70
     1
102
RTVSPropertyOp36
 70
     1
102
RTVSPropertyOp37
 70
     1
102
RTVSPropertyOp38
 70
     1
102
RTVSPropertyOp39
 70
     1
102
RTVSPropertyOp40
 70
     1
102
RTVSPropertyOp41
 70
     1
102
RTVSPropertyOp42
 70
     1
102
RTVSPropertyOp43
 70
     1
102
RTVSPropertyOp44
 70
     1
102
RTVSPropertyOp45
 70
     1
102
RTVSPropertyOp46
 70
     1
102
RTVSPropertyOp47
 70
     1
102
RTVSPropertyOp48
 70
     1
102
RTVSPropertyOp49
 70
     1
102
RTVSPropertyOp50
 70
     1
102
RTVSPropertyOp51
 70
     0
102
RTVSPropertyOp52
 70
     0
102
RTVSPropertyOp53
 70
     1
102
RTVSPropertyOp54
 70
     1
102
RTVSPropertyOp55
 70
     1
102
RTVSPropertyOp56
 70
     1
102
RTVSPropertyOp57
 70
     1
102
RTVSPropertyOp58
 70
     1
102
RTVSPropertyOp59
 70
     1
102
RTVSPropertyOp60
 70
     1
102
RTVSPropertyOp61
 70
     1
102
RTVSPropertyOp62
 70
     1
  0
XRECORD
  5
360
102
{ACAD_REACTORS
330
35F
102
}
330
35F
100
AcDbXrecord
280
     1
102
RTVSPost2010Prop28
280
     0
102
RTVSPost2010PropOp28
 70
     1
102
RTVSPost2010Prop29
280
     1
102
RTVSPost2010PropOp29
 70
     1
102
RTVSPost2010Prop30
280
     1
102
RTVSPost2010PropOp30
 70
     1
102
RTVSPost2010Prop31
280
     0
102
RTVSPost2010PropOp31
 70
     1
102
RTVSPost2010Prop32
280
     0
102
RTVSPost2010PropOp32
 70
     1
102
RTVSPost2010Prop33
280
     0
102
RTVSPost2010PropOp33
 70
     1
102
RTVSPost2010Prop34
280
     0
102
RTVSPost2010PropOp34
 70
     1
102
RTVSPost2010Prop35
280
     0
102
RTVSPost2010PropOp35
 70
     1
102
RTVSPost2010Prop36
280
     0
102
RTVSPost2010PropOp36
 70
     1
102
RTVSPost2010Prop37
 90
       50
102
RTVSPost2010PropOp37
 70
     1
102
RTVSPost2010Prop38
140
0.0
102
RTVSPost2010PropOp38
 70
     1
102
RTVSPost2010Prop39
140
1.0
102
RTVSPost2010PropOp39
 70
     1
102
RTVSPost2010Prop40
 90
        0
102
RTVSPost2010PropOp40
 70
     1
102
RTVSPost2010Prop41ColorIndex
 90
       18
102
RTVSPost2010Prop41ColorRGB
 90
        0
102
RTVSPost2010PropOp41
 70
     1
102
RTVSPost2010Prop42
 90
       50
102
RTVSPost2010PropOp42
 70
     1
102
RTVSPost2010Prop43
 90
        3
102
RTVSPost2010PropOp43
 70
     1
102
RTVSPost2010Prop44ColorIndex
 90
        5
102
RTVSPost2010Prop44ColorRGB
 90
      255
102
RTVSPost2010PropOp44
 70
     1
102
RTVSPost2010Prop45
280
     0
102
RTVSPost2010PropOp45
 70
     1
102
RTVSPost2010Prop46
 90
       50
102
RTVSPost2010PropOp46
 70
     1
102
RTVSPost2010Prop47
 90
       50
102
RTVSPost2010PropOp47
 70
     1
102
RTVSPost2010Prop48
 90
       50
102
RTVSPost2010PropOp48
 70
     1
102
RTVSPost2010Prop49
280
     0
102
RTVSPost2010PropOp49
 70
     1
102
RTVSPost2010Prop50
 90
       50
102
RTVSPost2010PropOp50
 70
     1
102
RTVSPost2010Prop51ColorIndex
 90
      256
102
RTVSPost2010Prop51ColorRGB
 90
-16777216
102
RTVSPost2010PropOp51
 70
     0
102
RTVSPost2010Prop52
140
1.0
102
RTVSPost2010PropOp52
 70
     0
102
RTVSPost2010Prop53
 90
        2
102
RTVSPost2010PropOp53
 70
     1
102
RTVSPost2010Prop54
  1
strokes_ogs.tif
102
RTVSPost2010PropOp54
 70
     1
102
RTVSPost2010Prop55
280
     0
102
RTVSPost2010PropOp55
 70
     1
102
RTVSPost2010Prop56
140
1.0
102
RTVSPost2010PropOp56
 70
     1
102
RTVSPost2010Prop57
140
1.0
102
RTVSPost2010PropOp57
 70
     1
102
RTVSPropertyOp0
 70
     1
102
RTVSPropertyOp1
 70
     1
102
RTVSPropertyOp2
 70
     1
102
RTVSPropertyOp3
 70
     1
102
RTVSPropertyOp4
 70
     1
102
RTVSPropertyOp5
 70
     1
102
RTVSPropertyOp6
 70
     1
102
RTVSPropertyOp7
 70
     1
102
RTVSPropertyOp8
 70
     1
102
RTVSPropertyOp9
 70
     1
102
RTVSPropertyOp10
 70
     1
102
RTVSPropertyOp11
 70
     1
102
RTVSPropertyOp12
 70
     1
102
RTVSPropertyOp13
 70
     1
102
RTVSPropertyOp14
 70
     1
102
RTVSPropertyOp15
 70
     1
102
RTVSPropertyOp16
 70
     1
102
RTVSPropertyOp17
 70
     1
102
RTVSPropertyOp18
 70
     1
102
RTVSPropertyOp19
 70
     1
102
RTVSPropertyOp20
 70
     1
102
RTVSPropertyOp21
 70
     1
102
RTVSPropertyOp22
 70
     1
102
RTVSPropertyOp23
 70
     1
102
RTVSPropertyOp24
 70
     1
102
RTVSPropertyOp25
 70
     1
102
RTVSPropertyOp26
 70
     1
102
RTVSPropertyOp27
 70
     1
102
RTVSPropertyOp28
 70
     1
102
RTVSPropertyOp29
 70
     1
102
RTVSPropertyOp30
 70
     1
102
RTVSPropertyOp31
 70
     1
102
RTVSPropertyOp32
 70
     1
102
RTVSPropertyOp33
 70
     1
102
RTVSPropertyOp34
 70
     1
102
RTVSPropertyOp35
 70
     1
102
RTVSPropertyOp36
 70
     1
102
RTVSPropertyOp37
 70
     1
102
RTVSPropertyOp38
 70
     1
102
RTVSPropertyOp39
 70
     1
102
RTVSPropertyOp40
 70
     1
102
RTVSPropertyOp41
 70
     1
102
RTVSPropertyOp42
 70
     1
102
RTVSPropertyOp43
 70
     1
102
RTVSPropertyOp44
 70
     1
102
RTVSPropertyOp45
 70
     1
102
RTVSPropertyOp46
 70
     1
102
RTVSPropertyOp47
 70
     1
102
RTVSPropertyOp48
 70
     1
102
RTVSPropertyOp49
 70
     1
102
RTVSPropertyOp50
 70
     1
102
RTVSPropertyOp51
 70
     0
102
RTVSPropertyOp52
 70
     0
102
RTVSPropertyOp53
 70
     1
102
RTVSPropertyOp54
 70
     1
102
RTVSPropertyOp55
 70
     1
102
RTVSPropertyOp56
 70
     1
102
RTVSPropertyOp57
 70
     1
102
RTVSPropertyOp58
 70
     1
102
RTVSPropertyOp59
 70
     1
102
RTVSPropertyOp60
 70
     1
102
RTVSPropertyOp61
 70
     1
102
RTVSPropertyOp62
 70
     1
  0
XRECORD
  5
354
102
{ACAD_REACTORS
330
353
102
}
330
353
100
AcDbXrecord
280
     1
102
RTVSPost2010Prop28
280
     0
102
RTVSPost2010PropOp28
 70
     1
102
RTVSPost2010Prop29
280
     1
102
RTVSPost2010PropOp29
 70
     1
102
RTVSPost2010Prop30
280
     1
102
RTVSPost2010PropOp30
 70
     1
102
RTVSPost2010Prop31
280
     0
102
RTVSPost2010PropOp31
 70
     1
102
RTVSPost2010Prop32
280
     0
102
RTVSPost2010PropOp32
 70
     1
102
RTVSPost2010Prop33
280
     0
102
RTVSPost2010PropOp33
 70
     1
102
RTVSPost2010Prop34
280
     0
102
RTVSPost2010PropOp34
 70
     1
102
RTVSPost2010Prop35
280
     0
102
RTVSPost2010PropOp35
 70
     1
102
RTVSPost2010Prop36
280
     0
102
RTVSPost2010PropOp36
 70
     1
102
RTVSPost2010Prop37
 90
       50
102
RTVSPost2010PropOp37
 70
     1
102
RTVSPost2010Prop38
140
0.0
102
RTVSPost2010PropOp38
 70
     1
102
RTVSPost2010Prop39
140
1.0
102
RTVSPost2010PropOp39
 70
     1
102
RTVSPost2010Prop40
 90
        0
102
RTVSPost2010PropOp40
 70
     1
102
RTVSPost2010Prop41ColorIndex
 90
       18
102
RTVSPost2010Prop41ColorRGB
 90
        0
102
RTVSPost2010PropOp41
 70
     1
102
RTVSPost2010Prop42
 90
       50
102
RTVSPost2010PropOp42
 70
     1
102
RTVSPost2010Prop43
 90
        3
102
RTVSPost2010PropOp43
 70
     1
102
RTVSPost2010Prop44ColorIndex
 90
        5
102
RTVSPost2010Prop44ColorRGB
 90
      255
102
RTVSPost2010PropOp44
 70
     1
102
RTVSPost2010Prop45
280
     0
102
RTVSPost2010PropOp45
 70
     1
102
RTVSPost2010Prop46
 90
       50
102
RTVSPost2010PropOp46
 70
     1
102
RTVSPost2010Prop47
 90
       50
102
RTVSPost2010PropOp47
 70
     1
102
RTVSPost2010Prop48
 90
       50
102
RTVSPost2010PropOp48
 70
     1
102
RTVSPost2010Prop49
280
     0
102
RTVSPost2010PropOp49
 70
     1
102
RTVSPost2010Prop50
 90
       50
102
RTVSPost2010PropOp50
 70
     1
102
RTVSPost2010Prop51ColorIndex
 90
      256
102
RTVSPost2010Prop51ColorRGB
 90
-16777216
102
RTVSPost2010PropOp51
 70
     0
102
RTVSPost2010Prop52
140
1.0
102
RTVSPost2010PropOp52
 70
     0
102
RTVSPost2010Prop53
 90
        2
102
RTVSPost2010PropOp53
 70
     1
102
RTVSPost2010Prop54
  1
strokes_ogs.tif
102
RTVSPost2010PropOp54
 70
     1
102
RTVSPost2010Prop55
280
     0
102
RTVSPost2010PropOp55
 70
     1
102
RTVSPost2010Prop56
140
1.0
102
RTVSPost2010PropOp56
 70
     1
102
RTVSPost2010Prop57
140
1.0
102
RTVSPost2010PropOp57
 70
     1
102
RTVSPropertyOp0
 70
     1
102
RTVSPropertyOp1
 70
     1
102
RTVSPropertyOp2
 70
     1
102
RTVSPropertyOp3
 70
     1
102
RTVSPropertyOp4
 70
     1
102
RTVSPropertyOp5
 70
     1
102
RTVSPropertyOp6
 70
     1
102
RTVSPropertyOp7
 70
     1
102
RTVSPropertyOp8
 70
     1
102
RTVSPropertyOp9
 70
     1
102
RTVSPropertyOp10
 70
     1
102
RTVSPropertyOp11
 70
     1
102
RTVSPropertyOp12
 70
     1
102
RTVSPropertyOp13
 70
     1
102
RTVSPropertyOp14
 70
     1
102
RTVSPropertyOp15
 70
     1
102
RTVSPropertyOp16
 70
     1
102
RTVSPropertyOp17
 70
     1
102
RTVSPropertyOp18
 70
     1
102
RTVSPropertyOp19
 70
     1
102
RTVSPropertyOp20
 70
     1
102
RTVSPropertyOp21
 70
     1
102
RTVSPropertyOp22
 70
     1
102
RTVSPropertyOp23
 70
     1
102
RTVSPropertyOp24
 70
     1
102
RTVSPropertyOp25
 70
     1
102
RTVSPropertyOp26
 70
     1
102
RTVSPropertyOp27
 70
     1
102
RTVSPropertyOp28
 70
     1
102
RTVSPropertyOp29
 70
     1
102
RTVSPropertyOp30
 70
     1
102
RTVSPropertyOp31
 70
     1
102
RTVSPropertyOp32
 70
     1
102
RTVSPropertyOp33
 70
     1
102
RTVSPropertyOp34
 70
     1
102
RTVSPropertyOp35
 70
     1
102
RTVSPropertyOp36
 70
     1
102
RTVSPropertyOp37
 70
     1
102
RTVSPropertyOp38
 70
     1
102
RTVSPropertyOp39
 70
     1
102
RTVSPropertyOp40
 70
     1
102
RTVSPropertyOp41
 70
     1
102
RTVSPropertyOp42
 70
     1
102
RTVSPropertyOp43
 70
     1
102
RTVSPropertyOp44
 70
     1
102
RTVSPropertyOp45
 70
     1
102
RTVSPropertyOp46
 70
     1
102
RTVSPropertyOp47
 70
     1
102
RTVSPropertyOp48
 70
     1
102
RTVSPropertyOp49
 70
     1
102
RTVSPropertyOp50
 70
     1
102
RTVSPropertyOp51
 70
     0
102
RTVSPropertyOp52
 70
     0
102
RTVSPropertyOp53
 70
     1
102
RTVSPropertyOp54
 70
     1
102
RTVSPropertyOp55
 70
     1
102
RTVSPropertyOp56
 70
     1
102
RTVSPropertyOp57
 70
     1
102
RTVSPropertyOp58
 70
     1
102
RTVSPropertyOp59
 70
     1
102
RTVSPropertyOp60
 70
     1
102
RTVSPropertyOp61
 70
     1
102
RTVSPropertyOp62
 70
     1
  0
XRECORD
  5
356
102
{ACAD_REACTORS
330
355
102
}
330
355
100
AcDbXrecord
280
     1
102
RTVSPost2010Prop28
280
     0
102
RTVSPost2010PropOp28
 70
     1
102
RTVSPost2010Prop29
280
     1
102
RTVSPost2010PropOp29
 70
     1
102
RTVSPost2010Prop30
280
     1
102
RTVSPost2010PropOp30
 70
     1
102
RTVSPost2010Prop31
280
     0
102
RTVSPost2010PropOp31
 70
     1
102
RTVSPost2010Prop32
280
     0
102
RTVSPost2010PropOp32
 70
     1
102
RTVSPost2010Prop33
280
     0
102
RTVSPost2010PropOp33
 70
     1
102
RTVSPost2010Prop34
280
     0
102
RTVSPost2010PropOp34
 70
     1
102
RTVSPost2010Prop35
280
     0
102
RTVSPost2010PropOp35
 70
     1
102
RTVSPost2010Prop36
280
     0
102
RTVSPost2010PropOp36
 70
     1
102
RTVSPost2010Prop37
 90
       50
102
RTVSPost2010PropOp37
 70
     1
102
RTVSPost2010Prop38
140
0.0
102
RTVSPost2010PropOp38
 70
     1
102
RTVSPost2010Prop39
140
1.0
102
RTVSPost2010PropOp39
 70
     1
102
RTVSPost2010Prop40
 90
        0
102
RTVSPost2010PropOp40
 70
     1
102
RTVSPost2010Prop41ColorIndex
 90
       18
102
RTVSPost2010Prop41ColorRGB
 90
        0
102
RTVSPost2010PropOp41
 70
     1
102
RTVSPost2010Prop42
 90
       50
102
RTVSPost2010PropOp42
 70
     1
102
RTVSPost2010Prop43
 90
        3
102
RTVSPost2010PropOp43
 70
     1
102
RTVSPost2010Prop44ColorIndex
 90
        5
102
RTVSPost2010Prop44ColorRGB
 90
      255
102
RTVSPost2010PropOp44
 70
     1
102
RTVSPost2010Prop45
280
     0
102
RTVSPost2010PropOp45
 70
     1
102
RTVSPost2010Prop46
 90
       50
102
RTVSPost2010PropOp46
 70
     1
102
RTVSPost2010Prop47
 90
       50
102
RTVSPost2010PropOp47
 70
     1
102
RTVSPost2010Prop48
 90
       50
102
RTVSPost2010PropOp48
 70
     1
102
RTVSPost2010Prop49
280
     0
102
RTVSPost2010PropOp49
 70
     1
102
RTVSPost2010Prop50
 90
       50
102
RTVSPost2010PropOp50
 70
     1
102
RTVSPost2010Prop51ColorIndex
 90
      256
102
RTVSPost2010Prop51ColorRGB
 90
-16777216
102
RTVSPost2010PropOp51
 70
     0
102
RTVSPost2010Prop52
140
1.0
102
RTVSPost2010PropOp52
 70
     0
102
RTVSPost2010Prop53
 90
        2
102
RTVSPost2010PropOp53
 70
     1
102
RTVSPost2010Prop54
  1
strokes_ogs.tif
102
RTVSPost2010PropOp54
 70
     1
102
RTVSPost2010Prop55
280
     0
102
RTVSPost2010PropOp55
 70
     1
102
RTVSPost2010Prop56
140
1.0
102
RTVSPost2010PropOp56
 70
     1
102
RTVSPost2010Prop57
140
1.0
102
RTVSPost2010PropOp57
 70
     1
102
RTVSPropertyOp0
 70
     1
102
RTVSPropertyOp1
 70
     1
102
RTVSPropertyOp2
 70
     1
102
RTVSPropertyOp3
 70
     1
102
RTVSPropertyOp4
 70
     1
102
RTVSPropertyOp5
 70
     1
102
RTVSPropertyOp6
 70
     1
102
RTVSPropertyOp7
 70
     1
102
RTVSPropertyOp8
 70
     1
102
RTVSPropertyOp9
 70
     1
102
RTVSPropertyOp10
 70
     1
102
RTVSPropertyOp11
 70
     1
102
RTVSPropertyOp12
 70
     1
102
RTVSPropertyOp13
 70
     1
102
RTVSPropertyOp14
 70
     1
102
RTVSPropertyOp15
 70
     1
102
RTVSPropertyOp16
 70
     1
102
RTVSPropertyOp17
 70
     1
102
RTVSPropertyOp18
 70
     1
102
RTVSPropertyOp19
 70
     1
102
RTVSPropertyOp20
 70
     1
102
RTVSPropertyOp21
 70
     1
102
RTVSPropertyOp22
 70
     1
102
RTVSPropertyOp23
 70
     1
102
RTVSPropertyOp24
 70
     1
102
RTVSPropertyOp25
 70
     1
102
RTVSPropertyOp26
 70
     1
102
RTVSPropertyOp27
 70
     1
102
RTVSPropertyOp28
 70
     1
102
RTVSPropertyOp29
 70
     1
102
RTVSPropertyOp30
 70
     1
102
RTVSPropertyOp31
 70
     1
102
RTVSPropertyOp32
 70
     1
102
RTVSPropertyOp33
 70
     1
102
RTVSPropertyOp34
 70
     1
102
RTVSPropertyOp35
 70
     1
102
RTVSPropertyOp36
 70
     1
102
RTVSPropertyOp37
 70
     1
102
RTVSPropertyOp38
 70
     1
102
RTVSPropertyOp39
 70
     1
102
RTVSPropertyOp40
 70
     1
102
RTVSPropertyOp41
 70
     1
102
RTVSPropertyOp42
 70
     1
102
RTVSPropertyOp43
 70
     1
102
RTVSPropertyOp44
 70
     1
102
RTVSPropertyOp45
 70
     1
102
RTVSPropertyOp46
 70
     1
102
RTVSPropertyOp47
 70
     1
102
RTVSPropertyOp48
 70
     1
102
RTVSPropertyOp49
 70
     1
102
RTVSPropertyOp50
 70
     1
102
RTVSPropertyOp51
 70
     0
102
RTVSPropertyOp52
 70
     0
102
RTVSPropertyOp53
 70
     1
102
RTVSPropertyOp54
 70
     1
102
RTVSPropertyOp55
 70
     1
102
RTVSPropertyOp56
 70
     1
102
RTVSPropertyOp57
 70
     1
102
RTVSPropertyOp58
 70
     1
102
RTVSPropertyOp59
 70
     1
102
RTVSPropertyOp60
 70
     1
102
RTVSPropertyOp61
 70
     1
102
RTVSPropertyOp62
 70
     1
  0
XRECORD
  5
366
102
{ACAD_REACTORS
330
365
102
}
330
365
100
AcDbXrecord
280
     1
102
RTVSPost2010Prop28
280
     0
102
RTVSPost2010PropOp28
 70
     0
102
RTVSPost2010Prop29
280
     1
102
RTVSPost2010PropOp29
 70
     0
102
RTVSPost2010Prop30
280
     1
102
RTVSPost2010PropOp30
 70
     0
102
RTVSPost2010Prop31
280
     0
102
RTVSPost2010PropOp31
 70
     0
102
RTVSPost2010Prop32
280
     0
102
RTVSPost2010PropOp32
 70
     0
102
RTVSPost2010Prop33
280
     0
102
RTVSPost2010PropOp33
 70
     0
102
RTVSPost2010Prop34
280
     0
102
RTVSPost2010PropOp34
 70
     0
102
RTVSPost2010Prop35
280
     0
102
RTVSPost2010PropOp35
 70
     0
102
RTVSPost2010Prop36
280
     0
102
RTVSPost2010PropOp36
 70
     0
102
RTVSPost2010Prop37
 90
       50
102
RTVSPost2010PropOp37
 70
     0
102
RTVSPost2010Prop38
140
0.0
102
RTVSPost2010PropOp38
 70
     0
102
RTVSPost2010Prop39
140
1.0
102
RTVSPost2010PropOp39
 70
     0
102
RTVSPost2010Prop40
 90
        0
102
RTVSPost2010PropOp40
 70
     0
102
RTVSPost2010Prop41ColorIndex
 90
       18
102
RTVSPost2010Prop41ColorRGB
 90
        0
102
RTVSPost2010PropOp41
 70
     0
102
RTVSPost2010Prop42
 90
       50
102
RTVSPost2010PropOp42
 70
     0
102
RTVSPost2010Prop43
 90
        3
102
RTVSPost2010PropOp43
 70
     0
102
RTVSPost2010Prop44ColorIndex
 90
        5
102
RTVSPost2010Prop44ColorRGB
 90
      255
102
RTVSPost2010PropOp44
 70
     0
102
RTVSPost2010Prop45
280
     0
102
RTVSPost2010PropOp45
 70
     0
102
RTVSPost2010Prop46
 90
       50
102
RTVSPost2010PropOp46
 70
     0
102
RTVSPost2010Prop47
 90
       50
102
RTVSPost2010PropOp47
 70
     0
102
RTVSPost2010Prop48
 90
       50
102
RTVSPost2010PropOp48
 70
     0
102
RTVSPost2010Prop49
280
     0
102
RTVSPost2010PropOp49
 70
     0
102
RTVSPost2010Prop50
 90
       50
102
RTVSPost2010PropOp50
 70
     0
102
RTVSPost2010Prop51ColorIndex
 90
      256
102
RTVSPost2010Prop51ColorRGB
 90
-16777216
102
RTVSPost2010PropOp51
 70
     0
102
RTVSPost2010Prop52
140
1.0
102
RTVSPost2010PropOp52
 70
     0
102
RTVSPost2010Prop53
 90
        2
102
RTVSPost2010PropOp53
 70
     0
102
RTVSPost2010Prop54
  1
strokes_ogs.tif
102
RTVSPost2010PropOp54
 70
     0
102
RTVSPost2010Prop55
280
     0
102
RTVSPost2010PropOp55
 70
     0
102
RTVSPost2010Prop56
140
1.0
102
RTVSPost2010PropOp56
 70
     0
102
RTVSPost2010Prop57
140
1.0
102
RTVSPost2010PropOp57
 70
     0
102
RTVSPropertyOp0
 70
     0
102
RTVSPropertyOp1
 70
     0
102
RTVSPropertyOp2
 70
     0
102
RTVSPropertyOp3
 70
     0
102
RTVSPropertyOp4
 70
     0
102
RTVSPropertyOp5
 70
     0
102
RTVSPropertyOp6
 70
     0
102
RTVSPropertyOp7
 70
     0
102
RTVSPropertyOp8
 70
     0
102
RTVSPropertyOp9
 70
     0
102
RTVSPropertyOp10
 70
     0
102
RTVSPropertyOp11
 70
     0
102
RTVSPropertyOp12
 70
     0
102
RTVSPropertyOp13
 70
     0
102
RTVSPropertyOp14
 70
     2
102
RTVSPropertyOp15
 70
     0
102
RTVSPropertyOp16
 70
     0
102
RTVSPropertyOp17
 70
     0
102
RTVSPropertyOp18
 70
     0
102
RTVSPropertyOp19
 70
     0
102
RTVSPropertyOp20
 70
     0
102
RTVSPropertyOp21
 70
     0
102
RTVSPropertyOp22
 70
     0
102
RTVSPropertyOp23
 70
     0
102
RTVSPropertyOp24
 70
     0
102
RTVSPropertyOp25
 70
     0
102
RTVSPropertyOp26
 70
     0
102
RTVSPropertyOp27
 70
     0
102
RTVSPropertyOp28
 70
     0
102
RTVSPropertyOp29
 70
     0
102
RTVSPropertyOp30
 70
     0
102
RTVSPropertyOp31
 70
     0
102
RTVSPropertyOp32
 70
     0
102
RTVSPropertyOp33
 70
     0
102
RTVSPropertyOp34
 70
     0
102
RTVSPropertyOp35
 70
     0
102
RTVSPropertyOp36
 70
     0
102
RTVSPropertyOp37
 70
     0
102
RTVSPropertyOp38
 70
     0
102
RTVSPropertyOp39
 70
     0
102
RTVSPropertyOp40
 70
     0
102
RTVSPropertyOp41
 70
     0
102
RTVSPropertyOp42
 70
     0
102
RTVSPropertyOp43
 70
     0
102
RTVSPropertyOp44
 70
     0
102
RTVSPropertyOp45
 70
     0
102
RTVSPropertyOp46
 70
     0
102
RTVSPropertyOp47
 70
     0
102
RTVSPropertyOp48
 70
     0
102
RTVSPropertyOp49
 70
     0
102
RTVSPropertyOp50
 70
     0
102
RTVSPropertyOp51
 70
     0
102
RTVSPropertyOp52
 70
     0
102
RTVSPropertyOp53
 70
     0
102
RTVSPropertyOp54
 70
     0
102
RTVSPropertyOp55
 70
     0
102
RTVSPropertyOp56
 70
     0
102
RTVSPropertyOp57
 70
     0
102
RTVSPropertyOp58
 70
     1
102
RTVSPropertyOp59
 70
     1
102
RTVSPropertyOp60
 70
     1
102
RTVSPropertyOp61
 70
     1
102
RTVSPropertyOp62
 70
     1
  0
XRECORD
  5
35E
102
{ACAD_REACTORS
330
35D
102
}
330
35D
100
AcDbXrecord
280
     1
102
RTVSPost2010Prop28
280
     0
102
RTVSPost2010PropOp28
 70
     1
102
RTVSPost2010Prop29
280
     1
102
RTVSPost2010PropOp29
 70
     1
102
RTVSPost2010Prop30
280
     1
102
RTVSPost2010PropOp30
 70
     1
102
RTVSPost2010Prop31
280
     0
102
RTVSPost2010PropOp31
 70
     1
102
RTVSPost2010Prop32
280
     0
102
RTVSPost2010PropOp32
 70
     1
102
RTVSPost2010Prop33
280
     0
102
RTVSPost2010PropOp33
 70
     1
102
RTVSPost2010Prop34
280
     0
102
RTVSPost2010PropOp34
 70
     1
102
RTVSPost2010Prop35
280
     0
102
RTVSPost2010PropOp35
 70
     1
102
RTVSPost2010Prop36
280
     0
102
RTVSPost2010PropOp36
 70
     1
102
RTVSPost2010Prop37
 90
       50
102
RTVSPost2010PropOp37
 70
     1
102
RTVSPost2010Prop38
140
0.0
102
RTVSPost2010PropOp38
 70
     1
102
RTVSPost2010Prop39
140
1.0
102
RTVSPost2010PropOp39
 70
     1
102
RTVSPost2010Prop40
 90
        0
102
RTVSPost2010PropOp40
 70
     1
102
RTVSPost2010Prop41ColorIndex
 90
       18
102
RTVSPost2010Prop41ColorRGB
 90
        0
102
RTVSPost2010PropOp41
 70
     1
102
RTVSPost2010Prop42
 90
       50
102
RTVSPost2010PropOp42
 70
     1
102
RTVSPost2010Prop43
 90
        3
102
RTVSPost2010PropOp43
 70
     1
102
RTVSPost2010Prop44ColorIndex
 90
        5
102
RTVSPost2010Prop44ColorRGB
 90
      255
102
RTVSPost2010PropOp44
 70
     1
102
RTVSPost2010Prop45
280
     0
102
RTVSPost2010PropOp45
 70
     1
102
RTVSPost2010Prop46
 90
       50
102
RTVSPost2010PropOp46
 70
     1
102
RTVSPost2010Prop47
 90
       50
102
RTVSPost2010PropOp47
 70
     1
102
RTVSPost2010Prop48
 90
       50
102
RTVSPost2010PropOp48
 70
     1
102
RTVSPost2010Prop49
280
     0
102
RTVSPost2010PropOp49
 70
     1
102
RTVSPost2010Prop50
 90
       50
102
RTVSPost2010PropOp50
 70
     1
102
RTVSPost2010Prop51ColorIndex
 90
      256
102
RTVSPost2010Prop51ColorRGB
 90
-16777216
102
RTVSPost2010PropOp51
 70
     0
102
RTVSPost2010Prop52
140
1.0
102
RTVSPost2010PropOp52
 70
     0
102
RTVSPost2010Prop53
 90
        2
102
RTVSPost2010PropOp53
 70
     1
102
RTVSPost2010Prop54
  1
strokes_ogs.tif
102
RTVSPost2010PropOp54
 70
     1
102
RTVSPost2010Prop55
280
     0
102
RTVSPost2010PropOp55
 70
     1
102
RTVSPost2010Prop56
140
1.0
102
RTVSPost2010PropOp56
 70
     1
102
RTVSPost2010Prop57
140
1.0
102
RTVSPost2010PropOp57
 70
     1
102
RTVSPropertyOp0
 70
     1
102
RTVSPropertyOp1
 70
     1
102
RTVSPropertyOp2
 70
     1
102
RTVSPropertyOp3
 70
     1
102
RTVSPropertyOp4
 70
     1
102
RTVSPropertyOp5
 70
     1
102
RTVSPropertyOp6
 70
     1
102
RTVSPropertyOp7
 70
     1
102
RTVSPropertyOp8
 70
     1
102
RTVSPropertyOp9
 70
     1
102
RTVSPropertyOp10
 70
     1
102
RTVSPropertyOp11
 70
     1
102
RTVSPropertyOp12
 70
     1
102
RTVSPropertyOp13
 70
     1
102
RTVSPropertyOp14
 70
     1
102
RTVSPropertyOp15
 70
     1
102
RTVSPropertyOp16
 70
     1
102
RTVSPropertyOp17
 70
     1
102
RTVSPropertyOp18
 70
     1
102
RTVSPropertyOp19
 70
     1
102
RTVSPropertyOp20
 70
     1
102
RTVSPropertyOp21
 70
     1
102
RTVSPropertyOp22
 70
     1
102
RTVSPropertyOp23
 70
     1
102
RTVSPropertyOp24
 70
     1
102
RTVSPropertyOp25
 70
     1
102
RTVSPropertyOp26
 70
     1
102
RTVSPropertyOp27
 70
     1
102
RTVSPropertyOp28
 70
     1
102
RTVSPropertyOp29
 70
     1
102
RTVSPropertyOp30
 70
     1
102
RTVSPropertyOp31
 70
     1
102
RTVSPropertyOp32
 70
     1
102
RTVSPropertyOp33
 70
     1
102
RTVSPropertyOp34
 70
     1
102
RTVSPropertyOp35
 70
     1
102
RTVSPropertyOp36
 70
     1
102
RTVSPropertyOp37
 70
     1
102
RTVSPropertyOp38
 70
     1
102
RTVSPropertyOp39
 70
     1
102
RTVSPropertyOp40
 70
     1
102
RTVSPropertyOp41
 70
     1
102
RTVSPropertyOp42
 70
     1
102
RTVSPropertyOp43
 70
     1
102
RTVSPropertyOp44
 70
     1
102
RTVSPropertyOp45
 70
     1
102
RTVSPropertyOp46
 70
     1
102
RTVSPropertyOp47
 70
     1
102
RTVSPropertyOp48
 70
     1
102
RTVSPropertyOp49
 70
     1
102
RTVSPropertyOp50
 70
     1
102
RTVSPropertyOp51
 70
     0
102
RTVSPropertyOp52
 70
     0
102
RTVSPropertyOp53
 70
     1
102
RTVSPropertyOp54
 70
     1
102
RTVSPropertyOp55
 70
     1
102
RTVSPropertyOp56
 70
     1
102
RTVSPropertyOp57
 70
     1
102
RTVSPropertyOp58
 70
     1
102
RTVSPropertyOp59
 70
     1
102
RTVSPropertyOp60
 70
     1
102
RTVSPropertyOp61
 70
     1
102
RTVSPropertyOp62
 70
     1
  0
XRECORD
  5
342
102
{ACAD_REACTORS
330
341
102
}
330
341
100
AcDbXrecord
280
     1
102
RTVSPost2010Prop28
280
     0
102
RTVSPost2010PropOp28
 70
     1
102
RTVSPost2010Prop29
280
     1
102
RTVSPost2010PropOp29
 70
     1
102
RTVSPost2010Prop30
280
     1
102
RTVSPost2010PropOp30
 70
     1
102
RTVSPost2010Prop31
280
     0
102
RTVSPost2010PropOp31
 70
     1
102
RTVSPost2010Prop32
280
     0
102
RTVSPost2010PropOp32
 70
     1
102
RTVSPost2010Prop33
280
     0
102
RTVSPost2010PropOp33
 70
     1
102
RTVSPost2010Prop34
280
     0
102
RTVSPost2010PropOp34
 70
     1
102
RTVSPost2010Prop35
280
     0
102
RTVSPost2010PropOp35
 70
     1
102
RTVSPost2010Prop36
280
     0
102
RTVSPost2010PropOp36
 70
     1
102
RTVSPost2010Prop37
 90
       50
102
RTVSPost2010PropOp37
 70
     1
102
RTVSPost2010Prop38
140
0.0
102
RTVSPost2010PropOp38
 70
     1
102
RTVSPost2010Prop39
140
1.0
102
RTVSPost2010PropOp39
 70
     1
102
RTVSPost2010Prop40
 90
        0
102
RTVSPost2010PropOp40
 70
     1
102
RTVSPost2010Prop41ColorIndex
 90
       18
102
RTVSPost2010Prop41ColorRGB
 90
        0
102
RTVSPost2010PropOp41
 70
     1
102
RTVSPost2010Prop42
 90
       50
102
RTVSPost2010PropOp42
 70
     1
102
RTVSPost2010Prop43
 90
        3
102
RTVSPost2010PropOp43
 70
     1
102
RTVSPost2010Prop44ColorIndex
 90
        5
102
RTVSPost2010Prop44ColorRGB
 90
      255
102
RTVSPost2010PropOp44
 70
     1
102
RTVSPost2010Prop45
280
     0
102
RTVSPost2010PropOp45
 70
     1
102
RTVSPost2010Prop46
 90
       50
102
RTVSPost2010PropOp46
 70
     1
102
RTVSPost2010Prop47
 90
       50
102
RTVSPost2010PropOp47
 70
     1
102
RTVSPost2010Prop48
 90
       50
102
RTVSPost2010PropOp48
 70
     1
102
RTVSPost2010Prop49
280
     0
102
RTVSPost2010PropOp49
 70
     1
102
RTVSPost2010Prop50
 90
       50
102
RTVSPost2010PropOp50
 70
     1
102
RTVSPost2010Prop51ColorIndex
 90
      256
102
RTVSPost2010Prop51ColorRGB
 90
-16777216
102
RTVSPost2010PropOp51
 70
     0
102
RTVSPost2010Prop52
140
1.0
102
RTVSPost2010PropOp52
 70
     0
102
RTVSPost2010Prop53
 90
        2
102
RTVSPost2010PropOp53
 70
     1
102
RTVSPost2010Prop54
  1
strokes_ogs.tif
102
RTVSPost2010PropOp54
 70
     1
102
RTVSPost2010Prop55
280
     0
102
RTVSPost2010PropOp55
 70
     1
102
RTVSPost2010Prop56
140
1.0
102
RTVSPost2010PropOp56
 70
     1
102
RTVSPost2010Prop57
140
1.0
102
RTVSPost2010PropOp57
 70
     1
102
RTVSPropertyOp0
 70
     1
102
RTVSPropertyOp1
 70
     1
102
RTVSPropertyOp2
 70
     1
102
RTVSPropertyOp3
 70
     1
102
RTVSPropertyOp4
 70
     1
102
RTVSPropertyOp5
 70
     1
102
RTVSPropertyOp6
 70
     1
102
RTVSPropertyOp7
 70
     1
102
RTVSPropertyOp8
 70
     1
102
RTVSPropertyOp9
 70
     1
102
RTVSPropertyOp10
 70
     1
102
RTVSPropertyOp11
 70
     1
102
RTVSPropertyOp12
 70
     1
102
RTVSPropertyOp13
 70
     1
102
RTVSPropertyOp14
 70
     1
102
RTVSPropertyOp15
 70
     1
102
RTVSPropertyOp16
 70
     1
102
RTVSPropertyOp17
 70
     1
102
RTVSPropertyOp18
 70
     1
102
RTVSPropertyOp19
 70
     1
102
RTVSPropertyOp20
 70
     1
102
RTVSPropertyOp21
 70
     1
102
RTVSPropertyOp22
 70
     1
102
RTVSPropertyOp23
 70
     1
102
RTVSPropertyOp24
 70
     1
102
RTVSPropertyOp25
 70
     1
102
RTVSPropertyOp26
 70
     1
102
RTVSPropertyOp27
 70
     1
102
RTVSPropertyOp28
 70
     1
102
RTVSPropertyOp29
 70
     1
102
RTVSPropertyOp30
 70
     1
102
RTVSPropertyOp31
 70
     1
102
RTVSPropertyOp32
 70
     1
102
RTVSPropertyOp33
 70
     1
102
RTVSPropertyOp34
 70
     1
102
RTVSPropertyOp35
 70
     1
102
RTVSPropertyOp36
 70
     1
102
RTVSPropertyOp37
 70
     1
102
RTVSPropertyOp38
 70
     1
102
RTVSPropertyOp39
 70
     1
102
RTVSPropertyOp40
 70
     1
102
RTVSPropertyOp41
 70
     1
102
RTVSPropertyOp42
 70
     1
102
RTVSPropertyOp43
 70
     1
102
RTVSPropertyOp44
 70
     1
102
RTVSPropertyOp45
 70
     1
102
RTVSPropertyOp46
 70
     1
102
RTVSPropertyOp47
 70
     1
102
RTVSPropertyOp48
 70
     1
102
RTVSPropertyOp49
 70
     1
102
RTVSPropertyOp50
 70
     1
102
RTVSPropertyOp51
 70
     0
102
RTVSPropertyOp52
 70
     0
102
RTVSPropertyOp53
 70
     1
102
RTVSPropertyOp54
 70
     1
102
RTVSPropertyOp55
 70
     1
102
RTVSPropertyOp56
 70
     1
102
RTVSPropertyOp57
 70
     1
102
RTVSPropertyOp58
 70
     1
102
RTVSPropertyOp59
 70
     1
102
RTVSPropertyOp60
 70
     1
102
RTVSPropertyOp61
 70
     1
102
RTVSPropertyOp62
 70
     1
  0
XRECORD
  5
344
102
{ACAD_REACTORS
330
343
102
}
330
343
100
AcDbXrecord
280
     1
102
RTVSPost2010Prop28
280
     0
102
RTVSPost2010PropOp28
 70
     1
102
RTVSPost2010Prop29
280
     1
102
RTVSPost2010PropOp29
 70
     1
102
RTVSPost2010Prop30
280
     1
102
RTVSPost2010PropOp30
 70
     1
102
RTVSPost2010Prop31
280
     0
102
RTVSPost2010PropOp31
 70
     1
102
RTVSPost2010Prop32
280
     0
102
RTVSPost2010PropOp32
 70
     1
102
RTVSPost2010Prop33
280
     0
102
RTVSPost2010PropOp33
 70
     1
102
RTVSPost2010Prop34
280
     0
102
RTVSPost2010PropOp34
 70
     1
102
RTVSPost2010Prop35
280
     0
102
RTVSPost2010PropOp35
 70
     1
102
RTVSPost2010Prop36
280
     0
102
RTVSPost2010PropOp36
 70
     1
102
RTVSPost2010Prop37
 90
       50
102
RTVSPost2010PropOp37
 70
     1
102
RTVSPost2010Prop38
140
0.0
102
RTVSPost2010PropOp38
 70
     1
102
RTVSPost2010Prop39
140
1.0
102
RTVSPost2010PropOp39
 70
     1
102
RTVSPost2010Prop40
 90
        0
102
RTVSPost2010PropOp40
 70
     1
102
RTVSPost2010Prop41ColorIndex
 90
       18
102
RTVSPost2010Prop41ColorRGB
 90
        0
102
RTVSPost2010PropOp41
 70
     1
102
RTVSPost2010Prop42
 90
       50
102
RTVSPost2010PropOp42
 70
     1
102
RTVSPost2010Prop43
 90
        3
102
RTVSPost2010PropOp43
 70
     1
102
RTVSPost2010Prop44ColorIndex
 90
        5
102
RTVSPost2010Prop44ColorRGB
 90
      255
102
RTVSPost2010PropOp44
 70
     1
102
RTVSPost2010Prop45
280
     0
102
RTVSPost2010PropOp45
 70
     1
102
RTVSPost2010Prop46
 90
       50
102
RTVSPost2010PropOp46
 70
     1
102
RTVSPost2010Prop47
 90
       50
102
RTVSPost2010PropOp47
 70
     1
102
RTVSPost2010Prop48
 90
       50
102
RTVSPost2010PropOp48
 70
     1
102
RTVSPost2010Prop49
280
     0
102
RTVSPost2010PropOp49
 70
     1
102
RTVSPost2010Prop50
 90
       50
102
RTVSPost2010PropOp50
 70
     1
102
RTVSPost2010Prop51ColorIndex
 90
      256
102
RTVSPost2010Prop51ColorRGB
 90
-16777216
102
RTVSPost2010PropOp51
 70
     0
102
RTVSPost2010Prop52
140
1.0
102
RTVSPost2010PropOp52
 70
     0
102
RTVSPost2010Prop53
 90
        2
102
RTVSPost2010PropOp53
 70
     1
102
RTVSPost2010Prop54
  1
strokes_ogs.tif
102
RTVSPost2010PropOp54
 70
     1
102
RTVSPost2010Prop55
280
     0
102
RTVSPost2010PropOp55
 70
     1
102
RTVSPost2010Prop56
140
1.0
102
RTVSPost2010PropOp56
 70
     1
102
RTVSPost2010Prop57
140
1.0
102
RTVSPost2010PropOp57
 70
     1
102
RTVSPropertyOp0
 70
     1
102
RTVSPropertyOp1
 70
     1
102
RTVSPropertyOp2
 70
     1
102
RTVSPropertyOp3
 70
     1
102
RTVSPropertyOp4
 70
     1
102
RTVSPropertyOp5
 70
     1
102
RTVSPropertyOp6
 70
     1
102
RTVSPropertyOp7
 70
     1
102
RTVSPropertyOp8
 70
     1
102
RTVSPropertyOp9
 70
     1
102
RTVSPropertyOp10
 70
     1
102
RTVSPropertyOp11
 70
     1
102
RTVSPropertyOp12
 70
     1
102
RTVSPropertyOp13
 70
     1
102
RTVSPropertyOp14
 70
     1
102
RTVSPropertyOp15
 70
     1
102
RTVSPropertyOp16
 70
     1
102
RTVSPropertyOp17
 70
     1
102
RTVSPropertyOp18
 70
     1
102
RTVSPropertyOp19
 70
     1
102
RTVSPropertyOp20
 70
     1
102
RTVSPropertyOp21
 70
     1
102
RTVSPropertyOp22
 70
     1
102
RTVSPropertyOp23
 70
     1
102
RTVSPropertyOp24
 70
     1
102
RTVSPropertyOp25
 70
     1
102
RTVSPropertyOp26
 70
     1
102
RTVSPropertyOp27
 70
     1
102
RTVSPropertyOp28
 70
     1
102
RTVSPropertyOp29
 70
     1
102
RTVSPropertyOp30
 70
     1
102
RTVSPropertyOp31
 70
     1
102
RTVSPropertyOp32
 70
     1
102
RTVSPropertyOp33
 70
     1
102
RTVSPropertyOp34
 70
     1
102
RTVSPropertyOp35
 70
     1
102
RTVSPropertyOp36
 70
     1
102
RTVSPropertyOp37
 70
     1
102
RTVSPropertyOp38
 70
     1
102
RTVSPropertyOp39
 70
     1
102
RTVSPropertyOp40
 70
     1
102
RTVSPropertyOp41
 70
     1
102
RTVSPropertyOp42
 70
     1
102
RTVSPropertyOp43
 70
     1
102
RTVSPropertyOp44
 70
     1
102
RTVSPropertyOp45
 70
     1
102
RTVSPropertyOp46
 70
     1
102
RTVSPropertyOp47
 70
     1
102
RTVSPropertyOp48
 70
     1
102
RTVSPropertyOp49
 70
     1
102
RTVSPropertyOp50
 70
     1
102
RTVSPropertyOp51
 70
     0
102
RTVSPropertyOp52
 70
     0
102
RTVSPropertyOp53
 70
     1
102
RTVSPropertyOp54
 70
     1
102
RTVSPropertyOp55
 70
     1
102
RTVSPropertyOp56
 70
     1
102
RTVSPropertyOp57
 70
     1
102
RTVSPropertyOp58
 70
     1
102
RTVSPropertyOp59
 70
     1
102
RTVSPropertyOp60
 70
     1
102
RTVSPropertyOp61
 70
     1
102
RTVSPropertyOp62
 70
     1
  0
XRECORD
  5
346
102
{ACAD_REACTORS
330
345
102
}
330
345
100
AcDbXrecord
280
     1
102
RTVSPost2010Prop28
280
     0
102
RTVSPost2010PropOp28
 70
     1
102
RTVSPost2010Prop29
280
     1
102
RTVSPost2010PropOp29
 70
     1
102
RTVSPost2010Prop30
280
     1
102
RTVSPost2010PropOp30
 70
     1
102
RTVSPost2010Prop31
280
     0
102
RTVSPost2010PropOp31
 70
     1
102
RTVSPost2010Prop32
280
     0
102
RTVSPost2010PropOp32
 70
     1
102
RTVSPost2010Prop33
280
     0
102
RTVSPost2010PropOp33
 70
     1
102
RTVSPost2010Prop34
280
     0
102
RTVSPost2010PropOp34
 70
     1
102
RTVSPost2010Prop35
280
     0
102
RTVSPost2010PropOp35
 70
     1
102
RTVSPost2010Prop36
280
     0
102
RTVSPost2010PropOp36
 70
     1
102
RTVSPost2010Prop37
 90
       50
102
RTVSPost2010PropOp37
 70
     1
102
RTVSPost2010Prop38
140
0.0
102
RTVSPost2010PropOp38
 70
     1
102
RTVSPost2010Prop39
140
1.0
102
RTVSPost2010PropOp39
 70
     1
102
RTVSPost2010Prop40
 90
        0
102
RTVSPost2010PropOp40
 70
     1
102
RTVSPost2010Prop41ColorIndex
 90
       18
102
RTVSPost2010Prop41ColorRGB
 90
        0
102
RTVSPost2010PropOp41
 70
     1
102
RTVSPost2010Prop42
 90
       50
102
RTVSPost2010PropOp42
 70
     1
102
RTVSPost2010Prop43
 90
        3
102
RTVSPost2010PropOp43
 70
     1
102
RTVSPost2010Prop44ColorIndex
 90
        5
102
RTVSPost2010Prop44ColorRGB
 90
      255
102
RTVSPost2010PropOp44
 70
     1
102
RTVSPost2010Prop45
280
     0
102
RTVSPost2010PropOp45
 70
     1
102
RTVSPost2010Prop46
 90
       50
102
RTVSPost2010PropOp46
 70
     1
102
RTVSPost2010Prop47
 90
       50
102
RTVSPost2010PropOp47
 70
     1
102
RTVSPost2010Prop48
 90
       50
102
RTVSPost2010PropOp48
 70
     1
102
RTVSPost2010Prop49
280
     0
102
RTVSPost2010PropOp49
 70
     1
102
RTVSPost2010Prop50
 90
       50
102
RTVSPost2010PropOp50
 70
     1
102
RTVSPost2010Prop51ColorIndex
 90
      256
102
RTVSPost2010Prop51ColorRGB
 90
-16777216
102
RTVSPost2010PropOp51
 70
     0
102
RTVSPost2010Prop52
140
1.0
102
RTVSPost2010PropOp52
 70
     0
102
RTVSPost2010Prop53
 90
        2
102
RTVSPost2010PropOp53
 70
     1
102
RTVSPost2010Prop54
  1
strokes_ogs.tif
102
RTVSPost2010PropOp54
 70
     1
102
RTVSPost2010Prop55
280
     0
102
RTVSPost2010PropOp55
 70
     1
102
RTVSPost2010Prop56
140
1.0
102
RTVSPost2010PropOp56
 70
     1
102
RTVSPost2010Prop57
140
1.0
102
RTVSPost2010PropOp57
 70
     1
102
RTVSPropertyOp0
 70
     1
102
RTVSPropertyOp1
 70
     1
102
RTVSPropertyOp2
 70
     1
102
RTVSPropertyOp3
 70
     1
102
RTVSPropertyOp4
 70
     1
102
RTVSPropertyOp5
 70
     1
102
RTVSPropertyOp6
 70
     1
102
RTVSPropertyOp7
 70
     1
102
RTVSPropertyOp8
 70
     1
102
RTVSPropertyOp9
 70
     1
102
RTVSPropertyOp10
 70
     1
102
RTVSPropertyOp11
 70
     1
102
RTVSPropertyOp12
 70
     1
102
RTVSPropertyOp13
 70
     1
102
RTVSPropertyOp14
 70
     1
102
RTVSPropertyOp15
 70
     1
102
RTVSPropertyOp16
 70
     1
102
RTVSPropertyOp17
 70
     1
102
RTVSPropertyOp18
 70
     1
102
RTVSPropertyOp19
 70
     1
102
RTVSPropertyOp20
 70
     1
102
RTVSPropertyOp21
 70
     1
102
RTVSPropertyOp22
 70
     1
102
RTVSPropertyOp23
 70
     1
102
RTVSPropertyOp24
 70
     1
102
RTVSPropertyOp25
 70
     1
102
RTVSPropertyOp26
 70
     1
102
RTVSPropertyOp27
 70
     1
102
RTVSPropertyOp28
 70
     1
102
RTVSPropertyOp29
 70
     1
102
RTVSPropertyOp30
 70
     1
102
RTVSPropertyOp31
 70
     1
102
RTVSPropertyOp32
 70
     1
102
RTVSPropertyOp33
 70
     1
102
RTVSPropertyOp34
 70
     1
102
RTVSPropertyOp35
 70
     1
102
RTVSPropertyOp36
 70
     1
102
RTVSPropertyOp37
 70
     1
102
RTVSPropertyOp38
 70
     1
102
RTVSPropertyOp39
 70
     1
102
RTVSPropertyOp40
 70
     1
102
RTVSPropertyOp41
 70
     1
102
RTVSPropertyOp42
 70
     1
102
RTVSPropertyOp43
 70
     1
102
RTVSPropertyOp44
 70
     1
102
RTVSPropertyOp45
 70
     1
102
RTVSPropertyOp46
 70
     1
102
RTVSPropertyOp47
 70
     1
102
RTVSPropertyOp48
 70
     1
102
RTVSPropertyOp49
 70
     1
102
RTVSPropertyOp50
 70
     1
102
RTVSPropertyOp51
 70
     0
102
RTVSPropertyOp52
 70
     0
102
RTVSPropertyOp53
 70
     1
102
RTVSPropertyOp54
 70
     1
102
RTVSPropertyOp55
 70
     1
102
RTVSPropertyOp56
 70
     1
102
RTVSPropertyOp57
 70
     1
102
RTVSPropertyOp58
 70
     1
102
RTVSPropertyOp59
 70
     1
102
RTVSPropertyOp60
 70
     1
102
RTVSPropertyOp61
 70
     1
102
RTVSPropertyOp62
 70
     1
  0
XRECORD
  5
348
102
{ACAD_REACTORS
330
347
102
}
330
347
100
AcDbXrecord
280
     1
102
RTVSPost2010Prop28
280
     0
102
RTVSPost2010PropOp28
 70
     1
102
RTVSPost2010Prop29
280
     1
102
RTVSPost2010PropOp29
 70
     1
102
RTVSPost2010Prop30
280
     1
102
RTVSPost2010PropOp30
 70
     1
102
RTVSPost2010Prop31
280
     0
102
RTVSPost2010PropOp31
 70
     1
102
RTVSPost2010Prop32
280
     0
102
RTVSPost2010PropOp32
 70
     1
102
RTVSPost2010Prop33
280
     0
102
RTVSPost2010PropOp33
 70
     1
102
RTVSPost2010Prop34
280
     0
102
RTVSPost2010PropOp34
 70
     1
102
RTVSPost2010Prop35
280
     0
102
RTVSPost2010PropOp35
 70
     1
102
RTVSPost2010Prop36
280
     0
102
RTVSPost2010PropOp36
 70
     1
102
RTVSPost2010Prop37
 90
       50
102
RTVSPost2010PropOp37
 70
     1
102
RTVSPost2010Prop38
140
0.0
102
RTVSPost2010PropOp38
 70
     1
102
RTVSPost2010Prop39
140
1.0
102
RTVSPost2010PropOp39
 70
     1
102
RTVSPost2010Prop40
 90
        0
102
RTVSPost2010PropOp40
 70
     1
102
RTVSPost2010Prop41ColorIndex
 90
       18
102
RTVSPost2010Prop41ColorRGB
 90
        0
102
RTVSPost2010PropOp41
 70
     1
102
RTVSPost2010Prop42
 90
       50
102
RTVSPost2010PropOp42
 70
     1
102
RTVSPost2010Prop43
 90
        3
102
RTVSPost2010PropOp43
 70
     1
102
RTVSPost2010Prop44ColorIndex
 90
        5
102
RTVSPost2010Prop44ColorRGB
 90
      255
102
RTVSPost2010PropOp44
 70
     1
102
RTVSPost2010Prop45
280
     0
102
RTVSPost2010PropOp45
 70
     1
102
RTVSPost2010Prop46
 90
       50
102
RTVSPost2010PropOp46
 70
     1
102
RTVSPost2010Prop47
 90
       50
102
RTVSPost2010PropOp47
 70
     1
102
RTVSPost2010Prop48
 90
       50
102
RTVSPost2010PropOp48
 70
     1
102
RTVSPost2010Prop49
280
     0
102
RTVSPost2010PropOp49
 70
     1
102
RTVSPost2010Prop50
 90
       50
102
RTVSPost2010PropOp50
 70
     1
102
RTVSPost2010Prop51ColorIndex
 90
      256
102
RTVSPost2010Prop51ColorRGB
 90
-16777216
102
RTVSPost2010PropOp51
 70
     0
102
RTVSPost2010Prop52
140
1.0
102
RTVSPost2010PropOp52
 70
     0
102
RTVSPost2010Prop53
 90
        2
102
RTVSPost2010PropOp53
 70
     1
102
RTVSPost2010Prop54
  1
strokes_ogs.tif
102
RTVSPost2010PropOp54
 70
     1
102
RTVSPost2010Prop55
280
     0
102
RTVSPost2010PropOp55
 70
     1
102
RTVSPost2010Prop56
140
1.0
102
RTVSPost2010PropOp56
 70
     1
102
RTVSPost2010Prop57
140
1.0
102
RTVSPost2010PropOp57
 70
     1
102
RTVSPropertyOp0
 70
     1
102
RTVSPropertyOp1
 70
     1
102
RTVSPropertyOp2
 70
     1
102
RTVSPropertyOp3
 70
     1
102
RTVSPropertyOp4
 70
     1
102
RTVSPropertyOp5
 70
     1
102
RTVSPropertyOp6
 70
     1
102
RTVSPropertyOp7
 70
     1
102
RTVSPropertyOp8
 70
     1
102
RTVSPropertyOp9
 70
     1
102
RTVSPropertyOp10
 70
     1
102
RTVSPropertyOp11
 70
     1
102
RTVSPropertyOp12
 70
     1
102
RTVSPropertyOp13
 70
     1
102
RTVSPropertyOp14
 70
     1
102
RTVSPropertyOp15
 70
     1
102
RTVSPropertyOp16
 70
     1
102
RTVSPropertyOp17
 70
     1
102
RTVSPropertyOp18
 70
     1
102
RTVSPropertyOp19
 70
     1
102
RTVSPropertyOp20
 70
     1
102
RTVSPropertyOp21
 70
     1
102
RTVSPropertyOp22
 70
     1
102
RTVSPropertyOp23
 70
     1
102
RTVSPropertyOp24
 70
     1
102
RTVSPropertyOp25
 70
     1
102
RTVSPropertyOp26
 70
     1
102
RTVSPropertyOp27
 70
     1
102
RTVSPropertyOp28
 70
     1
102
RTVSPropertyOp29
 70
     1
102
RTVSPropertyOp30
 70
     1
102
RTVSPropertyOp31
 70
     1
102
RTVSPropertyOp32
 70
     1
102
RTVSPropertyOp33
 70
     1
102
RTVSPropertyOp34
 70
     1
102
RTVSPropertyOp35
 70
     1
102
RTVSPropertyOp36
 70
     1
102
RTVSPropertyOp37
 70
     1
102
RTVSPropertyOp38
 70
     1
102
RTVSPropertyOp39
 70
     1
102
RTVSPropertyOp40
 70
     1
102
RTVSPropertyOp41
 70
     1
102
RTVSPropertyOp42
 70
     1
102
RTVSPropertyOp43
 70
     1
102
RTVSPropertyOp44
 70
     1
102
RTVSPropertyOp45
 70
     1
102
RTVSPropertyOp46
 70
     1
102
RTVSPropertyOp47
 70
     1
102
RTVSPropertyOp48
 70
     1
102
RTVSPropertyOp49
 70
     1
102
RTVSPropertyOp50
 70
     1
102
RTVSPropertyOp51
 70
     0
102
RTVSPropertyOp52
 70
     0
102
RTVSPropertyOp53
 70
     1
102
RTVSPropertyOp54
 70
     1
102
RTVSPropertyOp55
 70
     1
102
RTVSPropertyOp56
 70
     1
102
RTVSPropertyOp57
 70
     1
102
RTVSPropertyOp58
 70
     1
102
RTVSPropertyOp59
 70
     1
102
RTVSPropertyOp60
 70
     1
102
RTVSPropertyOp61
 70
     1
102
RTVSPropertyOp62
 70
     1
  0
XRECORD
  5
34E
102
{ACAD_REACTORS
330
34D
102
}
330
34D
100
AcDbXrecord
280
     1
102
RTVSPost2010Prop28
280
     0
102
RTVSPost2010PropOp28
 70
     1
102
RTVSPost2010Prop29
280
     1
102
RTVSPost2010PropOp29
 70
     1
102
RTVSPost2010Prop30
280
     1
102
RTVSPost2010PropOp30
 70
     1
102
RTVSPost2010Prop31
280
     0
102
RTVSPost2010PropOp31
 70
     1
102
RTVSPost2010Prop32
280
     0
102
RTVSPost2010PropOp32
 70
     1
102
RTVSPost2010Prop33
280
     0
102
RTVSPost2010PropOp33
 70
     1
102
RTVSPost2010Prop34
280
     0
102
RTVSPost2010PropOp34
 70
     1
102
RTVSPost2010Prop35
280
     0
102
RTVSPost2010PropOp35
 70
     1
102
RTVSPost2010Prop36
280
     0
102
RTVSPost2010PropOp36
 70
     1
102
RTVSPost2010Prop37
 90
       50
102
RTVSPost2010PropOp37
 70
     1
102
RTVSPost2010Prop38
140
0.0
102
RTVSPost2010PropOp38
 70
     1
102
RTVSPost2010Prop39
140
1.0
102
RTVSPost2010PropOp39
 70
     1
102
RTVSPost2010Prop40
 90
        0
102
RTVSPost2010PropOp40
 70
     1
102
RTVSPost2010Prop41ColorIndex
 90
       18
102
RTVSPost2010Prop41ColorRGB
 90
        0
102
RTVSPost2010PropOp41
 70
     1
102
RTVSPost2010Prop42
 90
       50
102
RTVSPost2010PropOp42
 70
     1
102
RTVSPost2010Prop43
 90
        3
102
RTVSPost2010PropOp43
 70
     1
102
RTVSPost2010Prop44ColorIndex
 90
        5
102
RTVSPost2010Prop44ColorRGB
 90
      255
102
RTVSPost2010PropOp44
 70
     1
102
RTVSPost2010Prop45
280
     0
102
RTVSPost2010PropOp45
 70
     1
102
RTVSPost2010Prop46
 90
       50
102
RTVSPost2010PropOp46
 70
     1
102
RTVSPost2010Prop47
 90
       50
102
RTVSPost2010PropOp47
 70
     1
102
RTVSPost2010Prop48
 90
       50
102
RTVSPost2010PropOp48
 70
     1
102
RTVSPost2010Prop49
280
     0
102
RTVSPost2010PropOp49
 70
     1
102
RTVSPost2010Prop50
 90
       50
102
RTVSPost2010PropOp50
 70
     1
102
RTVSPost2010Prop51ColorIndex
 90
      256
102
RTVSPost2010Prop51ColorRGB
 90
-16777216
102
RTVSPost2010PropOp51
 70
     0
102
RTVSPost2010Prop52
140
1.0
102
RTVSPost2010PropOp52
 70
     0
102
RTVSPost2010Prop53
 90
        2
102
RTVSPost2010PropOp53
 70
     1
102
RTVSPost2010Prop54
  1
strokes_ogs.tif
102
RTVSPost2010PropOp54
 70
     1
102
RTVSPost2010Prop55
280
     0
102
RTVSPost2010PropOp55
 70
     1
102
RTVSPost2010Prop56
140
1.0
102
RTVSPost2010PropOp56
 70
     1
102
RTVSPost2010Prop57
140
1.0
102
RTVSPost2010PropOp57
 70
     1
102
RTVSPropertyOp0
 70
     1
102
RTVSPropertyOp1
 70
     1
102
RTVSPropertyOp2
 70
     1
102
RTVSPropertyOp3
 70
     1
102
RTVSPropertyOp4
 70
     1
102
RTVSPropertyOp5
 70
     1
102
RTVSPropertyOp6
 70
     1
102
RTVSPropertyOp7
 70
     1
102
RTVSPropertyOp8
 70
     1
102
RTVSPropertyOp9
 70
     1
102
RTVSPropertyOp10
 70
     1
102
RTVSPropertyOp11
 70
     1
102
RTVSPropertyOp12
 70
     1
102
RTVSPropertyOp13
 70
     1
102
RTVSPropertyOp14
 70
     1
102
RTVSPropertyOp15
 70
     1
102
RTVSPropertyOp16
 70
     1
102
RTVSPropertyOp17
 70
     1
102
RTVSPropertyOp18
 70
     1
102
RTVSPropertyOp19
 70
     1
102
RTVSPropertyOp20
 70
     1
102
RTVSPropertyOp21
 70
     1
102
RTVSPropertyOp22
 70
     1
102
RTVSPropertyOp23
 70
     1
102
RTVSPropertyOp24
 70
     1
102
RTVSPropertyOp25
 70
     1
102
RTVSPropertyOp26
 70
     1
102
RTVSPropertyOp27
 70
     1
102
RTVSPropertyOp28
 70
     1
102
RTVSPropertyOp29
 70
     1
102
RTVSPropertyOp30
 70
     1
102
RTVSPropertyOp31
 70
     1
102
RTVSPropertyOp32
 70
     1
102
RTVSPropertyOp33
 70
     1
102
RTVSPropertyOp34
 70
     1
102
RTVSPropertyOp35
 70
     1
102
RTVSPropertyOp36
 70
     1
102
RTVSPropertyOp37
 70
     1
102
RTVSPropertyOp38
 70
     1
102
RTVSPropertyOp39
 70
     1
102
RTVSPropertyOp40
 70
     1
102
RTVSPropertyOp41
 70
     1
102
RTVSPropertyOp42
 70
     1
102
RTVSPropertyOp43
 70
     1
102
RTVSPropertyOp44
 70
     1
102
RTVSPropertyOp45
 70
     1
102
RTVSPropertyOp46
 70
     1
102
RTVSPropertyOp47
 70
     1
102
RTVSPropertyOp48
 70
     1
102
RTVSPropertyOp49
 70
     1
102
RTVSPropertyOp50
 70
     1
102
RTVSPropertyOp51
 70
     0
102
RTVSPropertyOp52
 70
     0
102
RTVSPropertyOp53
 70
     1
102
RTVSPropertyOp54
 70
     1
102
RTVSPropertyOp55
 70
     1
102
RTVSPropertyOp56
 70
     1
102
RTVSPropertyOp57
 70
     1
102
RTVSPropertyOp58
 70
     1
102
RTVSPropertyOp59
 70
     1
102
RTVSPropertyOp60
 70
     1
102
RTVSPropertyOp61
 70
     1
102
RTVSPropertyOp62
 70
     1
  0
XRECORD
  5
362
102
{ACAD_REACTORS
330
361
102
}
330
361
100
AcDbXrecord
280
     1
102
RTVSPost2010Prop28
280
     0
102
RTVSPost2010PropOp28
 70
     0
102
RTVSPost2010Prop29
280
     1
102
RTVSPost2010PropOp29
 70
     0
102
RTVSPost2010Prop30
280
     1
102
RTVSPost2010PropOp30
 70
     0
102
RTVSPost2010Prop31
280
     0
102
RTVSPost2010PropOp31
 70
     0
102
RTVSPost2010Prop32
280
     0
102
RTVSPost2010PropOp32
 70
     0
102
RTVSPost2010Prop33
280
     0
102
RTVSPost2010PropOp33
 70
     0
102
RTVSPost2010Prop34
280
     0
102
RTVSPost2010PropOp34
 70
     0
102
RTVSPost2010Prop35
280
     0
102
RTVSPost2010PropOp35
 70
     0
102
RTVSPost2010Prop36
280
     0
102
RTVSPost2010PropOp36
 70
     0
102
RTVSPost2010Prop37
 90
       50
102
RTVSPost2010PropOp37
 70
     0
102
RTVSPost2010Prop38
140
0.0
102
RTVSPost2010PropOp38
 70
     0
102
RTVSPost2010Prop39
140
1.0
102
RTVSPost2010PropOp39
 70
     0
102
RTVSPost2010Prop40
 90
        0
102
RTVSPost2010PropOp40
 70
     0
102
RTVSPost2010Prop41ColorIndex
 90
       18
102
RTVSPost2010Prop41ColorRGB
 90
        0
102
RTVSPost2010PropOp41
 70
     0
102
RTVSPost2010Prop42
 90
       50
102
RTVSPost2010PropOp42
 70
     0
102
RTVSPost2010Prop43
 90
        3
102
RTVSPost2010PropOp43
 70
     0
102
RTVSPost2010Prop44ColorIndex
 90
        5
102
RTVSPost2010Prop44ColorRGB
 90
      255
102
RTVSPost2010PropOp44
 70
     0
102
RTVSPost2010Prop45
280
     0
102
RTVSPost2010PropOp45
 70
     0
102
RTVSPost2010Prop46
 90
       50
102
RTVSPost2010PropOp46
 70
     0
102
RTVSPost2010Prop47
 90
       50
102
RTVSPost2010PropOp47
 70
     0
102
RTVSPost2010Prop48
 90
       50
102
RTVSPost2010PropOp48
 70
     0
102
RTVSPost2010Prop49
280
     0
102
RTVSPost2010PropOp49
 70
     0
102
RTVSPost2010Prop50
 90
       50
102
RTVSPost2010PropOp50
 70
     0
102
RTVSPost2010Prop51ColorIndex
 90
      256
102
RTVSPost2010Prop51ColorRGB
 90
-16777216
102
RTVSPost2010PropOp51
 70
     0
102
RTVSPost2010Prop52
140
1.0
102
RTVSPost2010PropOp52
 70
     0
102
RTVSPost2010Prop53
 90
        2
102
RTVSPost2010PropOp53
 70
     0
102
RTVSPost2010Prop54
  1
strokes_ogs.tif
102
RTVSPost2010PropOp54
 70
     0
102
RTVSPost2010Prop55
280
     0
102
RTVSPost2010PropOp55
 70
     0
102
RTVSPost2010Prop56
140
1.0
102
RTVSPost2010PropOp56
 70
     0
102
RTVSPost2010Prop57
140
1.0
102
RTVSPost2010PropOp57
 70
     0
102
RTVSPropertyOp0
 70
     0
102
RTVSPropertyOp1
 70
     0
102
RTVSPropertyOp2
 70
     0
102
RTVSPropertyOp3
 70
     0
102
RTVSPropertyOp4
 70
     0
102
RTVSPropertyOp5
 70
     0
102
RTVSPropertyOp6
 70
     0
102
RTVSPropertyOp7
 70
     0
102
RTVSPropertyOp8
 70
     0
102
RTVSPropertyOp9
 70
     0
102
RTVSPropertyOp10
 70
     0
102
RTVSPropertyOp11
 70
     0
102
RTVSPropertyOp12
 70
     0
102
RTVSPropertyOp13
 70
     0
102
RTVSPropertyOp14
 70
     2
102
RTVSPropertyOp15
 70
     0
102
RTVSPropertyOp16
 70
     0
102
RTVSPropertyOp17
 70
     0
102
RTVSPropertyOp18
 70
     0
102
RTVSPropertyOp19
 70
     0
102
RTVSPropertyOp20
 70
     0
102
RTVSPropertyOp21
 70
     0
102
RTVSPropertyOp22
 70
     0
102
RTVSPropertyOp23
 70
     0
102
RTVSPropertyOp24
 70
     0
102
RTVSPropertyOp25
 70
     0
102
RTVSPropertyOp26
 70
     0
102
RTVSPropertyOp27
 70
     0
102
RTVSPropertyOp28
 70
     0
102
RTVSPropertyOp29
 70
     0
102
RTVSPropertyOp30
 70
     0
102
RTVSPropertyOp31
 70
     0
102
RTVSPropertyOp32
 70
     0
102
RTVSPropertyOp33
 70
     0
102
RTVSPropertyOp34
 70
     0
102
RTVSPropertyOp35
 70
     0
102
RTVSPropertyOp36
 70
     0
102
RTVSPropertyOp37
 70
     0
102
RTVSPropertyOp38
 70
     0
102
RTVSPropertyOp39
 70
     0
102
RTVSPropertyOp40
 70
     0
102
RTVSPropertyOp41
 70
     0
102
RTVSPropertyOp42
 70
     0
102
RTVSPropertyOp43
 70
     0
102
RTVSPropertyOp44
 70
     0
102
RTVSPropertyOp45
 70
     0
102
RTVSPropertyOp46
 70
     0
102
RTVSPropertyOp47
 70
     0
102
RTVSPropertyOp48
 70
     0
102
RTVSPropertyOp49
 70
     0
102
RTVSPropertyOp50
 70
     0
102
RTVSPropertyOp51
 70
     0
102
RTVSPropertyOp52
 70
     0
102
RTVSPropertyOp53
 70
     0
102
RTVSPropertyOp54
 70
     0
102
RTVSPropertyOp55
 70
     0
102
RTVSPropertyOp56
 70
     0
102
RTVSPropertyOp57
 70
     0
102
RTVSPropertyOp58
 70
     1
102
RTVSPropertyOp59
 70
     1
102
RTVSPropertyOp60
 70
     1
102
RTVSPropertyOp61
 70
     1
102
RTVSPropertyOp62
 70
     1
  0
XRECORD
  5
35C
102
{ACAD_REACTORS
330
35B
102
}
330
35B
100
AcDbXrecord
280
     1
102
RTVSPost2010Prop28
280
     0
102
RTVSPost2010PropOp28
 70
     1
102
RTVSPost2010Prop29
280
     1
102
RTVSPost2010PropOp29
 70
     1
102
RTVSPost2010Prop30
280
     1
102
RTVSPost2010PropOp30
 70
     1
102
RTVSPost2010Prop31
280
     0
102
RTVSPost2010PropOp31
 70
     1
102
RTVSPost2010Prop32
280
     0
102
RTVSPost2010PropOp32
 70
     1
102
RTVSPost2010Prop33
280
     0
102
RTVSPost2010PropOp33
 70
     1
102
RTVSPost2010Prop34
280
     0
102
RTVSPost2010PropOp34
 70
     1
102
RTVSPost2010Prop35
280
     0
102
RTVSPost2010PropOp35
 70
     1
102
RTVSPost2010Prop36
280
     0
102
RTVSPost2010PropOp36
 70
     1
102
RTVSPost2010Prop37
 90
       50
102
RTVSPost2010PropOp37
 70
     1
102
RTVSPost2010Prop38
140
0.0
102
RTVSPost2010PropOp38
 70
     1
102
RTVSPost2010Prop39
140
1.0
102
RTVSPost2010PropOp39
 70
     1
102
RTVSPost2010Prop40
 90
        0
102
RTVSPost2010PropOp40
 70
     1
102
RTVSPost2010Prop41ColorIndex
 90
       18
102
RTVSPost2010Prop41ColorRGB
 90
        0
102
RTVSPost2010PropOp41
 70
     1
102
RTVSPost2010Prop42
 90
       50
102
RTVSPost2010PropOp42
 70
     1
102
RTVSPost2010Prop43
 90
        3
102
RTVSPost2010PropOp43
 70
     1
102
RTVSPost2010Prop44ColorIndex
 90
        5
102
RTVSPost2010Prop44ColorRGB
 90
      255
102
RTVSPost2010PropOp44
 70
     1
102
RTVSPost2010Prop45
280
     0
102
RTVSPost2010PropOp45
 70
     1
102
RTVSPost2010Prop46
 90
       50
102
RTVSPost2010PropOp46
 70
     1
102
RTVSPost2010Prop47
 90
       50
102
RTVSPost2010PropOp47
 70
     1
102
RTVSPost2010Prop48
 90
       50
102
RTVSPost2010PropOp48
 70
     1
102
RTVSPost2010Prop49
280
     0
102
RTVSPost2010PropOp49
 70
     1
102
RTVSPost2010Prop50
 90
       50
102
RTVSPost2010PropOp50
 70
     1
102
RTVSPost2010Prop51ColorIndex
 90
      256
102
RTVSPost2010Prop51ColorRGB
 90
-16777216
102
RTVSPost2010PropOp51
 70
     0
102
RTVSPost2010Prop52
140
1.0
102
RTVSPost2010PropOp52
 70
     0
102
RTVSPost2010Prop53
 90
        2
102
RTVSPost2010PropOp53
 70
     1
102
RTVSPost2010Prop54
  1
strokes_ogs.tif
102
RTVSPost2010PropOp54
 70
     1
102
RTVSPost2010Prop55
280
     0
102
RTVSPost2010PropOp55
 70
     1
102
RTVSPost2010Prop56
140
1.0
102
RTVSPost2010PropOp56
 70
     1
102
RTVSPost2010Prop57
140
1.0
102
RTVSPost2010PropOp57
 70
     1
102
RTVSPropertyOp0
 70
     1
102
RTVSPropertyOp1
 70
     1
102
RTVSPropertyOp2
 70
     1
102
RTVSPropertyOp3
 70
     1
102
RTVSPropertyOp4
 70
     1
102
RTVSPropertyOp5
 70
     1
102
RTVSPropertyOp6
 70
     1
102
RTVSPropertyOp7
 70
     1
102
RTVSPropertyOp8
 70
     1
102
RTVSPropertyOp9
 70
     1
102
RTVSPropertyOp10
 70
     1
102
RTVSPropertyOp11
 70
     1
102
RTVSPropertyOp12
 70
     1
102
RTVSPropertyOp13
 70
     1
102
RTVSPropertyOp14
 70
     1
102
RTVSPropertyOp15
 70
     1
102
RTVSPropertyOp16
 70
     1
102
RTVSPropertyOp17
 70
     1
102
RTVSPropertyOp18
 70
     1
102
RTVSPropertyOp19
 70
     1
102
RTVSPropertyOp20
 70
     1
102
RTVSPropertyOp21
 70
     1
102
RTVSPropertyOp22
 70
     1
102
RTVSPropertyOp23
 70
     1
102
RTVSPropertyOp24
 70
     1
102
RTVSPropertyOp25
 70
     1
102
RTVSPropertyOp26
 70
     1
102
RTVSPropertyOp27
 70
     1
102
RTVSPropertyOp28
 70
     1
102
RTVSPropertyOp29
 70
     1
102
RTVSPropertyOp30
 70
     1
102
RTVSPropertyOp31
 70
     1
102
RTVSPropertyOp32
 70
     1
102
RTVSPropertyOp33
 70
     1
102
RTVSPropertyOp34
 70
     1
102
RTVSPropertyOp35
 70
     1
102
RTVSPropertyOp36
 70
     1
102
RTVSPropertyOp37
 70
     1
102
RTVSPropertyOp38
 70
     1
102
RTVSPropertyOp39
 70
     1
102
RTVSPropertyOp40
 70
     1
102
RTVSPropertyOp41
 70
     1
102
RTVSPropertyOp42
 70
     1
102
RTVSPropertyOp43
 70
     1
102
RTVSPropertyOp44
 70
     1
102
RTVSPropertyOp45
 70
     1
102
RTVSPropertyOp46
 70
     1
102
RTVSPropertyOp47
 70
     1
102
RTVSPropertyOp48
 70
     1
102
RTVSPropertyOp49
 70
     1
102
RTVSPropertyOp50
 70
     1
102
RTVSPropertyOp51
 70
     0
102
RTVSPropertyOp52
 70
     0
102
RTVSPropertyOp53
 70
     1
102
RTVSPropertyOp54
 70
     1
102
RTVSPropertyOp55
 70
     1
102
RTVSPropertyOp56
 70
     1
102
RTVSPropertyOp57
 70
     1
102
RTVSPropertyOp58
 70
     1
102
RTVSPropertyOp59
 70
     1
102
RTVSPropertyOp60
 70
     1
102
RTVSPropertyOp61
 70
     1
102
RTVSPropertyOp62
 70
     1
  0
XRECORD
  5
364
102
{ACAD_REACTORS
330
363
102
}
330
363
100
AcDbXrecord
280
     1
102
RTVSPost2010Prop28
280
     0
102
RTVSPost2010PropOp28
 70
     0
102
RTVSPost2010Prop29
280
     1
102
RTVSPost2010PropOp29
 70
     0
102
RTVSPost2010Prop30
280
     1
102
RTVSPost2010PropOp30
 70
     0
102
RTVSPost2010Prop31
280
     0
102
RTVSPost2010PropOp31
 70
     0
102
RTVSPost2010Prop32
280
     0
102
RTVSPost2010PropOp32
 70
     0
102
RTVSPost2010Prop33
280
     0
102
RTVSPost2010PropOp33
 70
     0
102
RTVSPost2010Prop34
280
     0
102
RTVSPost2010PropOp34
 70
     0
102
RTVSPost2010Prop35
280
     0
102
RTVSPost2010PropOp35
 70
     0
102
RTVSPost2010Prop36
280
     0
102
RTVSPost2010PropOp36
 70
     0
102
RTVSPost2010Prop37
 90
       50
102
RTVSPost2010PropOp37
 70
     0
102
RTVSPost2010Prop38
140
0.0
102
RTVSPost2010PropOp38
 70
     0
102
RTVSPost2010Prop39
140
1.0
102
RTVSPost2010PropOp39
 70
     0
102
RTVSPost2010Prop40
 90
        0
102
RTVSPost2010PropOp40
 70
     0
102
RTVSPost2010Prop41ColorIndex
 90
       18
102
RTVSPost2010Prop41ColorRGB
 90
        0
102
RTVSPost2010PropOp41
 70
     0
102
RTVSPost2010Prop42
 90
       50
102
RTVSPost2010PropOp42
 70
     0
102
RTVSPost2010Prop43
 90
        3
102
RTVSPost2010PropOp43
 70
     0
102
RTVSPost2010Prop44ColorIndex
 90
        5
102
RTVSPost2010Prop44ColorRGB
 90
      255
102
RTVSPost2010PropOp44
 70
     0
102
RTVSPost2010Prop45
280
     0
102
RTVSPost2010PropOp45
 70
     0
102
RTVSPost2010Prop46
 90
       50
102
RTVSPost2010PropOp46
 70
     0
102
RTVSPost2010Prop47
 90
       50
102
RTVSPost2010PropOp47
 70
     0
102
RTVSPost2010Prop48
 90
       50
102
RTVSPost2010PropOp48
 70
     0
102
RTVSPost2010Prop49
280
     0
102
RTVSPost2010PropOp49
 70
     0
102
RTVSPost2010Prop50
 90
       50
102
RTVSPost2010PropOp50
 70
     0
102
RTVSPost2010Prop51ColorIndex
 90
      256
102
RTVSPost2010Prop51ColorRGB
 90
-16777216
102
RTVSPost2010PropOp51
 70
     0
102
RTVSPost2010Prop52
140
1.0
102
RTVSPost2010PropOp52
 70
     0
102
RTVSPost2010Prop53
 90
        2
102
RTVSPost2010PropOp53
 70
     0
102
RTVSPost2010Prop54
  1
strokes_ogs.tif
102
RTVSPost2010PropOp54
 70
     0
102
RTVSPost2010Prop55
280
     0
102
RTVSPost2010PropOp55
 70
     0
102
RTVSPost2010Prop56
140
1.0
102
RTVSPost2010PropOp56
 70
     0
102
RTVSPost2010Prop57
140
1.0
102
RTVSPost2010PropOp57
 70
     0
102
RTVSPropertyOp0
 70
     0
102
RTVSPropertyOp1
 70
     0
102
RTVSPropertyOp2
 70
     0
102
RTVSPropertyOp3
 70
     0
102
RTVSPropertyOp4
 70
     0
102
RTVSPropertyOp5
 70
     0
102
RTVSPropertyOp6
 70
     0
102
RTVSPropertyOp7
 70
     0
102
RTVSPropertyOp8
 70
     0
102
RTVSPropertyOp9
 70
     0
102
RTVSPropertyOp10
 70
     0
102
RTVSPropertyOp11
 70
     0
102
RTVSPropertyOp12
 70
     0
102
RTVSPropertyOp13
 70
     0
102
RTVSPropertyOp14
 70
     2
102
RTVSPropertyOp15
 70
     0
102
RTVSPropertyOp16
 70
     0
102
RTVSPropertyOp17
 70
     0
102
RTVSPropertyOp18
 70
     0
102
RTVSPropertyOp19
 70
     0
102
RTVSPropertyOp20
 70
     0
102
RTVSPropertyOp21
 70
     0
102
RTVSPropertyOp22
 70
     0
102
RTVSPropertyOp23
 70
     0
102
RTVSPropertyOp24
 70
     0
102
RTVSPropertyOp25
 70
     0
102
RTVSPropertyOp26
 70
     0
102
RTVSPropertyOp27
 70
     0
102
RTVSPropertyOp28
 70
     0
102
RTVSPropertyOp29
 70
     0
102
RTVSPropertyOp30
 70
     0
102
RTVSPropertyOp31
 70
     0
102
RTVSPropertyOp32
 70
     0
102
RTVSPropertyOp33
 70
     0
102
RTVSPropertyOp34
 70
     0
102
RTVSPropertyOp35
 70
     0
102
RTVSPropertyOp36
 70
     0
102
RTVSPropertyOp37
 70
     0
102
RTVSPropertyOp38
 70
     0
102
RTVSPropertyOp39
 70
     0
102
RTVSPropertyOp40
 70
     0
102
RTVSPropertyOp41
 70
     0
102
RTVSPropertyOp42
 70
     0
102
RTVSPropertyOp43
 70
     0
102
RTVSPropertyOp44
 70
     0
102
RTVSPropertyOp45
 70
     0
102
RTVSPropertyOp46
 70
     0
102
RTVSPropertyOp47
 70
     0
102
RTVSPropertyOp48
 70
     0
102
RTVSPropertyOp49
 70
     0
102
RTVSPropertyOp50
 70
     0
102
RTVSPropertyOp51
 70
     0
102
RTVSPropertyOp52
 70
     0
102
RTVSPropertyOp53
 70
     0
102
RTVSPropertyOp54
 70
     0
102
RTVSPropertyOp55
 70
     0
102
RTVSPropertyOp56
 70
     0
102
RTVSPropertyOp57
 70
     0
102
RTVSPropertyOp58
 70
     1
102
RTVSPropertyOp59
 70
     1
102
RTVSPropertyOp60
 70
     1
102
RTVSPropertyOp61
 70
     1
102
RTVSPropertyOp62
 70
     1
  0
XRECORD
  5
352
102
{ACAD_REACTORS
330
351
102
}
330
351
100
AcDbXrecord
280
     1
102
RTVSPost2010Prop28
280
     0
102
RTVSPost2010PropOp28
 70
     1
102
RTVSPost2010Prop29
280
     1
102
RTVSPost2010PropOp29
 70
     1
102
RTVSPost2010Prop30
280
     1
102
RTVSPost2010PropOp30
 70
     1
102
RTVSPost2010Prop31
280
     0
102
RTVSPost2010PropOp31
 70
     1
102
RTVSPost2010Prop32
280
     0
102
RTVSPost2010PropOp32
 70
     1
102
RTVSPost2010Prop33
280
     0
102
RTVSPost2010PropOp33
 70
     1
102
RTVSPost2010Prop34
280
     0
102
RTVSPost2010PropOp34
 70
     1
102
RTVSPost2010Prop35
280
     0
102
RTVSPost2010PropOp35
 70
     1
102
RTVSPost2010Prop36
280
     0
102
RTVSPost2010PropOp36
 70
     1
102
RTVSPost2010Prop37
 90
       50
102
RTVSPost2010PropOp37
 70
     1
102
RTVSPost2010Prop38
140
0.0
102
RTVSPost2010PropOp38
 70
     1
102
RTVSPost2010Prop39
140
1.0
102
RTVSPost2010PropOp39
 70
     1
102
RTVSPost2010Prop40
 90
        0
102
RTVSPost2010PropOp40
 70
     1
102
RTVSPost2010Prop41ColorIndex
 90
       18
102
RTVSPost2010Prop41ColorRGB
 90
        0
102
RTVSPost2010PropOp41
 70
     1
102
RTVSPost2010Prop42
 90
       50
102
RTVSPost2010PropOp42
 70
     1
102
RTVSPost2010Prop43
 90
        3
102
RTVSPost2010PropOp43
 70
     1
102
RTVSPost2010Prop44ColorIndex
 90
        5
102
RTVSPost2010Prop44ColorRGB
 90
      255
102
RTVSPost2010PropOp44
 70
     1
102
RTVSPost2010Prop45
280
     0
102
RTVSPost2010PropOp45
 70
     1
102
RTVSPost2010Prop46
 90
       50
102
RTVSPost2010PropOp46
 70
     1
102
RTVSPost2010Prop47
 90
       50
102
RTVSPost2010PropOp47
 70
     1
102
RTVSPost2010Prop48
 90
       50
102
RTVSPost2010PropOp48
 70
     1
102
RTVSPost2010Prop49
280
     0
102
RTVSPost2010PropOp49
 70
     1
102
RTVSPost2010Prop50
 90
       50
102
RTVSPost2010PropOp50
 70
     1
102
RTVSPost2010Prop51ColorIndex
 90
      256
102
RTVSPost2010Prop51ColorRGB
 90
-16777216
102
RTVSPost2010PropOp51
 70
     0
102
RTVSPost2010Prop52
140
1.0
102
RTVSPost2010PropOp52
 70
     0
102
RTVSPost2010Prop53
 90
        2
102
RTVSPost2010PropOp53
 70
     1
102
RTVSPost2010Prop54
  1
strokes_ogs.tif
102
RTVSPost2010PropOp54
 70
     1
102
RTVSPost2010Prop55
280
     0
102
RTVSPost2010PropOp55
 70
     1
102
RTVSPost2010Prop56
140
1.0
102
RTVSPost2010PropOp56
 70
     1
102
RTVSPost2010Prop57
140
1.0
102
RTVSPost2010PropOp57
 70
     1
102
RTVSPropertyOp0
 70
     1
102
RTVSPropertyOp1
 70
     1
102
RTVSPropertyOp2
 70
     1
102
RTVSPropertyOp3
 70
     1
102
RTVSPropertyOp4
 70
     1
102
RTVSPropertyOp5
 70
     1
102
RTVSPropertyOp6
 70
     1
102
RTVSPropertyOp7
 70
     1
102
RTVSPropertyOp8
 70
     1
102
RTVSPropertyOp9
 70
     1
102
RTVSPropertyOp10
 70
     1
102
RTVSPropertyOp11
 70
     1
102
RTVSPropertyOp12
 70
     1
102
RTVSPropertyOp13
 70
     1
102
RTVSPropertyOp14
 70
     1
102
RTVSPropertyOp15
 70
     1
102
RTVSPropertyOp16
 70
     1
102
RTVSPropertyOp17
 70
     1
102
RTVSPropertyOp18
 70
     1
102
RTVSPropertyOp19
 70
     1
102
RTVSPropertyOp20
 70
     1
102
RTVSPropertyOp21
 70
     1
102
RTVSPropertyOp22
 70
     1
102
RTVSPropertyOp23
 70
     1
102
RTVSPropertyOp24
 70
     1
102
RTVSPropertyOp25
 70
     1
102
RTVSPropertyOp26
 70
     1
102
RTVSPropertyOp27
 70
     1
102
RTVSPropertyOp28
 70
     1
102
RTVSPropertyOp29
 70
     1
102
RTVSPropertyOp30
 70
     1
102
RTVSPropertyOp31
 70
     1
102
RTVSPropertyOp32
 70
     1
102
RTVSPropertyOp33
 70
     1
102
RTVSPropertyOp34
 70
     1
102
RTVSPropertyOp35
 70
     1
102
RTVSPropertyOp36
 70
     1
102
RTVSPropertyOp37
 70
     1
102
RTVSPropertyOp38
 70
     1
102
RTVSPropertyOp39
 70
     1
102
RTVSPropertyOp40
 70
     1
102
RTVSPropertyOp41
 70
     1
102
RTVSPropertyOp42
 70
     1
102
RTVSPropertyOp43
 70
     1
102
RTVSPropertyOp44
 70
     1
102
RTVSPropertyOp45
 70
     1
102
RTVSPropertyOp46
 70
     1
102
RTVSPropertyOp47
 70
     1
102
RTVSPropertyOp48
 70
     1
102
RTVSPropertyOp49
 70
     1
102
RTVSPropertyOp50
 70
     1
102
RTVSPropertyOp51
 70
     0
102
RTVSPropertyOp52
 70
     0
102
RTVSPropertyOp53
 70
     1
102
RTVSPropertyOp54
 70
     1
102
RTVSPropertyOp55
 70
     1
102
RTVSPropertyOp56
 70
     1
102
RTVSPropertyOp57
 70
     1
102
RTVSPropertyOp58
 70
     1
102
RTVSPropertyOp59
 70
     1
102
RTVSPropertyOp60
 70
     1
102
RTVSPropertyOp61
 70
     1
102
RTVSPropertyOp62
 70
     1
  0
XRECORD
  5
370
102
{ACAD_REACTORS
330
36F
102
}
330
36F
100
AcDbXrecord
280
     1
102
RTVSPost2010Prop28
280
     0
102
RTVSPost2010PropOp28
 70
     1
102
RTVSPost2010Prop29
280
     1
102
RTVSPost2010PropOp29
 70
     1
102
RTVSPost2010Prop30
280
     1
102
RTVSPost2010PropOp30
 70
     1
102
RTVSPost2010Prop31
280
     0
102
RTVSPost2010PropOp31
 70
     1
102
RTVSPost2010Prop32
280
     0
102
RTVSPost2010PropOp32
 70
     1
102
RTVSPost2010Prop33
280
     0
102
RTVSPost2010PropOp33
 70
     1
102
RTVSPost2010Prop34
280
     0
102
RTVSPost2010PropOp34
 70
     1
102
RTVSPost2010Prop35
280
     0
102
RTVSPost2010PropOp35
 70
     1
102
RTVSPost2010Prop36
280
     0
102
RTVSPost2010PropOp36
 70
     1
102
RTVSPost2010Prop37
 90
       50
102
RTVSPost2010PropOp37
 70
     1
102
RTVSPost2010Prop38
140
0.0
102
RTVSPost2010PropOp38
 70
     1
102
RTVSPost2010Prop39
140
1.0
102
RTVSPost2010PropOp39
 70
     1
102
RTVSPost2010Prop40
 90
        0
102
RTVSPost2010PropOp40
 70
     1
102
RTVSPost2010Prop41ColorIndex
 90
       18
102
RTVSPost2010Prop41ColorRGB
 90
        0
102
RTVSPost2010PropOp41
 70
     1
102
RTVSPost2010Prop42
 90
       50
102
RTVSPost2010PropOp42
 70
     1
102
RTVSPost2010Prop43
 90
        3
102
RTVSPost2010PropOp43
 70
     1
102
RTVSPost2010Prop44ColorIndex
 90
        5
102
RTVSPost2010Prop44ColorRGB
 90
      255
102
RTVSPost2010PropOp44
 70
     1
102
RTVSPost2010Prop45
280
     0
102
RTVSPost2010PropOp45
 70
     1
102
RTVSPost2010Prop46
 90
       50
102
RTVSPost2010PropOp46
 70
     1
102
RTVSPost2010Prop47
 90
       50
102
RTVSPost2010PropOp47
 70
     1
102
RTVSPost2010Prop48
 90
       50
102
RTVSPost2010PropOp48
 70
     1
102
RTVSPost2010Prop49
280
     0
102
RTVSPost2010PropOp49
 70
     1
102
RTVSPost2010Prop50
 90
       50
102
RTVSPost2010PropOp50
 70
     1
102
RTVSPost2010Prop51ColorIndex
 90
      256
102
RTVSPost2010Prop51ColorRGB
 90
-16777216
102
RTVSPost2010PropOp51
 70
     0
102
RTVSPost2010Prop52
140
1.0
102
RTVSPost2010PropOp52
 70
     0
102
RTVSPost2010Prop53
 90
        2
102
RTVSPost2010PropOp53
 70
     1
102
RTVSPost2010Prop54
  1
strokes_ogs.tif
102
RTVSPost2010PropOp54
 70
     1
102
RTVSPost2010Prop55
280
     0
102
RTVSPost2010PropOp55
 70
     1
102
RTVSPost2010Prop56
140
1.0
102
RTVSPost2010PropOp56
 70
     1
102
RTVSPost2010Prop57
140
1.0
102
RTVSPost2010PropOp57
 70
     1
102
RTVSPropertyOp0
 70
     1
102
RTVSPropertyOp1
 70
     1
102
RTVSPropertyOp2
 70
     1
102
RTVSPropertyOp3
 70
     1
102
RTVSPropertyOp4
 70
     1
102
RTVSPropertyOp5
 70
     1
102
RTVSPropertyOp6
 70
     1
102
RTVSPropertyOp7
 70
     1
102
RTVSPropertyOp8
 70
     1
102
RTVSPropertyOp9
 70
     1
102
RTVSPropertyOp10
 70
     1
102
RTVSPropertyOp11
 70
     1
102
RTVSPropertyOp12
 70
     1
102
RTVSPropertyOp13
 70
     1
102
RTVSPropertyOp14
 70
     1
102
RTVSPropertyOp15
 70
     1
102
RTVSPropertyOp16
 70
     1
102
RTVSPropertyOp17
 70
     1
102
RTVSPropertyOp18
 70
     1
102
RTVSPropertyOp19
 70
     1
102
RTVSPropertyOp20
 70
     1
102
RTVSPropertyOp21
 70
     1
102
RTVSPropertyOp22
 70
     1
102
RTVSPropertyOp23
 70
     1
102
RTVSPropertyOp24
 70
     1
102
RTVSPropertyOp25
 70
     1
102
RTVSPropertyOp26
 70
     1
102
RTVSPropertyOp27
 70
     1
102
RTVSPropertyOp28
 70
     1
102
RTVSPropertyOp29
 70
     1
102
RTVSPropertyOp30
 70
     1
102
RTVSPropertyOp31
 70
     1
102
RTVSPropertyOp32
 70
     1
102
RTVSPropertyOp33
 70
     1
102
RTVSPropertyOp34
 70
     1
102
RTVSPropertyOp35
 70
     1
102
RTVSPropertyOp36
 70
     1
102
RTVSPropertyOp37
 70
     1
102
RTVSPropertyOp38
 70
     1
102
RTVSPropertyOp39
 70
     1
102
RTVSPropertyOp40
 70
     1
102
RTVSPropertyOp41
 70
     1
102
RTVSPropertyOp42
 70
     1
102
RTVSPropertyOp43
 70
     1
102
RTVSPropertyOp44
 70
     1
102
RTVSPropertyOp45
 70
     1
102
RTVSPropertyOp46
 70
     1
102
RTVSPropertyOp47
 70
     1
102
RTVSPropertyOp48
 70
     1
102
RTVSPropertyOp49
 70
     1
102
RTVSPropertyOp50
 70
     1
102
RTVSPropertyOp51
 70
     0
102
RTVSPropertyOp52
 70
     0
102
RTVSPropertyOp53
 70
     1
102
RTVSPropertyOp54
 70
     1
102
RTVSPropertyOp55
 70
     1
102
RTVSPropertyOp56
 70
     1
102
RTVSPropertyOp57
 70
     1
102
RTVSPropertyOp58
 70
     1
102
RTVSPropertyOp59
 70
     1
102
RTVSPropertyOp60
 70
     1
102
RTVSPropertyOp61
 70
     1
102
RTVSPropertyOp62
 70
     1
  0
XRECORD
  5
36E
102
{ACAD_REACTORS
330
36D
102
}
330
36D
100
AcDbXrecord
280
     1
102
RTVSPost2010Prop28
280
     0
102
RTVSPost2010PropOp28
 70
     1
102
RTVSPost2010Prop29
280
     1
102
RTVSPost2010PropOp29
 70
     1
102
RTVSPost2010Prop30
280
     1
102
RTVSPost2010PropOp30
 70
     1
102
RTVSPost2010Prop31
280
     0
102
RTVSPost2010PropOp31
 70
     1
102
RTVSPost2010Prop32
280
     0
102
RTVSPost2010PropOp32
 70
     1
102
RTVSPost2010Prop33
280
     0
102
RTVSPost2010PropOp33
 70
     1
102
RTVSPost2010Prop34
280
     0
102
RTVSPost2010PropOp34
 70
     1
102
RTVSPost2010Prop35
280
     0
102
RTVSPost2010PropOp35
 70
     1
102
RTVSPost2010Prop36
280
     0
102
RTVSPost2010PropOp36
 70
     1
102
RTVSPost2010Prop37
 90
       50
102
RTVSPost2010PropOp37
 70
     1
102
RTVSPost2010Prop38
140
0.0
102
RTVSPost2010PropOp38
 70
     1
102
RTVSPost2010Prop39
140
1.0
102
RTVSPost2010PropOp39
 70
     1
102
RTVSPost2010Prop40
 90
        0
102
RTVSPost2010PropOp40
 70
     1
102
RTVSPost2010Prop41ColorIndex
 90
       18
102
RTVSPost2010Prop41ColorRGB
 90
        0
102
RTVSPost2010PropOp41
 70
     1
102
RTVSPost2010Prop42
 90
       50
102
RTVSPost2010PropOp42
 70
     1
102
RTVSPost2010Prop43
 90
        3
102
RTVSPost2010PropOp43
 70
     1
102
RTVSPost2010Prop44ColorIndex
 90
        5
102
RTVSPost2010Prop44ColorRGB
 90
      255
102
RTVSPost2010PropOp44
 70
     1
102
RTVSPost2010Prop45
280
     0
102
RTVSPost2010PropOp45
 70
     1
102
RTVSPost2010Prop46
 90
       50
102
RTVSPost2010PropOp46
 70
     1
102
RTVSPost2010Prop47
 90
       50
102
RTVSPost2010PropOp47
 70
     1
102
RTVSPost2010Prop48
 90
       50
102
RTVSPost2010PropOp48
 70
     1
102
RTVSPost2010Prop49
280
     0
102
RTVSPost2010PropOp49
 70
     1
102
RTVSPost2010Prop50
 90
       50
102
RTVSPost2010PropOp50
 70
     1
102
RTVSPost2010Prop51ColorIndex
 90
      256
102
RTVSPost2010Prop51ColorRGB
 90
-16777216
102
RTVSPost2010PropOp51
 70
     0
102
RTVSPost2010Prop52
140
1.0
102
RTVSPost2010PropOp52
 70
     0
102
RTVSPost2010Prop53
 90
        2
102
RTVSPost2010PropOp53
 70
     1
102
RTVSPost2010Prop54
  1
strokes_ogs.tif
102
RTVSPost2010PropOp54
 70
     1
102
RTVSPost2010Prop55
280
     0
102
RTVSPost2010PropOp55
 70
     1
102
RTVSPost2010Prop56
140
1.0
102
RTVSPost2010PropOp56
 70
     1
102
RTVSPost2010Prop57
140
1.0
102
RTVSPost2010PropOp57
 70
     1
102
RTVSPropertyOp0
 70
     1
102
RTVSPropertyOp1
 70
     1
102
RTVSPropertyOp2
 70
     1
102
RTVSPropertyOp3
 70
     1
102
RTVSPropertyOp4
 70
     1
102
RTVSPropertyOp5
 70
     1
102
RTVSPropertyOp6
 70
     1
102
RTVSPropertyOp7
 70
     1
102
RTVSPropertyOp8
 70
     1
102
RTVSPropertyOp9
 70
     1
102
RTVSPropertyOp10
 70
     1
102
RTVSPropertyOp11
 70
     1
102
RTVSPropertyOp12
 70
     1
102
RTVSPropertyOp13
 70
     1
102
RTVSPropertyOp14
 70
     1
102
RTVSPropertyOp15
 70
     1
102
RTVSPropertyOp16
 70
     1
102
RTVSPropertyOp17
 70
     1
102
RTVSPropertyOp18
 70
     1
102
RTVSPropertyOp19
 70
     1
102
RTVSPropertyOp20
 70
     1
102
RTVSPropertyOp21
 70
     1
102
RTVSPropertyOp22
 70
     1
102
RTVSPropertyOp23
 70
     1
102
RTVSPropertyOp24
 70
     1
102
RTVSPropertyOp25
 70
     1
102
RTVSPropertyOp26
 70
     1
102
RTVSPropertyOp27
 70
     1
102
RTVSPropertyOp28
 70
     1
102
RTVSPropertyOp29
 70
     1
102
RTVSPropertyOp30
 70
     1
102
RTVSPropertyOp31
 70
     1
102
RTVSPropertyOp32
 70
     1
102
RTVSPropertyOp33
 70
     1
102
RTVSPropertyOp34
 70
     1
102
RTVSPropertyOp35
 70
     1
102
RTVSPropertyOp36
 70
     1
102
RTVSPropertyOp37
 70
     1
102
RTVSPropertyOp38
 70
     1
102
RTVSPropertyOp39
 70
     1
102
RTVSPropertyOp40
 70
     1
102
RTVSPropertyOp41
 70
     1
102
RTVSPropertyOp42
 70
     1
102
RTVSPropertyOp43
 70
     1
102
RTVSPropertyOp44
 70
     1
102
RTVSPropertyOp45
 70
     1
102
RTVSPropertyOp46
 70
     1
102
RTVSPropertyOp47
 70
     1
102
RTVSPropertyOp48
 70
     1
102
RTVSPropertyOp49
 70
     1
102
RTVSPropertyOp50
 70
     1
102
RTVSPropertyOp51
 70
     0
102
RTVSPropertyOp52
 70
     0
102
RTVSPropertyOp53
 70
     1
102
RTVSPropertyOp54
 70
     1
102
RTVSPropertyOp55
 70
     1
102
RTVSPropertyOp56
 70
     1
102
RTVSPropertyOp57
 70
     1
102
RTVSPropertyOp58
 70
     1
102
RTVSPropertyOp59
 70
     1
102
RTVSPropertyOp60
 70
     1
102
RTVSPropertyOp61
 70
     1
102
RTVSPropertyOp62
 70
     1
  0
XRECORD
  5
368
102
{ACAD_REACTORS
330
367
102
}
330
367
100
AcDbXrecord
280
     1
102
RTVSPost2010Prop28
280
     0
102
RTVSPost2010PropOp28
 70
     1
102
RTVSPost2010Prop29
280
     1
102
RTVSPost2010PropOp29
 70
     1
102
RTVSPost2010Prop30
280
     1
102
RTVSPost2010PropOp30
 70
     1
102
RTVSPost2010Prop31
280
     0
102
RTVSPost2010PropOp31
 70
     1
102
RTVSPost2010Prop32
280
     0
102
RTVSPost2010PropOp32
 70
     1
102
RTVSPost2010Prop33
280
     0
102
RTVSPost2010PropOp33
 70
     1
102
RTVSPost2010Prop34
280
     0
102
RTVSPost2010PropOp34
 70
     1
102
RTVSPost2010Prop35
280
     0
102
RTVSPost2010PropOp35
 70
     1
102
RTVSPost2010Prop36
280
     0
102
RTVSPost2010PropOp36
 70
     1
102
RTVSPost2010Prop37
 90
       50
102
RTVSPost2010PropOp37
 70
     1
102
RTVSPost2010Prop38
140
0.0
102
RTVSPost2010PropOp38
 70
     1
102
RTVSPost2010Prop39
140
1.0
102
RTVSPost2010PropOp39
 70
     1
102
RTVSPost2010Prop40
 90
        0
102
RTVSPost2010PropOp40
 70
     1
102
RTVSPost2010Prop41ColorIndex
 90
       18
102
RTVSPost2010Prop41ColorRGB
 90
        0
102
RTVSPost2010PropOp41
 70
     1
102
RTVSPost2010Prop42
 90
       50
102
RTVSPost2010PropOp42
 70
     1
102
RTVSPost2010Prop43
 90
        3
102
RTVSPost2010PropOp43
 70
     1
102
RTVSPost2010Prop44ColorIndex
 90
        5
102
RTVSPost2010Prop44ColorRGB
 90
      255
102
RTVSPost2010PropOp44
 70
     1
102
RTVSPost2010Prop45
280
     0
102
RTVSPost2010PropOp45
 70
     1
102
RTVSPost2010Prop46
 90
       50
102
RTVSPost2010PropOp46
 70
     1
102
RTVSPost2010Prop47
 90
       50
102
RTVSPost2010PropOp47
 70
     1
102
RTVSPost2010Prop48
 90
       50
102
RTVSPost2010PropOp48
 70
     1
102
RTVSPost2010Prop49
280
     0
102
RTVSPost2010PropOp49
 70
     1
102
RTVSPost2010Prop50
 90
       50
102
RTVSPost2010PropOp50
 70
     1
102
RTVSPost2010Prop51ColorIndex
 90
      256
102
RTVSPost2010Prop51ColorRGB
 90
-16777216
102
RTVSPost2010PropOp51
 70
     0
102
RTVSPost2010Prop52
140
1.0
102
RTVSPost2010PropOp52
 70
     0
102
RTVSPost2010Prop53
 90
        2
102
RTVSPost2010PropOp53
 70
     1
102
RTVSPost2010Prop54
  1
strokes_ogs.tif
102
RTVSPost2010PropOp54
 70
     1
102
RTVSPost2010Prop55
280
     0
102
RTVSPost2010PropOp55
 70
     1
102
RTVSPost2010Prop56
140
1.0
102
RTVSPost2010PropOp56
 70
     1
102
RTVSPost2010Prop57
140
1.0
102
RTVSPost2010PropOp57
 70
     1
102
RTVSPropertyOp0
 70
     1
102
RTVSPropertyOp1
 70
     1
102
RTVSPropertyOp2
 70
     1
102
RTVSPropertyOp3
 70
     1
102
RTVSPropertyOp4
 70
     1
102
RTVSPropertyOp5
 70
     1
102
RTVSPropertyOp6
 70
     1
102
RTVSPropertyOp7
 70
     1
102
RTVSPropertyOp8
 70
     1
102
RTVSPropertyOp9
 70
     1
102
RTVSPropertyOp10
 70
     1
102
RTVSPropertyOp11
 70
     1
102
RTVSPropertyOp12
 70
     1
102
RTVSPropertyOp13
 70
     1
102
RTVSPropertyOp14
 70
     1
102
RTVSPropertyOp15
 70
     1
102
RTVSPropertyOp16
 70
     1
102
RTVSPropertyOp17
 70
     1
102
RTVSPropertyOp18
 70
     1
102
RTVSPropertyOp19
 70
     1
102
RTVSPropertyOp20
 70
     1
102
RTVSPropertyOp21
 70
     1
102
RTVSPropertyOp22
 70
     1
102
RTVSPropertyOp23
 70
     1
102
RTVSPropertyOp24
 70
     1
102
RTVSPropertyOp25
 70
     1
102
RTVSPropertyOp26
 70
     1
102
RTVSPropertyOp27
 70
     1
102
RTVSPropertyOp28
 70
     1
102
RTVSPropertyOp29
 70
     1
102
RTVSPropertyOp30
 70
     1
102
RTVSPropertyOp31
 70
     1
102
RTVSPropertyOp32
 70
     1
102
RTVSPropertyOp33
 70
     1
102
RTVSPropertyOp34
 70
     1
102
RTVSPropertyOp35
 70
     1
102
RTVSPropertyOp36
 70
     1
102
RTVSPropertyOp37
 70
     1
102
RTVSPropertyOp38
 70
     1
102
RTVSPropertyOp39
 70
     1
102
RTVSPropertyOp40
 70
     1
102
RTVSPropertyOp41
 70
     1
102
RTVSPropertyOp42
 70
     1
102
RTVSPropertyOp43
 70
     1
102
RTVSPropertyOp44
 70
     1
102
RTVSPropertyOp45
 70
     1
102
RTVSPropertyOp46
 70
     1
102
RTVSPropertyOp47
 70
     1
102
RTVSPropertyOp48
 70
     1
102
RTVSPropertyOp49
 70
     1
102
RTVSPropertyOp50
 70
     1
102
RTVSPropertyOp51
 70
     0
102
RTVSPropertyOp52
 70
     0
102
RTVSPropertyOp53
 70
     1
102
RTVSPropertyOp54
 70
     1
102
RTVSPropertyOp55
 70
     1
102
RTVSPropertyOp56
 70
     1
102
RTVSPropertyOp57
 70
     1
102
RTVSPropertyOp58
 70
     1
102
RTVSPropertyOp59
 70
     1
102
RTVSPropertyOp60
 70
     1
102
RTVSPropertyOp61
 70
     1
102
RTVSPropertyOp62
 70
     1
  0
XRECORD
  5
36A
102
{ACAD_REACTORS
330
369
102
}
330
369
100
AcDbXrecord
280
     1
102
RTVSPost2010Prop28
280
     0
102
RTVSPost2010PropOp28
 70
     1
102
RTVSPost2010Prop29
280
     1
102
RTVSPost2010PropOp29
 70
     1
102
RTVSPost2010Prop30
280
     1
102
RTVSPost2010PropOp30
 70
     1
102
RTVSPost2010Prop31
280
     0
102
RTVSPost2010PropOp31
 70
     1
102
RTVSPost2010Prop32
280
     0
102
RTVSPost2010PropOp32
 70
     1
102
RTVSPost2010Prop33
280
     0
102
RTVSPost2010PropOp33
 70
     1
102
RTVSPost2010Prop34
280
     0
102
RTVSPost2010PropOp34
 70
     1
102
RTVSPost2010Prop35
280
     0
102
RTVSPost2010PropOp35
 70
     1
102
RTVSPost2010Prop36
280
     0
102
RTVSPost2010PropOp36
 70
     1
102
RTVSPost2010Prop37
 90
       50
102
RTVSPost2010PropOp37
 70
     1
102
RTVSPost2010Prop38
140
0.0
102
RTVSPost2010PropOp38
 70
     1
102
RTVSPost2010Prop39
140
1.0
102
RTVSPost2010PropOp39
 70
     1
102
RTVSPost2010Prop40
 90
        0
102
RTVSPost2010PropOp40
 70
     1
102
RTVSPost2010Prop41ColorIndex
 90
       18
102
RTVSPost2010Prop41ColorRGB
 90
        0
102
RTVSPost2010PropOp41
 70
     1
102
RTVSPost2010Prop42
 90
       50
102
RTVSPost2010PropOp42
 70
     1
102
RTVSPost2010Prop43
 90
        3
102
RTVSPost2010PropOp43
 70
     1
102
RTVSPost2010Prop44ColorIndex
 90
        5
102
RTVSPost2010Prop44ColorRGB
 90
      255
102
RTVSPost2010PropOp44
 70
     1
102
RTVSPost2010Prop45
280
     0
102
RTVSPost2010PropOp45
 70
     1
102
RTVSPost2010Prop46
 90
       50
102
RTVSPost2010PropOp46
 70
     1
102
RTVSPost2010Prop47
 90
       50
102
RTVSPost2010PropOp47
 70
     1
102
RTVSPost2010Prop48
 90
       50
102
RTVSPost2010PropOp48
 70
     1
102
RTVSPost2010Prop49
280
     0
102
RTVSPost2010PropOp49
 70
     1
102
RTVSPost2010Prop50
 90
       50
102
RTVSPost2010PropOp50
 70
     1
102
RTVSPost2010Prop51ColorIndex
 90
      256
102
RTVSPost2010Prop51ColorRGB
 90
-16777216
102
RTVSPost2010PropOp51
 70
     0
102
RTVSPost2010Prop52
140
1.0
102
RTVSPost2010PropOp52
 70
     0
102
RTVSPost2010Prop53
 90
        2
102
RTVSPost2010PropOp53
 70
     1
102
RTVSPost2010Prop54
  1
strokes_ogs.tif
102
RTVSPost2010PropOp54
 70
     1
102
RTVSPost2010Prop55
280
     0
102
RTVSPost2010PropOp55
 70
     1
102
RTVSPost2010Prop56
140
1.0
102
RTVSPost2010PropOp56
 70
     1
102
RTVSPost2010Prop57
140
1.0
102
RTVSPost2010PropOp57
 70
     1
102
RTVSPropertyOp0
 70
     1
102
RTVSPropertyOp1
 70
     1
102
RTVSPropertyOp2
 70
     1
102
RTVSPropertyOp3
 70
     1
102
RTVSPropertyOp4
 70
     1
102
RTVSPropertyOp5
 70
     1
102
RTVSPropertyOp6
 70
     1
102
RTVSPropertyOp7
 70
     1
102
RTVSPropertyOp8
 70
     1
102
RTVSPropertyOp9
 70
     1
102
RTVSPropertyOp10
 70
     1
102
RTVSPropertyOp11
 70
     1
102
RTVSPropertyOp12
 70
     1
102
RTVSPropertyOp13
 70
     1
102
RTVSPropertyOp14
 70
     1
102
RTVSPropertyOp15
 70
     1
102
RTVSPropertyOp16
 70
     1
102
RTVSPropertyOp17
 70
     1
102
RTVSPropertyOp18
 70
     1
102
RTVSPropertyOp19
 70
     1
102
RTVSPropertyOp20
 70
     1
102
RTVSPropertyOp21
 70
     1
102
RTVSPropertyOp22
 70
     1
102
RTVSPropertyOp23
 70
     1
102
RTVSPropertyOp24
 70
     1
102
RTVSPropertyOp25
 70
     1
102
RTVSPropertyOp26
 70
     1
102
RTVSPropertyOp27
 70
     1
102
RTVSPropertyOp28
 70
     1
102
RTVSPropertyOp29
 70
     1
102
RTVSPropertyOp30
 70
     1
102
RTVSPropertyOp31
 70
     1
102
RTVSPropertyOp32
 70
     1
102
RTVSPropertyOp33
 70
     1
102
RTVSPropertyOp34
 70
     1
102
RTVSPropertyOp35
 70
     1
102
RTVSPropertyOp36
 70
     1
102
RTVSPropertyOp37
 70
     1
102
RTVSPropertyOp38
 70
     1
102
RTVSPropertyOp39
 70
     1
102
RTVSPropertyOp40
 70
     1
102
RTVSPropertyOp41
 70
     1
102
RTVSPropertyOp42
 70
     1
102
RTVSPropertyOp43
 70
     1
102
RTVSPropertyOp44
 70
     1
102
RTVSPropertyOp45
 70
     1
102
RTVSPropertyOp46
 70
     1
102
RTVSPropertyOp47
 70
     1
102
RTVSPropertyOp48
 70
     1
102
RTVSPropertyOp49
 70
     1
102
RTVSPropertyOp50
 70
     1
102
RTVSPropertyOp51
 70
     0
102
RTVSPropertyOp52
 70
     0
102
RTVSPropertyOp53
 70
     1
102
RTVSPropertyOp54
 70
     1
102
RTVSPropertyOp55
 70
     1
102
RTVSPropertyOp56
 70
     1
102
RTVSPropertyOp57
 70
     1
102
RTVSPropertyOp58
 70
     1
102
RTVSPropertyOp59
 70
     1
102
RTVSPropertyOp60
 70
     1
102
RTVSPropertyOp61
 70
     1
102
RTVSPropertyOp62
 70
     1
  0
XRECORD
  5
35A
102
{ACAD_REACTORS
330
359
102
}
330
359
100
AcDbXrecord
280
     1
102
RTVSPost2010Prop28
280
     0
102
RTVSPost2010PropOp28
 70
     1
102
RTVSPost2010Prop29
280
     1
102
RTVSPost2010PropOp29
 70
     1
102
RTVSPost2010Prop30
280
     1
102
RTVSPost2010PropOp30
 70
     1
102
RTVSPost2010Prop31
280
     0
102
RTVSPost2010PropOp31
 70
     1
102
RTVSPost2010Prop32
280
     0
102
RTVSPost2010PropOp32
 70
     1
102
RTVSPost2010Prop33
280
     0
102
RTVSPost2010PropOp33
 70
     1
102
RTVSPost2010Prop34
280
     0
102
RTVSPost2010PropOp34
 70
     1
102
RTVSPost2010Prop35
280
     0
102
RTVSPost2010PropOp35
 70
     1
102
RTVSPost2010Prop36
280
     0
102
RTVSPost2010PropOp36
 70
     1
102
RTVSPost2010Prop37
 90
       50
102
RTVSPost2010PropOp37
 70
     1
102
RTVSPost2010Prop38
140
0.0
102
RTVSPost2010PropOp38
 70
     1
102
RTVSPost2010Prop39
140
1.0
102
RTVSPost2010PropOp39
 70
     1
102
RTVSPost2010Prop40
 90
        0
102
RTVSPost2010PropOp40
 70
     1
102
RTVSPost2010Prop41ColorIndex
 90
       18
102
RTVSPost2010Prop41ColorRGB
 90
        0
102
RTVSPost2010PropOp41
 70
     1
102
RTVSPost2010Prop42
 90
       50
102
RTVSPost2010PropOp42
 70
     1
102
RTVSPost2010Prop43
 90
        3
102
RTVSPost2010PropOp43
 70
     1
102
RTVSPost2010Prop44ColorIndex
 90
        5
102
RTVSPost2010Prop44ColorRGB
 90
      255
102
RTVSPost2010PropOp44
 70
     1
102
RTVSPost2010Prop45
280
     0
102
RTVSPost2010PropOp45
 70
     1
102
RTVSPost2010Prop46
 90
       50
102
RTVSPost2010PropOp46
 70
     1
102
RTVSPost2010Prop47
 90
       50
102
RTVSPost2010PropOp47
 70
     1
102
RTVSPost2010Prop48
 90
       50
102
RTVSPost2010PropOp48
 70
     1
102
RTVSPost2010Prop49
280
     0
102
RTVSPost2010PropOp49
 70
     1
102
RTVSPost2010Prop50
 90
       50
102
RTVSPost2010PropOp50
 70
     1
102
RTVSPost2010Prop51ColorIndex
 90
      256
102
RTVSPost2010Prop51ColorRGB
 90
-16777216
102
RTVSPost2010PropOp51
 70
     0
102
RTVSPost2010Prop52
140
1.0
102
RTVSPost2010PropOp52
 70
     0
102
RTVSPost2010Prop53
 90
        2
102
RTVSPost2010PropOp53
 70
     1
102
RTVSPost2010Prop54
  1
strokes_ogs.tif
102
RTVSPost2010PropOp54
 70
     1
102
RTVSPost2010Prop55
280
     0
102
RTVSPost2010PropOp55
 70
     1
102
RTVSPost2010Prop56
140
1.0
102
RTVSPost2010PropOp56
 70
     1
102
RTVSPost2010Prop57
140
1.0
102
RTVSPost2010PropOp57
 70
     1
102
RTVSPropertyOp0
 70
     1
102
RTVSPropertyOp1
 70
     1
102
RTVSPropertyOp2
 70
     1
102
RTVSPropertyOp3
 70
     1
102
RTVSPropertyOp4
 70
     1
102
RTVSPropertyOp5
 70
     1
102
RTVSPropertyOp6
 70
     1
102
RTVSPropertyOp7
 70
     1
102
RTVSPropertyOp8
 70
     1
102
RTVSPropertyOp9
 70
     1
102
RTVSPropertyOp10
 70
     1
102
RTVSPropertyOp11
 70
     1
102
RTVSPropertyOp12
 70
     1
102
RTVSPropertyOp13
 70
     1
102
RTVSPropertyOp14
 70
     1
102
RTVSPropertyOp15
 70
     1
102
RTVSPropertyOp16
 70
     1
102
RTVSPropertyOp17
 70
     1
102
RTVSPropertyOp18
 70
     1
102
RTVSPropertyOp19
 70
     1
102
RTVSPropertyOp20
 70
     1
102
RTVSPropertyOp21
 70
     1
102
RTVSPropertyOp22
 70
     1
102
RTVSPropertyOp23
 70
     1
102
RTVSPropertyOp24
 70
     1
102
RTVSPropertyOp25
 70
     1
102
RTVSPropertyOp26
 70
     1
102
RTVSPropertyOp27
 70
     1
102
RTVSPropertyOp28
 70
     1
102
RTVSPropertyOp29
 70
     1
102
RTVSPropertyOp30
 70
     1
102
RTVSPropertyOp31
 70
     1
102
RTVSPropertyOp32
 70
     1
102
RTVSPropertyOp33
 70
     1
102
RTVSPropertyOp34
 70
     1
102
RTVSPropertyOp35
 70
     1
102
RTVSPropertyOp36
 70
     1
102
RTVSPropertyOp37
 70
     1
102
RTVSPropertyOp38
 70
     1
102
RTVSPropertyOp39
 70
     1
102
RTVSPropertyOp40
 70
     1
102
RTVSPropertyOp41
 70
     1
102
RTVSPropertyOp42
 70
     1
102
RTVSPropertyOp43
 70
     1
102
RTVSPropertyOp44
 70
     1
102
RTVSPropertyOp45
 70
     1
102
RTVSPropertyOp46
 70
     1
102
RTVSPropertyOp47
 70
     1
102
RTVSPropertyOp48
 70
     1
102
RTVSPropertyOp49
 70
     1
102
RTVSPropertyOp50
 70
     1
102
RTVSPropertyOp51
 70
     0
102
RTVSPropertyOp52
 70
     0
102
RTVSPropertyOp53
 70
     1
102
RTVSPropertyOp54
 70
     1
102
RTVSPropertyOp55
 70
     1
102
RTVSPropertyOp56
 70
     1
102
RTVSPropertyOp57
 70
     1
102
RTVSPropertyOp58
 70
     1
102
RTVSPropertyOp59
 70
     1
102
RTVSPropertyOp60
 70
     1
102
RTVSPropertyOp61
 70
     1
102
RTVSPropertyOp62
 70
     1
  0
XRECORD
  5
34C
102
{ACAD_REACTORS
330
34B
102
}
330
34B
100
AcDbXrecord
280
     1
102
RTVSPost2010Prop28
280
     0
102
RTVSPost2010PropOp28
 70
     1
102
RTVSPost2010Prop29
280
     1
102
RTVSPost2010PropOp29
 70
     1
102
RTVSPost2010Prop30
280
     1
102
RTVSPost2010PropOp30
 70
     1
102
RTVSPost2010Prop31
280
     0
102
RTVSPost2010PropOp31
 70
     1
102
RTVSPost2010Prop32
280
     0
102
RTVSPost2010PropOp32
 70
     1
102
RTVSPost2010Prop33
280
     0
102
RTVSPost2010PropOp33
 70
     1
102
RTVSPost2010Prop34
280
     0
102
RTVSPost2010PropOp34
 70
     1
102
RTVSPost2010Prop35
280
     0
102
RTVSPost2010PropOp35
 70
     1
102
RTVSPost2010Prop36
280
     0
102
RTVSPost2010PropOp36
 70
     1
102
RTVSPost2010Prop37
 90
       50
102
RTVSPost2010PropOp37
 70
     1
102
RTVSPost2010Prop38
140
0.0
102
RTVSPost2010PropOp38
 70
     1
102
RTVSPost2010Prop39
140
1.0
102
RTVSPost2010PropOp39
 70
     1
102
RTVSPost2010Prop40
 90
        0
102
RTVSPost2010PropOp40
 70
     1
102
RTVSPost2010Prop41ColorIndex
 90
       18
102
RTVSPost2010Prop41ColorRGB
 90
        0
102
RTVSPost2010PropOp41
 70
     1
102
RTVSPost2010Prop42
 90
       50
102
RTVSPost2010PropOp42
 70
     1
102
RTVSPost2010Prop43
 90
        3
102
RTVSPost2010PropOp43
 70
     1
102
RTVSPost2010Prop44ColorIndex
 90
        5
102
RTVSPost2010Prop44ColorRGB
 90
      255
102
RTVSPost2010PropOp44
 70
     1
102
RTVSPost2010Prop45
280
     0
102
RTVSPost2010PropOp45
 70
     1
102
RTVSPost2010Prop46
 90
       50
102
RTVSPost2010PropOp46
 70
     1
102
RTVSPost2010Prop47
 90
       50
102
RTVSPost2010PropOp47
 70
     1
102
RTVSPost2010Prop48
 90
       50
102
RTVSPost2010PropOp48
 70
     1
102
RTVSPost2010Prop49
280
     0
102
RTVSPost2010PropOp49
 70
     1
102
RTVSPost2010Prop50
 90
       50
102
RTVSPost2010PropOp50
 70
     1
102
RTVSPost2010Prop51ColorIndex
 90
      256
102
RTVSPost2010Prop51ColorRGB
 90
-16777216
102
RTVSPost2010PropOp51
 70
     0
102
RTVSPost2010Prop52
140
1.0
102
RTVSPost2010PropOp52
 70
     0
102
RTVSPost2010Prop53
 90
        2
102
RTVSPost2010PropOp53
 70
     1
102
RTVSPost2010Prop54
  1
strokes_ogs.tif
102
RTVSPost2010PropOp54
 70
     1
102
RTVSPost2010Prop55
280
     0
102
RTVSPost2010PropOp55
 70
     1
102
RTVSPost2010Prop56
140
1.0
102
RTVSPost2010PropOp56
 70
     1
102
RTVSPost2010Prop57
140
1.0
102
RTVSPost2010PropOp57
 70
     1
102
RTVSPropertyOp0
 70
     1
102
RTVSPropertyOp1
 70
     1
102
RTVSPropertyOp2
 70
     1
102
RTVSPropertyOp3
 70
     1
102
RTVSPropertyOp4
 70
     1
102
RTVSPropertyOp5
 70
     1
102
RTVSPropertyOp6
 70
     1
102
RTVSPropertyOp7
 70
     1
102
RTVSPropertyOp8
 70
     1
102
RTVSPropertyOp9
 70
     1
102
RTVSPropertyOp10
 70
     1
102
RTVSPropertyOp11
 70
     1
102
RTVSPropertyOp12
 70
     1
102
RTVSPropertyOp13
 70
     1
102
RTVSPropertyOp14
 70
     1
102
RTVSPropertyOp15
 70
     1
102
RTVSPropertyOp16
 70
     1
102
RTVSPropertyOp17
 70
     1
102
RTVSPropertyOp18
 70
     1
102
RTVSPropertyOp19
 70
     1
102
RTVSPropertyOp20
 70
     1
102
RTVSPropertyOp21
 70
     1
102
RTVSPropertyOp22
 70
     1
102
RTVSPropertyOp23
 70
     1
102
RTVSPropertyOp24
 70
     1
102
RTVSPropertyOp25
 70
     1
102
RTVSPropertyOp26
 70
     1
102
RTVSPropertyOp27
 70
     1
102
RTVSPropertyOp28
 70
     1
102
RTVSPropertyOp29
 70
     1
102
RTVSPropertyOp30
 70
     1
102
RTVSPropertyOp31
 70
     1
102
RTVSPropertyOp32
 70
     1
102
RTVSPropertyOp33
 70
     1
102
RTVSPropertyOp34
 70
     1
102
RTVSPropertyOp35
 70
     1
102
RTVSPropertyOp36
 70
     1
102
RTVSPropertyOp37
 70
     1
102
RTVSPropertyOp38
 70
     1
102
RTVSPropertyOp39
 70
     1
102
RTVSPropertyOp40
 70
     1
102
RTVSPropertyOp41
 70
     1
102
RTVSPropertyOp42
 70
     1
102
RTVSPropertyOp43
 70
     1
102
RTVSPropertyOp44
 70
     1
102
RTVSPropertyOp45
 70
     1
102
RTVSPropertyOp46
 70
     1
102
RTVSPropertyOp47
 70
     1
102
RTVSPropertyOp48
 70
     1
102
RTVSPropertyOp49
 70
     1
102
RTVSPropertyOp50
 70
     1
102
RTVSPropertyOp51
 70
     0
102
RTVSPropertyOp52
 70
     0
102
RTVSPropertyOp53
 70
     1
102
RTVSPropertyOp54
 70
     1
102
RTVSPropertyOp55
 70
     1
102
RTVSPropertyOp56
 70
     1
102
RTVSPropertyOp57
 70
     1
102
RTVSPropertyOp58
 70
     1
102
RTVSPropertyOp59
 70
     1
102
RTVSPropertyOp60
 70
     1
102
RTVSPropertyOp61
 70
     1
102
RTVSPropertyOp62
 70
     1
  0
XRECORD
  5
36C
102
{ACAD_REACTORS
330
36B
102
}
330
36B
100
AcDbXrecord
280
     1
102
RTVSPost2010Prop28
280
     0
102
RTVSPost2010PropOp28
 70
     1
102
RTVSPost2010Prop29
280
     1
102
RTVSPost2010PropOp29
 70
     1
102
RTVSPost2010Prop30
280
     1
102
RTVSPost2010PropOp30
 70
     1
102
RTVSPost2010Prop31
280
     0
102
RTVSPost2010PropOp31
 70
     1
102
RTVSPost2010Prop32
280
     0
102
RTVSPost2010PropOp32
 70
     1
102
RTVSPost2010Prop33
280
     0
102
RTVSPost2010PropOp33
 70
     1
102
RTVSPost2010Prop34
280
     0
102
RTVSPost2010PropOp34
 70
     1
102
RTVSPost2010Prop35
280
     0
102
RTVSPost2010PropOp35
 70
     1
102
RTVSPost2010Prop36
280
     0
102
RTVSPost2010PropOp36
 70
     1
102
RTVSPost2010Prop37
 90
       50
102
RTVSPost2010PropOp37
 70
     1
102
RTVSPost2010Prop38
140
0.0
102
RTVSPost2010PropOp38
 70
     1
102
RTVSPost2010Prop39
140
1.0
102
RTVSPost2010PropOp39
 70
     1
102
RTVSPost2010Prop40
 90
        0
102
RTVSPost2010PropOp40
 70
     1
102
RTVSPost2010Prop41ColorIndex
 90
       18
102
RTVSPost2010Prop41ColorRGB
 90
        0
102
RTVSPost2010PropOp41
 70
     1
102
RTVSPost2010Prop42
 90
       50
102
RTVSPost2010PropOp42
 70
     1
102
RTVSPost2010Prop43
 90
        3
102
RTVSPost2010PropOp43
 70
     1
102
RTVSPost2010Prop44ColorIndex
 90
        5
102
RTVSPost2010Prop44ColorRGB
 90
      255
102
RTVSPost2010PropOp44
 70
     1
102
RTVSPost2010Prop45
280
     0
102
RTVSPost2010PropOp45
 70
     1
102
RTVSPost2010Prop46
 90
       50
102
RTVSPost2010PropOp46
 70
     1
102
RTVSPost2010Prop47
 90
       50
102
RTVSPost2010PropOp47
 70
     1
102
RTVSPost2010Prop48
 90
       50
102
RTVSPost2010PropOp48
 70
     1
102
RTVSPost2010Prop49
280
     0
102
RTVSPost2010PropOp49
 70
     1
102
RTVSPost2010Prop50
 90
       50
102
RTVSPost2010PropOp50
 70
     1
102
RTVSPost2010Prop51ColorIndex
 90
      256
102
RTVSPost2010Prop51ColorRGB
 90
-16777216
102
RTVSPost2010PropOp51
 70
     0
102
RTVSPost2010Prop52
140
1.0
102
RTVSPost2010PropOp52
 70
     0
102
RTVSPost2010Prop53
 90
        2
102
RTVSPost2010PropOp53
 70
     1
102
RTVSPost2010Prop54
  1
strokes_ogs.tif
102
RTVSPost2010PropOp54
 70
     1
102
RTVSPost2010Prop55
280
     0
102
RTVSPost2010PropOp55
 70
     1
102
RTVSPost2010Prop56
140
1.0
102
RTVSPost2010PropOp56
 70
     1
102
RTVSPost2010Prop57
140
1.0
102
RTVSPost2010PropOp57
 70
     1
102
RTVSPropertyOp0
 70
     1
102
RTVSPropertyOp1
 70
     1
102
RTVSPropertyOp2
 70
     1
102
RTVSPropertyOp3
 70
     1
102
RTVSPropertyOp4
 70
     1
102
RTVSPropertyOp5
 70
     1
102
RTVSPropertyOp6
 70
     1
102
RTVSPropertyOp7
 70
     1
102
RTVSPropertyOp8
 70
     1
102
RTVSPropertyOp9
 70
     1
102
RTVSPropertyOp10
 70
     1
102
RTVSPropertyOp11
 70
     1
102
RTVSPropertyOp12
 70
     1
102
RTVSPropertyOp13
 70
     1
102
RTVSPropertyOp14
 70
     1
102
RTVSPropertyOp15
 70
     1
102
RTVSPropertyOp16
 70
     1
102
RTVSPropertyOp17
 70
     1
102
RTVSPropertyOp18
 70
     1
102
RTVSPropertyOp19
 70
     1
102
RTVSPropertyOp20
 70
     1
102
RTVSPropertyOp21
 70
     1
102
RTVSPropertyOp22
 70
     1
102
RTVSPropertyOp23
 70
     1
102
RTVSPropertyOp24
 70
     1
102
RTVSPropertyOp25
 70
     1
102
RTVSPropertyOp26
 70
     1
102
RTVSPropertyOp27
 70
     1
102
RTVSPropertyOp28
 70
     1
102
RTVSPropertyOp29
 70
     1
102
RTVSPropertyOp30
 70
     1
102
RTVSPropertyOp31
 70
     1
102
RTVSPropertyOp32
 70
     1
102
RTVSPropertyOp33
 70
     1
102
RTVSPropertyOp34
 70
     1
102
RTVSPropertyOp35
 70
     1
102
RTVSPropertyOp36
 70
     1
102
RTVSPropertyOp37
 70
     1
102
RTVSPropertyOp38
 70
     1
102
RTVSPropertyOp39
 70
     1
102
RTVSPropertyOp40
 70
     1
102
RTVSPropertyOp41
 70
     1
102
RTVSPropertyOp42
 70
     1
102
RTVSPropertyOp43
 70
     1
102
RTVSPropertyOp44
 70
     1
102
RTVSPropertyOp45
 70
     1
102
RTVSPropertyOp46
 70
     1
102
RTVSPropertyOp47
 70
     1
102
RTVSPropertyOp48
 70
     1
102
RTVSPropertyOp49
 70
     1
102
RTVSPropertyOp50
 70
     1
102
RTVSPropertyOp51
 70
     0
102
RTVSPropertyOp52
 70
     0
102
RTVSPropertyOp53
 70
     1
102
RTVSPropertyOp54
 70
     1
102
RTVSPropertyOp55
 70
     1
102
RTVSPropertyOp56
 70
     1
102
RTVSPropertyOp57
 70
     1
102
RTVSPropertyOp58
 70
     1
102
RTVSPropertyOp59
 70
     1
102
RTVSPropertyOp60
 70
     1
102
RTVSPropertyOp61
 70
     1
102
RTVSPropertyOp62
 70
     1
  0
ENDSEC
  0
EOF
