ISO-10303-21;
HEADER;
/* Generated by software containing ST-Developer
 * from STEP Tools, Inc. (www.steptools.com) 
 */
/* OPTION: using custom schema-name function */

FILE_DESCRIPTION(
/* description */ (''),
/* implementation_level */ '2;1');

FILE_NAME(
/* name */ '25K3R060A25-CXP25_115009543ndi000_00-SIM.stp',
/* time_stamp */ '2019-12-09T09:39:06+01:00',
/* author */ (''),
/* organization */ (''),
/* preprocessor_version */ 'ST-DEVELOPER v16.7',
/* originating_system */ 'SIEMENS PLM Software NX 12.0',
/* authorisation */ '');

FILE_SCHEMA (('AUTOMOTIVE_DESIGN { 1 0 10303 214 3 1 1 1 }'));
ENDSEC;

DATA;
#10=PROPERTY_DEFINITION_REPRESENTATION(#14,#12);
#11=PROPERTY_DEFINITION_REPRESENTATION(#15,#13);
#12=REPRESENTATION('',(#16),#593);
#13=REPRESENTATION('',(#17),#593);
#14=PROPERTY_DEFINITION('pmi validation property','',#21);
#15=PROPERTY_DEFINITION('pmi validation property','',#21);
#16=VALUE_REPRESENTATION_ITEM('number of annotations',COUNT_MEASURE(0.));
#17=VALUE_REPRESENTATION_ITEM('number of views',COUNT_MEASURE(0.));
#18=SHAPE_REPRESENTATION_RELATIONSHIP('None',
'relationship between hm1522F0B8948c45-None and hm1522F0B8948c45-None',
#30,#19);
#19=ADVANCED_BREP_SHAPE_REPRESENTATION('hm1522F0B8948c45-None',(#96,#97),
#593);
#20=SHAPE_DEFINITION_REPRESENTATION(#21,#30);
#21=PRODUCT_DEFINITION_SHAPE('','',#22);
#22=PRODUCT_DEFINITION(' ','',#24,#23);
#23=PRODUCT_DEFINITION_CONTEXT('part definition',#29,'design');
#24=PRODUCT_DEFINITION_FORMATION_WITH_SPECIFIED_SOURCE(' ',' ',#26,
 .NOT_KNOWN.);
#25=PRODUCT_RELATED_PRODUCT_CATEGORY('part','',(#26));
#26=PRODUCT('hm1522F0B8948c45','hm1522F0B8948c45',' ',(#27));
#27=PRODUCT_CONTEXT(' ',#29,'mechanical');
#28=APPLICATION_PROTOCOL_DEFINITION('international standard',
'automotive_design',2010,#29);
#29=APPLICATION_CONTEXT(
'core data for automotive mechanical design processes');
#30=SHAPE_REPRESENTATION('hm1522F0B8948c45-None',(#358),#593);
#31=(
BOUNDED_CURVE()
B_SPLINE_CURVE(3,(#584,#585,#586,#587,#588,#589,#590),.UNSPECIFIED.,.F.,
 .F.)
B_SPLINE_CURVE_WITH_KNOTS((4,3,4),(0.,0.5,1.),.UNSPECIFIED.)
CURVE()
GEOMETRIC_REPRESENTATION_ITEM()
RATIONAL_B_SPLINE_CURVE((1.,0.804737425936759,0.804737425936759,1.,0.804737425936759,
0.804737425936759,1.))
REPRESENTATION_ITEM('')
);
#32=SURFACE_OF_REVOLUTION('',#58,#45);
#33=SURFACE_OF_REVOLUTION('',#59,#46);
#34=SURFACE_OF_REVOLUTION('',#60,#47);
#35=SURFACE_OF_REVOLUTION('',#348,#48);
#36=SURFACE_OF_REVOLUTION('',#61,#49);
#37=SURFACE_OF_REVOLUTION('',#351,#50);
#38=SURFACE_OF_REVOLUTION('',#62,#51);
#39=SURFACE_OF_REVOLUTION('',#63,#52);
#40=SURFACE_OF_REVOLUTION('',#64,#53);
#41=SURFACE_OF_REVOLUTION('',#65,#54);
#42=SURFACE_OF_REVOLUTION('',#66,#55);
#43=SURFACE_OF_REVOLUTION('',#67,#56);
#44=SURFACE_OF_REVOLUTION('',#31,#57);
#45=AXIS1_PLACEMENT('',#539,#450);
#46=AXIS1_PLACEMENT('',#543,#454);
#47=AXIS1_PLACEMENT('',#547,#458);
#48=AXIS1_PLACEMENT('',#551,#463);
#49=AXIS1_PLACEMENT('',#555,#467);
#50=AXIS1_PLACEMENT('',#559,#472);
#51=AXIS1_PLACEMENT('',#563,#476);
#52=AXIS1_PLACEMENT('',#567,#480);
#53=AXIS1_PLACEMENT('',#571,#484);
#54=AXIS1_PLACEMENT('',#575,#488);
#55=AXIS1_PLACEMENT('',#579,#492);
#56=AXIS1_PLACEMENT('',#583,#496);
#57=AXIS1_PLACEMENT('',#591,#497);
#58=LINE('',#538,#68);
#59=LINE('',#542,#69);
#60=LINE('',#546,#70);
#61=LINE('',#554,#71);
#62=LINE('',#562,#72);
#63=LINE('',#566,#73);
#64=LINE('',#570,#74);
#65=LINE('',#574,#75);
#66=LINE('',#578,#76);
#67=LINE('',#582,#77);
#68=VECTOR('',#449,2.45833423214586);
#69=VECTOR('',#453,5.48011720571896);
#70=VECTOR('',#457,0.0500000000000018);
#71=VECTOR('',#466,5.85);
#72=VECTOR('',#475,0.0500000000000001);
#73=VECTOR('',#479,3.125);
#74=VECTOR('',#483,3.32582947844627);
#75=VECTOR('',#487,2.5);
#76=VECTOR('',#491,3.72046103973051);
#77=VECTOR('',#495,2.14003197408067);
#78=PRESENTATION_LAYER_ASSIGNMENT('14','Layer 14',(#96));
#79=PRESENTATION_LAYER_ASSIGNMENT('96','Layer 96',(#97));
#80=STYLED_ITEM('',(#82),#96);
#81=STYLED_ITEM('',(#83),#97);
#82=PRESENTATION_STYLE_ASSIGNMENT((#84));
#83=PRESENTATION_STYLE_ASSIGNMENT((#85));
#84=SURFACE_STYLE_USAGE(.BOTH.,#86);
#85=SURFACE_STYLE_USAGE(.BOTH.,#87);
#86=SURFACE_SIDE_STYLE('',(#88));
#87=SURFACE_SIDE_STYLE('',(#89));
#88=SURFACE_STYLE_FILL_AREA(#90);
#89=SURFACE_STYLE_FILL_AREA(#91);
#90=FILL_AREA_STYLE('',(#92));
#91=FILL_AREA_STYLE('',(#93));
#92=FILL_AREA_STYLE_COLOUR('',#94);
#93=FILL_AREA_STYLE_COLOUR('',#95);
#94=COLOUR_RGB('Silver Gray',0.6,0.6,0.6);
#95=COLOUR_RGB('Light Gray',0.8,0.8,0.8);
#96=MANIFOLD_SOLID_BREP('',#98);
#97=MANIFOLD_SOLID_BREP('',#99);
#98=CLOSED_SHELL('',(#110,#111,#112,#113,#114,#115,#116,#117,#118,#119,
#120,#121));
#99=CLOSED_SHELL('',(#122,#123,#124,#125,#126,#127,#128,#129,#130,#131,
#132,#133,#134));
#100=TOROIDAL_SURFACE('',#381,12.79475,0.8);
#101=SPHERICAL_SURFACE('',#379,11.6277846762033);
#102=FACE_OUTER_BOUND('',#202,.T.);
#103=VERTEX_LOOP('',#291);
#104=PLANE('',#369);
#105=PLANE('',#377);
#106=CYLINDRICAL_SURFACE('',#363,11.99475);
#107=CYLINDRICAL_SURFACE('',#366,12.49475);
#108=CYLINDRICAL_SURFACE('',#374,1.575);
#109=CYLINDRICAL_SURFACE('',#380,11.6277846762033);
#110=ADVANCED_FACE('',(#139,#140),#135,.T.);
#111=ADVANCED_FACE('',(#141,#142),#106,.T.);
#112=ADVANCED_FACE('',(#143,#144),#107,.T.);
#113=ADVANCED_FACE('',(#145,#146),#104,.T.);
#114=ADVANCED_FACE('',(#147,#148),#136,.T.);
#115=ADVANCED_FACE('',(#149,#150),#137,.F.);
#116=ADVANCED_FACE('',(#151,#152),#108,.F.);
#117=ADVANCED_FACE('',(#153,#154),#138,.F.);
#118=ADVANCED_FACE('',(#102),#105,.F.);
#119=ADVANCED_FACE('',(#155,#156),#101,.T.);
#120=ADVANCED_FACE('',(#157,#158),#109,.T.);
#121=ADVANCED_FACE('',(#159,#160),#100,.F.);
#122=ADVANCED_FACE('',(#161,#162),#32,.T.);
#123=ADVANCED_FACE('',(#163,#164),#33,.T.);
#124=ADVANCED_FACE('',(#165,#166),#34,.T.);
#125=ADVANCED_FACE('',(#167,#168),#35,.T.);
#126=ADVANCED_FACE('',(#169,#170),#36,.T.);
#127=ADVANCED_FACE('',(#171,#172),#37,.T.);
#128=ADVANCED_FACE('',(#173,#174),#38,.T.);
#129=ADVANCED_FACE('',(#175,#176),#39,.T.);
#130=ADVANCED_FACE('',(#177,#178),#40,.T.);
#131=ADVANCED_FACE('',(#179,#180),#41,.T.);
#132=ADVANCED_FACE('',(#181,#182),#42,.T.);
#133=ADVANCED_FACE('',(#183,#184),#43,.T.);
#134=ADVANCED_FACE('',(#185,#186),#44,.T.);
#135=CONICAL_SURFACE('',#361,11.6277846762033,3.49990108496663);
#136=CONICAL_SURFACE('',#370,12.49475,45.);
#137=CONICAL_SURFACE('',#372,1.575,59.);
#138=CONICAL_SURFACE('',#375,2.5,30.);
#139=FACE_BOUND('',#187,.T.);
#140=FACE_BOUND('',#188,.T.);
#141=FACE_BOUND('',#189,.T.);
#142=FACE_BOUND('',#190,.T.);
#143=FACE_BOUND('',#191,.T.);
#144=FACE_BOUND('',#192,.T.);
#145=FACE_BOUND('',#193,.T.);
#146=FACE_BOUND('',#194,.T.);
#147=FACE_BOUND('',#195,.T.);
#148=FACE_BOUND('',#196,.T.);
#149=FACE_BOUND('',#197,.T.);
#150=FACE_BOUND('',#103,.T.);
#151=FACE_BOUND('',#198,.T.);
#152=FACE_BOUND('',#199,.T.);
#153=FACE_BOUND('',#200,.T.);
#154=FACE_BOUND('',#201,.T.);
#155=FACE_BOUND('',#203,.T.);
#156=FACE_BOUND('',#204,.T.);
#157=FACE_BOUND('',#205,.T.);
#158=FACE_BOUND('',#206,.T.);
#159=FACE_BOUND('',#207,.T.);
#160=FACE_BOUND('',#208,.T.);
#161=FACE_BOUND('',#209,.T.);
#162=FACE_BOUND('',#210,.T.);
#163=FACE_BOUND('',#211,.T.);
#164=FACE_BOUND('',#212,.T.);
#165=FACE_BOUND('',#213,.T.);
#166=FACE_BOUND('',#214,.T.);
#167=FACE_BOUND('',#215,.T.);
#168=FACE_BOUND('',#216,.T.);
#169=FACE_BOUND('',#217,.T.);
#170=FACE_BOUND('',#218,.T.);
#171=FACE_BOUND('',#219,.T.);
#172=FACE_BOUND('',#220,.T.);
#173=FACE_BOUND('',#221,.T.);
#174=FACE_BOUND('',#222,.T.);
#175=FACE_BOUND('',#223,.T.);
#176=FACE_BOUND('',#224,.T.);
#177=FACE_BOUND('',#225,.T.);
#178=FACE_BOUND('',#226,.T.);
#179=FACE_BOUND('',#227,.T.);
#180=FACE_BOUND('',#228,.T.);
#181=FACE_BOUND('',#229,.T.);
#182=FACE_BOUND('',#230,.T.);
#183=FACE_BOUND('',#231,.T.);
#184=FACE_BOUND('',#232,.T.);
#185=FACE_BOUND('',#233,.T.);
#186=FACE_BOUND('',#234,.T.);
#187=EDGE_LOOP('',(#235));
#188=EDGE_LOOP('',(#236));
#189=EDGE_LOOP('',(#237));
#190=EDGE_LOOP('',(#238));
#191=EDGE_LOOP('',(#239));
#192=EDGE_LOOP('',(#240));
#193=EDGE_LOOP('',(#241));
#194=EDGE_LOOP('',(#242));
#195=EDGE_LOOP('',(#243));
#196=EDGE_LOOP('',(#244));
#197=EDGE_LOOP('',(#245));
#198=EDGE_LOOP('',(#246));
#199=EDGE_LOOP('',(#247));
#200=EDGE_LOOP('',(#248));
#201=EDGE_LOOP('',(#249));
#202=EDGE_LOOP('',(#250));
#203=EDGE_LOOP('',(#251));
#204=EDGE_LOOP('',(#252));
#205=EDGE_LOOP('',(#253));
#206=EDGE_LOOP('',(#254));
#207=EDGE_LOOP('',(#255));
#208=EDGE_LOOP('',(#256));
#209=EDGE_LOOP('',(#257));
#210=EDGE_LOOP('',(#258));
#211=EDGE_LOOP('',(#259));
#212=EDGE_LOOP('',(#260));
#213=EDGE_LOOP('',(#261));
#214=EDGE_LOOP('',(#262));
#215=EDGE_LOOP('',(#263));
#216=EDGE_LOOP('',(#264));
#217=EDGE_LOOP('',(#265));
#218=EDGE_LOOP('',(#266));
#219=EDGE_LOOP('',(#267));
#220=EDGE_LOOP('',(#268));
#221=EDGE_LOOP('',(#269));
#222=EDGE_LOOP('',(#270));
#223=EDGE_LOOP('',(#271));
#224=EDGE_LOOP('',(#272));
#225=EDGE_LOOP('',(#273));
#226=EDGE_LOOP('',(#274));
#227=EDGE_LOOP('',(#275));
#228=EDGE_LOOP('',(#276));
#229=EDGE_LOOP('',(#277));
#230=EDGE_LOOP('',(#278));
#231=EDGE_LOOP('',(#279));
#232=EDGE_LOOP('',(#280));
#233=EDGE_LOOP('',(#281));
#234=EDGE_LOOP('',(#282));
#235=ORIENTED_EDGE('',*,*,#308,.T.);
#236=ORIENTED_EDGE('',*,*,#309,.F.);
#237=ORIENTED_EDGE('',*,*,#310,.T.);
#238=ORIENTED_EDGE('',*,*,#308,.F.);
#239=ORIENTED_EDGE('',*,*,#311,.T.);
#240=ORIENTED_EDGE('',*,*,#312,.F.);
#241=ORIENTED_EDGE('',*,*,#313,.T.);
#242=ORIENTED_EDGE('',*,*,#314,.T.);
#243=ORIENTED_EDGE('',*,*,#314,.F.);
#244=ORIENTED_EDGE('',*,*,#311,.F.);
#245=ORIENTED_EDGE('',*,*,#315,.T.);
#246=ORIENTED_EDGE('',*,*,#315,.F.);
#247=ORIENTED_EDGE('',*,*,#316,.T.);
#248=ORIENTED_EDGE('',*,*,#316,.F.);
#249=ORIENTED_EDGE('',*,*,#313,.F.);
#250=ORIENTED_EDGE('',*,*,#317,.F.);
#251=ORIENTED_EDGE('',*,*,#318,.F.);
#252=ORIENTED_EDGE('',*,*,#317,.T.);
#253=ORIENTED_EDGE('',*,*,#309,.T.);
#254=ORIENTED_EDGE('',*,*,#318,.T.);
#255=ORIENTED_EDGE('',*,*,#312,.T.);
#256=ORIENTED_EDGE('',*,*,#310,.F.);
#257=ORIENTED_EDGE('',*,*,#319,.F.);
#258=ORIENTED_EDGE('',*,*,#320,.T.);
#259=ORIENTED_EDGE('',*,*,#321,.F.);
#260=ORIENTED_EDGE('',*,*,#319,.T.);
#261=ORIENTED_EDGE('',*,*,#322,.F.);
#262=ORIENTED_EDGE('',*,*,#321,.T.);
#263=ORIENTED_EDGE('',*,*,#323,.F.);
#264=ORIENTED_EDGE('',*,*,#322,.T.);
#265=ORIENTED_EDGE('',*,*,#324,.F.);
#266=ORIENTED_EDGE('',*,*,#323,.T.);
#267=ORIENTED_EDGE('',*,*,#325,.F.);
#268=ORIENTED_EDGE('',*,*,#324,.T.);
#269=ORIENTED_EDGE('',*,*,#326,.F.);
#270=ORIENTED_EDGE('',*,*,#325,.T.);
#271=ORIENTED_EDGE('',*,*,#327,.F.);
#272=ORIENTED_EDGE('',*,*,#326,.T.);
#273=ORIENTED_EDGE('',*,*,#328,.F.);
#274=ORIENTED_EDGE('',*,*,#327,.T.);
#275=ORIENTED_EDGE('',*,*,#329,.F.);
#276=ORIENTED_EDGE('',*,*,#328,.T.);
#277=ORIENTED_EDGE('',*,*,#330,.F.);
#278=ORIENTED_EDGE('',*,*,#329,.T.);
#279=ORIENTED_EDGE('',*,*,#331,.F.);
#280=ORIENTED_EDGE('',*,*,#330,.T.);
#281=ORIENTED_EDGE('',*,*,#320,.F.);
#282=ORIENTED_EDGE('',*,*,#331,.T.);
#283=VERTEX_POINT('',#500);
#284=VERTEX_POINT('',#502);
#285=VERTEX_POINT('',#505);
#286=VERTEX_POINT('',#508);
#287=VERTEX_POINT('',#510);
#288=VERTEX_POINT('',#513);
#289=VERTEX_POINT('',#515);
#290=VERTEX_POINT('',#519);
#291=VERTEX_POINT('',#520);
#292=VERTEX_POINT('',#523);
#293=VERTEX_POINT('',#527);
#294=VERTEX_POINT('',#530);
#295=VERTEX_POINT('',#535);
#296=VERTEX_POINT('',#537);
#297=VERTEX_POINT('',#541);
#298=VERTEX_POINT('',#545);
#299=VERTEX_POINT('',#549);
#300=VERTEX_POINT('',#553);
#301=VERTEX_POINT('',#557);
#302=VERTEX_POINT('',#561);
#303=VERTEX_POINT('',#565);
#304=VERTEX_POINT('',#569);
#305=VERTEX_POINT('',#573);
#306=VERTEX_POINT('',#577);
#307=VERTEX_POINT('',#581);
#308=EDGE_CURVE('',#283,#283,#332,.T.);
#309=EDGE_CURVE('',#284,#284,#333,.T.);
#310=EDGE_CURVE('',#285,#285,#334,.T.);
#311=EDGE_CURVE('',#286,#286,#335,.T.);
#312=EDGE_CURVE('',#287,#287,#336,.T.);
#313=EDGE_CURVE('',#288,#288,#337,.T.);
#314=EDGE_CURVE('',#289,#289,#338,.T.);
#315=EDGE_CURVE('',#290,#290,#339,.T.);
#316=EDGE_CURVE('',#292,#292,#340,.T.);
#317=EDGE_CURVE('',#293,#293,#341,.T.);
#318=EDGE_CURVE('',#294,#294,#342,.T.);
#319=EDGE_CURVE('',#295,#295,#343,.T.);
#320=EDGE_CURVE('',#296,#296,#344,.T.);
#321=EDGE_CURVE('',#297,#297,#345,.T.);
#322=EDGE_CURVE('',#298,#298,#346,.T.);
#323=EDGE_CURVE('',#299,#299,#347,.T.);
#324=EDGE_CURVE('',#300,#300,#349,.T.);
#325=EDGE_CURVE('',#301,#301,#350,.T.);
#326=EDGE_CURVE('',#302,#302,#352,.T.);
#327=EDGE_CURVE('',#303,#303,#353,.T.);
#328=EDGE_CURVE('',#304,#304,#354,.T.);
#329=EDGE_CURVE('',#305,#305,#355,.T.);
#330=EDGE_CURVE('',#306,#306,#356,.T.);
#331=EDGE_CURVE('',#307,#307,#357,.T.);
#332=CIRCLE('',#359,11.99475);
#333=CIRCLE('',#360,11.6277846762033);
#334=CIRCLE('',#362,11.99475);
#335=CIRCLE('',#364,12.49475);
#336=CIRCLE('',#365,12.49475);
#337=CIRCLE('',#367,2.5);
#338=CIRCLE('',#368,11.49475);
#339=CIRCLE('',#371,1.575);
#340=CIRCLE('',#373,1.575);
#341=CIRCLE('',#376,2.49999999999998);
#342=CIRCLE('',#378,11.6277846762033);
#343=CIRCLE('',#382,0.534748784066796);
#344=CIRCLE('',#383,0.230967019961759);
#345=CIRCLE('',#384,1.49235781584854);
#346=CIRCLE('',#385,1.53669494227811);
#347=CIRCLE('',#386,1.78878035886913);
#348=CIRCLE('',#387,0.2);
#349=CIRCLE('',#388,3.93841324566446);
#350=CIRCLE('',#389,3.83203676600878);
#351=CIRCLE('',#390,0.2);
#352=CIRCLE('',#391,3.78717352339555);
#353=CIRCLE('',#392,4.93531028435114);
#354=CIRCLE('',#393,7.96882468903526);
#355=CIRCLE('',#394,9.26990292316139);
#356=CIRCLE('',#395,12.4203851671989);
#357=CIRCLE('',#396,12.5168261756684);
#358=AXIS2_PLACEMENT_3D('',#498,#397,#398);
#359=AXIS2_PLACEMENT_3D('',#499,#399,#400);
#360=AXIS2_PLACEMENT_3D('',#501,#401,#402);
#361=AXIS2_PLACEMENT_3D('',#503,#403,#404);
#362=AXIS2_PLACEMENT_3D('',#504,#405,#406);
#363=AXIS2_PLACEMENT_3D('',#506,#407,#408);
#364=AXIS2_PLACEMENT_3D('',#507,#409,#410);
#365=AXIS2_PLACEMENT_3D('',#509,#411,#412);
#366=AXIS2_PLACEMENT_3D('',#511,#413,#414);
#367=AXIS2_PLACEMENT_3D('',#512,#415,#416);
#368=AXIS2_PLACEMENT_3D('',#514,#417,#418);
#369=AXIS2_PLACEMENT_3D('',#516,#419,#420);
#370=AXIS2_PLACEMENT_3D('',#517,#421,#422);
#371=AXIS2_PLACEMENT_3D('',#518,#423,#424);
#372=AXIS2_PLACEMENT_3D('',#521,#425,#426);
#373=AXIS2_PLACEMENT_3D('',#522,#427,#428);
#374=AXIS2_PLACEMENT_3D('',#524,#429,#430);
#375=AXIS2_PLACEMENT_3D('',#525,#431,#432);
#376=AXIS2_PLACEMENT_3D('',#526,#433,#434);
#377=AXIS2_PLACEMENT_3D('',#528,#435,#436);
#378=AXIS2_PLACEMENT_3D('',#529,#437,#438);
#379=AXIS2_PLACEMENT_3D('',#531,#439,#440);
#380=AXIS2_PLACEMENT_3D('',#532,#441,#442);
#381=AXIS2_PLACEMENT_3D('',#533,#443,#444);
#382=AXIS2_PLACEMENT_3D('',#534,#445,#446);
#383=AXIS2_PLACEMENT_3D('',#536,#447,#448);
#384=AXIS2_PLACEMENT_3D('',#540,#451,#452);
#385=AXIS2_PLACEMENT_3D('',#544,#455,#456);
#386=AXIS2_PLACEMENT_3D('',#548,#459,#460);
#387=AXIS2_PLACEMENT_3D('',#550,#461,#462);
#388=AXIS2_PLACEMENT_3D('',#552,#464,#465);
#389=AXIS2_PLACEMENT_3D('',#556,#468,#469);
#390=AXIS2_PLACEMENT_3D('',#558,#470,#471);
#391=AXIS2_PLACEMENT_3D('',#560,#473,#474);
#392=AXIS2_PLACEMENT_3D('',#564,#477,#478);
#393=AXIS2_PLACEMENT_3D('',#568,#481,#482);
#394=AXIS2_PLACEMENT_3D('',#572,#485,#486);
#395=AXIS2_PLACEMENT_3D('',#576,#489,#490);
#396=AXIS2_PLACEMENT_3D('',#580,#493,#494);
#397=DIRECTION('',(0.,0.,1.));
#398=DIRECTION('',(1.,0.,0.));
#399=DIRECTION('',(1.6828032739025E-17,2.22908045556108E-17,-1.));
#400=DIRECTION('',(1.6056440896119E-32,-1.,0.));
#401=DIRECTION('',(1.6828032739025E-17,2.22908045556108E-17,-1.));
#402=DIRECTION('',(1.44927752642998E-32,-1.,0.));
#403=DIRECTION('',(-1.6828032739025E-17,-2.22908045556108E-17,1.));
#404=DIRECTION('',(5.29183976603234E-33,1.,8.57963793542675E-16));
#405=DIRECTION('',(1.6828032739025E-17,2.22908045556108E-17,-1.));
#406=DIRECTION('',(-1.6056440896119E-32,1.,0.));
#407=DIRECTION('',(1.6828032739025E-17,2.22908045556108E-17,-1.));
#408=DIRECTION('',(1.6056440896119E-32,-1.,0.));
#409=DIRECTION('',(1.6828032739025E-17,2.22908045556108E-17,-1.));
#410=DIRECTION('',(0.,1.,0.));
#411=DIRECTION('',(1.6828032739025E-17,2.22908045556108E-17,-1.));
#412=DIRECTION('',(0.,1.,0.));
#413=DIRECTION('',(1.6828032739025E-17,2.22908045556108E-17,-1.));
#414=DIRECTION('',(1.54139133987253E-32,-1.,0.));
#415=DIRECTION('',(1.6828032739025E-17,2.22908045556108E-17,-1.));
#416=DIRECTION('',(0.,-1.,0.));
#417=DIRECTION('',(-1.6828032739025E-17,-2.22908045556108E-17,1.));
#418=DIRECTION('',(0.,1.,0.));
#419=DIRECTION('',(-1.6828032739025E-17,-2.22908045556108E-17,1.));
#420=DIRECTION('',(0.,1.,2.77555756156289E-17));
#421=DIRECTION('',(1.6828032739025E-17,2.22908045556108E-17,-1.));
#422=DIRECTION('',(1.44564379986592E-32,-1.,0.));
#423=DIRECTION('',(-1.6828032739025E-17,-2.22908045556108E-17,1.));
#424=DIRECTION('',(0.,-1.,0.));
#425=DIRECTION('',(-1.6828032739025E-17,-2.22908045556108E-17,1.));
#426=DIRECTION('',(-1.52608019099248E-32,1.,6.66458587102178E-17));
#427=DIRECTION('',(-1.6828032739025E-17,-2.22908045556108E-17,1.));
#428=DIRECTION('',(0.,-1.,0.));
#429=DIRECTION('',(1.6828032739025E-17,2.22908045556108E-17,-1.));
#430=DIRECTION('',(0.,-1.,0.));
#431=DIRECTION('',(-1.6828032739025E-17,-2.22908045556108E-17,1.));
#432=DIRECTION('',(-1.46142757976932E-32,1.,0.));
#433=DIRECTION('',(-1.6828032739025E-17,-2.22908045556108E-17,1.));
#434=DIRECTION('',(0.,1.,0.));
#435=DIRECTION('',(-1.6828032739025E-17,-2.22908045556108E-17,1.));
#436=DIRECTION('',(-1.41555850912462E-32,1.,2.08166817117217E-17));
#437=DIRECTION('',(-1.6828032739025E-17,-2.22908045556108E-17,1.));
#438=DIRECTION('',(-1.65631717306283E-32,1.,0.));
#439=DIRECTION('',(4.44043072183426E-17,-2.22908045556108E-17,1.));
#440=DIRECTION('',(1.,1.65631717306283E-32,0.));
#441=DIRECTION('',(-1.6828032739025E-17,-2.22908045556108E-17,1.));
#442=DIRECTION('',(-1.65631717306283E-32,1.,0.));
#443=DIRECTION('',(-1.6828032739025E-17,-2.22908045556108E-17,1.));
#444=DIRECTION('',(-1.41667183610382E-32,1.,0.));
#445=DIRECTION('',(0.,0.,-1.));
#446=DIRECTION('',(-1.,0.,0.));
#447=DIRECTION('',(0.,0.,-1.));
#448=DIRECTION('',(-1.,0.,0.));
#449=DIRECTION('',(-0.237668939172692,-0.0846584011007346,0.967649952449539));
#450=DIRECTION('',(0.,0.,-1.));
#451=DIRECTION('',(0.,0.,-1.));
#452=DIRECTION('',(-1.,0.,0.));
#453=DIRECTION('',(0.358384243542992,-0.0813663503405653,0.930021640077463));
#454=DIRECTION('',(0.,0.,-1.));
#455=DIRECTION('',(0.,0.,-1.));
#456=DIRECTION('',(-1.,0.,0.));
#457=DIRECTION('',(0.93357417165436,0.031235244935048,-0.35702048329714));
#458=DIRECTION('',(0.,0.,-1.));
#459=DIRECTION('',(0.,0.,-1.));
#460=DIRECTION('',(-1.,0.,0.));
#461=DIRECTION('',(4.5102810375397E-17,-0.996194698091746,-0.0871557427476584));
#462=DIRECTION('',(0.358384243542992,-0.0813663503405654,0.930021640077463));
#463=DIRECTION('',(0.,0.,-1.));
#464=DIRECTION('',(0.,0.,-1.));
#465=DIRECTION('',(-1.,0.,0.));
#466=DIRECTION('',(0.358384243542992,-0.0813663503405655,0.930021640077463));
#467=DIRECTION('',(0.,0.,-1.));
#468=DIRECTION('',(0.,0.,-1.));
#469=DIRECTION('',(-1.,0.,0.));
#470=DIRECTION('',(4.5102810375397E-17,-0.996194698091746,-0.0871557427476584));
#471=DIRECTION('',(0.358384243542992,-0.0813663503405654,0.930021640077463));
#472=DIRECTION('',(0.,0.,-1.));
#473=DIRECTION('',(0.,0.,-1.));
#474=DIRECTION('',(-1.,0.,0.));
#475=DIRECTION('',(-0.93357417165436,-0.0312352449350491,0.35702048329714));
#476=DIRECTION('',(0.,0.,-1.));
#477=DIRECTION('',(0.,0.,-1.));
#478=DIRECTION('',(-1.,0.,0.));
#479=DIRECTION('',(0.358384243542991,-0.0813663503405651,0.930021640077463));
#480=DIRECTION('',(0.,0.,-1.));
#481=DIRECTION('',(0.,0.,-1.));
#482=DIRECTION('',(-1.,0.,0.));
#483=DIRECTION('',(0.933574171654356,0.0312352449350471,-0.35702048329715));
#484=DIRECTION('',(0.,0.,-1.));
#485=DIRECTION('',(0.,0.,-1.));
#486=DIRECTION('',(-1.,0.,0.));
#487=DIRECTION('',(0.515053035223246,-0.0747062692877451,0.853896565303098));
#488=DIRECTION('',(0.,0.,-1.));
#489=DIRECTION('',(0.,0.,-1.));
#490=DIRECTION('',(-1.,0.,0.));
#491=DIRECTION('',(0.857158311461378,0.0448898298393179,-0.513093102925459));
#492=DIRECTION('',(0.,0.,-1.));
#493=DIRECTION('',(0.,0.,-1.));
#494=DIRECTION('',(-1.,0.,0.));
#495=DIRECTION('',(0.0523185268615862,0.0870363784291116,-0.99483035768767));
#496=DIRECTION('',(0.,0.,-1.));
#497=DIRECTION('',(0.,0.,-1.));
#498=CARTESIAN_POINT('',(0.,0.,0.));
#499=CARTESIAN_POINT('',(-2.27178441976838E-16,-3.00925861500748E-16,13.5));
#500=CARTESIAN_POINT('',(-2.27178441976838E-16,-11.99475,13.5));
#501=CARTESIAN_POINT('',(-1.26210245542688E-16,-1.67181034167083E-16,7.5));
#502=CARTESIAN_POINT('',(-1.26210245542688E-16,-11.6277846762033,7.5));
#503=CARTESIAN_POINT('',(-1.26210245542688E-16,-1.67181034167083E-16,7.5));
#504=CARTESIAN_POINT('',(-2.81607947921725E-16,-3.73024454241317E-16,16.7344544837177));
#505=CARTESIAN_POINT('',(-2.81607947921726E-16,11.99475,16.7344544837177));
#506=CARTESIAN_POINT('',(5.0484098217075E-16,6.68724136668322E-16,-30.));
#507=CARTESIAN_POINT('',(-3.47498876060867E-15,-4.60305114073363E-15,206.5));
#508=CARTESIAN_POINT('',(-3.47498876060867E-15,12.49475,206.5));
#509=CARTESIAN_POINT('',(-2.94087951015721E-16,-3.89555757343464E-16,17.4760743324272));
#510=CARTESIAN_POINT('',(-2.94087951015721E-16,12.49475,17.4760743324272));
#511=CARTESIAN_POINT('',(5.0484098217075E-16,6.68724136668322E-16,-30.));
#512=CARTESIAN_POINT('',(-3.49181679334769E-15,-4.62534194528924E-15,207.5));
#513=CARTESIAN_POINT('',(-3.49181679334769E-15,-2.5,207.5));
#514=CARTESIAN_POINT('',(-3.49181679334769E-15,-4.62534194528924E-15,207.5));
#515=CARTESIAN_POINT('',(-3.49181679334769E-15,11.49475,207.5));
#516=CARTESIAN_POINT('',(-12.49475,-4.62534194528924E-15,207.5));
#517=CARTESIAN_POINT('',(-3.47498876060867E-15,-4.60305114073363E-15,206.5));
#518=CARTESIAN_POINT('',(-3.39922895721758E-15,-4.50269793862427E-15,201.998));
#519=CARTESIAN_POINT('',(-3.39922895721758E-15,-1.575,201.998));
#520=CARTESIAN_POINT('',(-3.38330365630205E-15,-4.48160291369162E-15,201.051644525032));
#521=CARTESIAN_POINT('',(-3.39922895721758E-15,-4.50269793862427E-15,201.998));
#522=CARTESIAN_POINT('',(-3.46485581122942E-15,-4.58962879970973E-15,205.897853002999));
#523=CARTESIAN_POINT('',(-3.46485581122942E-15,-1.575,205.897853002999));
#524=CARTESIAN_POINT('',(-3.39922895721758E-15,-4.50269793862427E-15,201.998));
#525=CARTESIAN_POINT('',(-3.49181679334769E-15,-4.62534194528924E-15,207.5));
#526=CARTESIAN_POINT('',(6.95937632762375E-16,9.2185521595909E-16,-41.355852080586));
#527=CARTESIAN_POINT('',(6.95937632762375E-16,2.49999999999998,-41.355852080586));
#528=CARTESIAN_POINT('',(6.95937632762375E-16,9.2185521595909E-16,-41.355852080586));
#529=CARTESIAN_POINT('',(5.0484098217075E-16,6.68724136668322E-16,-30.));
#530=CARTESIAN_POINT('',(5.04840982170749E-16,11.6277846762033,-30.));
#531=CARTESIAN_POINT('',(5.0484098217075E-16,6.68724136668322E-16,-30.));
#532=CARTESIAN_POINT('',(5.0484098217075E-16,6.68724136668322E-16,-30.));
#533=CARTESIAN_POINT('',(-2.81607947921725E-16,-3.73024454241317E-16,16.7344544837177));
#534=CARTESIAN_POINT('',(0.,0.,-40.1990504712955));
#535=CARTESIAN_POINT('',(-0.534748784066796,0.,-40.1990504712955));
#536=CARTESIAN_POINT('',(0.,0.,-42.5778574741365));
#537=CARTESIAN_POINT('',(-0.230967019961759,0.,-42.5778574741365));
#538=CARTESIAN_POINT('',(0.0498045436479153,0.225533305172515,-42.5778574741365));
#539=CARTESIAN_POINT('',(0.,0.,0.));
#540=CARTESIAN_POINT('',(0.,0.,-35.102422879816));
#541=CARTESIAN_POINT('',(-1.49235781584854,0.,-35.102422879816));
#542=CARTESIAN_POINT('',(-0.534465145438107,0.0174146597078441,-40.1990504712955));
#543=CARTESIAN_POINT('',(0.,0.,0.));
#544=CARTESIAN_POINT('',(0.,0.,-35.1202739039809));
#545=CARTESIAN_POINT('',(-1.53669494227811,0.,-35.1202739039809));
#546=CARTESIAN_POINT('',(1.42952251386041,-0.428482476760044,-35.102422879816));
#547=CARTESIAN_POINT('',(0.,0.,0.));
#548=CARTESIAN_POINT('',(0.,0.,-35.0056736726248));
#549=CARTESIAN_POINT('',(-1.78878035886913,0.,-35.0056736726248));
#550=CARTESIAN_POINT('',(1.54787807115174,-0.443193984581403,-34.9342695759654));
#551=CARTESIAN_POINT('',(0.,0.,0.));
#552=CARTESIAN_POINT('',(0.,0.,-29.5650470781716));
#553=CARTESIAN_POINT('',(-3.93841324566446,0.,-29.5650470781716));
#554=CARTESIAN_POINT('',(1.7345929054826,-0.436946935594395,-35.0056736726248));
#555=CARTESIAN_POINT('',(0.,0.,0.));
#556=CARTESIAN_POINT('',(0.,0.,-29.3076386534967));
#557=CARTESIAN_POINT('',(-3.83203676600878,0.,-29.3076386534967));
#558=CARTESIAN_POINT('',(3.64442589587824,-0.919187134073711,-29.4936429815122));
#559=CARTESIAN_POINT('',(0.,0.,0.));
#560=CARTESIAN_POINT('',(0.,0.,-29.2897876293318));
#561=CARTESIAN_POINT('',(-3.78717352339555,0.,-29.2897876293318));
#562=CARTESIAN_POINT('',(3.71610274458683,-0.935460404141825,-29.3076386534967));
#563=CARTESIAN_POINT('',(0.,0.,0.));
#564=CARTESIAN_POINT('',(0.,0.,-26.3834700040898));
#565=CARTESIAN_POINT('',(-4.93531028435114,0.,-26.3834700040898));
#566=CARTESIAN_POINT('',(3.66942403600411,-0.937022166388578,-29.2897876293318));
#567=CARTESIAN_POINT('',(0.,0.,0.));
#568=CARTESIAN_POINT('',(0.,0.,-27.5708592518486));
#569=CARTESIAN_POINT('',(-7.96882468903526,0.,-27.5708592518486));
#570=CARTESIAN_POINT('',(4.78937479707596,-1.19129201120284,-26.3834700040898));
#571=CARTESIAN_POINT('',(0.,0.,0.));
#572=CARTESIAN_POINT('',(0.,0.,-25.4361178385908));
#573=CARTESIAN_POINT('',(-9.26990292316139,0.,-25.4361178385908));
#574=CARTESIAN_POINT('',(7.89428329748007,-1.08740891283138,-27.5708592518486));
#575=CARTESIAN_POINT('',(0.,0.,0.));
#576=CARTESIAN_POINT('',(0.,0.,-27.3450607377794));
#577=CARTESIAN_POINT('',(-12.4203851671989,0.,-27.3450607377794));
#578=CARTESIAN_POINT('',(9.18191588553819,-1.27417458605074,-25.4361178385908));
#579=CARTESIAN_POINT('',(0.,0.,0.));
#580=CARTESIAN_POINT('',(0.,0.,-29.4740295120171));
#581=CARTESIAN_POINT('',(-12.5168261756684,0.,-29.4740295120171));
#582=CARTESIAN_POINT('',(12.3709399882114,-1.10716372305342,-27.3450607377794));
#583=CARTESIAN_POINT('',(0.,0.,0.));
#584=CARTESIAN_POINT('',(-2.53080209749784E-15,-1.95335162379981,-17.6730887742844));
#585=CARTESIAN_POINT('',(7.32234101745562,-1.95335278315393,-17.6730755228062));
#586=CARTESIAN_POINT('',(12.5000227080667,-1.50208890948493,-22.8310452011896));
#587=CARTESIAN_POINT('',(12.5000227080667,-0.863904839455882,-30.1255225004107));
#588=CARTESIAN_POINT('',(12.5000227080667,-0.225720769426839,-37.4199997996317));
#589=CARTESIAN_POINT('',(7.32234101745563,0.225543104242164,-42.5779694780151));
#590=CARTESIAN_POINT('',(2.1136648407547E-15,0.22554194488805,-42.5779562265369));
#591=CARTESIAN_POINT('',(0.,0.,0.));
#592=MECHANICAL_DESIGN_GEOMETRIC_PRESENTATION_REPRESENTATION('',(#80,#81),
#593);
#593=(
GEOMETRIC_REPRESENTATION_CONTEXT(3)
GLOBAL_UNCERTAINTY_ASSIGNED_CONTEXT((#594))
GLOBAL_UNIT_ASSIGNED_CONTEXT((#600,#596,#595))
REPRESENTATION_CONTEXT('25K3R060A25-CXP25_115009543ndi000_00-SIM',
'TOP_LEVEL_ASSEMBLY_PART')
);
#594=UNCERTAINTY_MEASURE_WITH_UNIT(LENGTH_MEASURE(2.E-5),#600,
'DISTANCE_ACCURACY_VALUE','Maximum Tolerance applied to model');
#595=(
NAMED_UNIT(*)
SI_UNIT($,.STERADIAN.)
SOLID_ANGLE_UNIT()
);
#596=(
CONVERSION_BASED_UNIT('DEGREE',#598)
NAMED_UNIT(#597)
PLANE_ANGLE_UNIT()
);
#597=DIMENSIONAL_EXPONENTS(0.,0.,0.,0.,0.,0.,0.);
#598=PLANE_ANGLE_MEASURE_WITH_UNIT(PLANE_ANGLE_MEASURE(0.0174532925),#599);
#599=(
NAMED_UNIT(*)
PLANE_ANGLE_UNIT()
SI_UNIT($,.RADIAN.)
);
#600=(
LENGTH_UNIT()
NAMED_UNIT(*)
SI_UNIT(.MILLI.,.METRE.)
);
ENDSEC;
END-ISO-10303-21;
