  0
SECTION
  2
HEADER
  9
$ACADVER
  1
AC1018
  9
$ACADMAINTVER
 70
   104
  9
$DWGCODEPAGE
  3
ANSI_1250
  9
$LASTSAVEDBY
  1
hc7230
  9
$INSBASE
 10
0.0
 20
0.0
 30
0.0
  9
$EXTMIN
 10
130.7626113333334
 20
213.1691216666665
 30
0.0
  9
$EXTMAX
 10
355.163299
 20
303.7261226666667
 30
0.0
  9
$LIMMIN
 10
-0.5
 20
-0.5
  9
$LIMMAX
 10
5.0
 20
5.0
  9
$ORTHOMODE
 70
     0
  9
$REGENMODE
 70
     1
  9
$FILLMODE
 70
     1
  9
$QTEXTMODE
 70
     0
  9
$MIRRTEXT
 70
     1
  9
$LTSCALE
 40
1.0
  9
$ATTMODE
 70
     1
  9
$TEXTSIZE
 40
0.2
  9
$TRACEWID
 40
0.05
  9
$TEXTSTYLE
  7
Standard
  9
$CLAYER
  8
0
  9
$CELTYPE
  6
ByLayer
  9
$CECOLOR
 62
   256
  9
$CELTSCALE
 40
1.0
  9
$DISPSILH
 70
     0
  9
$DIMSCALE
 40
1.0
  9
$DIMASZ
 40
0.18
  9
$DIMEXO
 40
0.0625
  9
$DIMDLI
 40
0.38
  9
$DIMRND
 40
0.0
  9
$DIMDLE
 40
0.0
  9
$DIMEXE
 40
0.18
  9
$DIMTP
 40
0.0
  9
$DIMTM
 40
0.0
  9
$DIMTXT
 40
0.18
  9
$DIMCEN
 40
0.09
  9
$DIMTSZ
 40
0.0
  9
$DIMTOL
 70
     0
  9
$DIMLIM
 70
     0
  9
$DIMTIH
 70
     1
  9
$DIMTOH
 70
     1
  9
$DIMSE1
 70
     0
  9
$DIMSE2
 70
     0
  9
$DIMTAD
 70
     0
  9
$DIMZIN
 70
     0
  9
$DIMBLK
  1

  9
$DIMASO
 70
     1
  9
$DIMSHO
 70
     1
  9
$DIMPOST
  1

  9
$DIMAPOST
  1

  9
$DIMALT
 70
     0
  9
$DIMALTD
 70
     2
  9
$DIMALTF
 40
25.4
  9
$DIMLFAC
 40
1.0
  9
$DIMTOFL
 70
     0
  9
$DIMTVP
 40
0.0
  9
$DIMTIX
 70
     0
  9
$DIMSOXD
 70
     0
  9
$DIMSAH
 70
     0
  9
$DIMBLK1
  1

  9
$DIMBLK2
  1

  9
$DIMSTYLE
  2
Standard
  9
$DIMCLRD
 70
     0
  9
$DIMCLRE
 70
     0
  9
$DIMCLRT
 70
     0
  9
$DIMTFAC
 40
1.0
  9
$DIMGAP
 40
0.09
  9
$DIMJUST
 70
     0
  9
$DIMSD1
 70
     0
  9
$DIMSD2
 70
     0
  9
$DIMTOLJ
 70
     1
  9
$DIMTZIN
 70
     0
  9
$DIMALTZ
 70
     0
  9
$DIMALTTZ
 70
     0
  9
$DIMUPT
 70
     0
  9
$DIMDEC
 70
     4
  9
$DIMTDEC
 70
     4
  9
$DIMALTU
 70
     2
  9
$DIMALTTD
 70
     2
  9
$DIMTXSTY
  7
Standard
  9
$DIMAUNIT
 70
     0
  9
$DIMADEC
 70
     0
  9
$DIMALTRND
 40
0.0
  9
$DIMAZIN
 70
     0
  9
$DIMDSEP
 70
    46
  9
$DIMATFIT
 70
     3
  9
$DIMFRAC
 70
     0
  9
$DIMLDRBLK
  1

  9
$DIMLUNIT
 70
     2
  9
$DIMLWD
 70
    -2
  9
$DIMLWE
 70
    -2
  9
$DIMTMOVE
 70
     0
  9
$LUNITS
 70
     2
  9
$LUPREC
 70
     4
  9
$SKETCHINC
 40
0.1
  9
$FILLETRAD
 40
0.5
  9
$AUNITS
 70
     0
  9
$AUPREC
 70
     0
  9
$MENU
  1
.
  9
$ELEVATION
 40
0.0
  9
$PELEVATION
 40
0.0
  9
$THICKNESS
 40
0.0
  9
$LIMCHECK
 70
     0
  9
$CHAMFERA
 40
0.0
  9
$CHAMFERB
 40
0.0
  9
$CHAMFERC
 40
0.0
  9
$CHAMFERD
 40
0.0
  9
$SKPOLY
 70
     0
  9
$TDCREATE
 40
2458835.537627315
  9
$TDUCREATE
 40
2458835.495960926
  9
$TDUPDATE
 40
2458835.538946759
  9
$TDUUPDATE
 40
2458835.497280093
  9
$TDINDWG
 40
0.0004282523
  9
$TDUSRTIMER
 40
0.0004282523
  9
$USRTIMER
 70
     1
  9
$ANGBASE
 50
0.0
  9
$ANGDIR
 70
     0
  9
$PDMODE
 70
     0
  9
$PDSIZE
 40
0.0
  9
$PLINEWID
 40
0.0
  9
$SPLFRAME
 70
     0
  9
$SPLINETYPE
 70
     6
  9
$SPLINESEGS
 70
     8
  9
$HANDSEED
  5
39F
  9
$SURFTAB1
 70
     6
  9
$SURFTAB2
 70
     6
  9
$SURFTYPE
 70
     6
  9
$SURFU
 70
     6
  9
$SURFV
 70
     6
  9
$UCSBASE
  2

  9
$UCSNAME
  2

  9
$UCSORG
 10
203.144248
 20
243.731161
 30
0.0
  9
$UCSXDIR
 10
1.0
 20
0.0
 30
0.0
  9
$UCSYDIR
 10
0.0
 20
1.0
 30
0.0
  9
$UCSORTHOREF
  2

  9
$UCSORTHOVIEW
 70
     0
  9
$UCSORGTOP
 10
0.0
 20
0.0
 30
0.0
  9
$UCSORGBOTTOM
 10
0.0
 20
0.0
 30
0.0
  9
$UCSORGLEFT
 10
0.0
 20
0.0
 30
0.0
  9
$UCSORGRIGHT
 10
0.0
 20
0.0
 30
0.0
  9
$UCSORGFRONT
 10
0.0
 20
0.0
 30
0.0
  9
$UCSORGBACK
 10
0.0
 20
0.0
 30
0.0
  9
$PUCSBASE
  2

  9
$PUCSNAME
  2

  9
$PUCSORG
 10
0.0
 20
0.0
 30
0.0
  9
$PUCSXDIR
 10
1.0
 20
0.0
 30
0.0
  9
$PUCSYDIR
 10
0.0
 20
1.0
 30
0.0
  9
$PUCSORTHOREF
  2

  9
$PUCSORTHOVIEW
 70
     0
  9
$PUCSORGTOP
 10
0.0
 20
0.0
 30
0.0
  9
$PUCSORGBOTTOM
 10
0.0
 20
0.0
 30
0.0
  9
$PUCSORGLEFT
 10
0.0
 20
0.0
 30
0.0
  9
$PUCSORGRIGHT
 10
0.0
 20
0.0
 30
0.0
  9
$PUCSORGFRONT
 10
0.0
 20
0.0
 30
0.0
  9
$PUCSORGBACK
 10
0.0
 20
0.0
 30
0.0
  9
$USERI1
 70
     0
  9
$USERI2
 70
     0
  9
$USERI3
 70
     0
  9
$USERI4
 70
     0
  9
$USERI5
 70
     0
  9
$USERR1
 40
0.0
  9
$USERR2
 40
0.0
  9
$USERR3
 40
0.0
  9
$USERR4
 40
0.0
  9
$USERR5
 40
0.0
  9
$WORLDVIEW
 70
     1
  9
$SHADEDGE
 70
     3
  9
$SHADEDIF
 70
    70
  9
$TILEMODE
 70
     1
  9
$MAXACTVP
 70
    64
  9
$PINSBASE
 10
0.0
 20
0.0
 30
0.0
  9
$PLIMCHECK
 70
     0
  9
$PEXTMIN
 10
-0.5
 20
-0.5
 30
-0.5
  9
$PEXTMAX
 10
5.0
 20
5.0
 30
5.0
  9
$PLIMMIN
 10
-0.5
 20
-0.5
  9
$PLIMMAX
 10
5.0
 20
5.0
  9
$UNITMODE
 70
     0
  9
$VISRETAIN
 70
     1
  9
$PLINEGEN
 70
     0
  9
$PSLTSCALE
 70
     1
  9
$TREEDEPTH
 70
  3020
  9
$CMLSTYLE
  2
Standard
  9
$CMLJUST
 70
     0
  9
$CMLSCALE
 40
1.0
  9
$PROXYGRAPHICS
 70
     1
  9
$MEASUREMENT
 70
     1
  9
$CELWEIGHT
370
    13
  9
$ENDCAPS
280
     0
  9
$JOINSTYLE
280
     0
  9
$LWDISPLAY
290
     0
  9
$INSUNITS
 70
     4
  9
$HYPERLINKBASE
  1

  9
$STYLESHEET
  1

  9
$XEDIT
290
     1
  9
$CEPSNTYPE
380
     0
  9
$PSTYLEMODE
290
     1
  9
$FINGERPRINTGUID
  2
{559BC979-A67D-490E-B157-3DB4AF7B42F4}
  9
$VERSIONGUID
  2
{3926EBAB-22A2-1B45-98AB-0191D963541E}
  9
$EXTNAMES
290
     1
  9
$PSVPSCALE
 40
0.0
  9
$OLESTARTUP
290
     0
  9
$SORTENTS
280
   127
  9
$INDEXCTL
280
     0
  9
$HIDETEXT
280
     1
  9
$XCLIPFRAME
290
     0
  9
$HALOGAP
280
     0
  9
$OBSCOLOR
 70
   257
  9
$OBSLTYPE
280
     0
  9
$INTERSECTIONDISPLAY
280
     0
  9
$INTERSECTIONCOLOR
 70
   257
  9
$DIMASSOC
280
     2
  9
$PROJECTNAME
  1

  0
ENDSEC
  0
SECTION
  2
CLASSES
  0
CLASS
  1
ACDBDICTIONARYWDFLT
  2
AcDbDictionaryWithDefault
  3
ObjectDBX Classes
 90
        0
 91
        1
280
     0
281
     0
  0
CLASS
  1
VISUALSTYLE
  2
AcDbVisualStyle
  3
ObjectDBX Classes
 90
     4095
 91
       24
280
     0
281
     0
  0
CLASS
  1
MATERIAL
  2
AcDbMaterial
  3
ObjectDBX Classes
 90
     1153
 91
        3
280
     0
281
     0
  0
CLASS
  1
SCALE
  2
AcDbScale
  3
ObjectDBX Classes
 90
     1153
 91
       33
280
     0
281
     0
  0
CLASS
  1
TABLESTYLE
  2
AcDbTableStyle
  3
ObjectDBX Classes
 90
     4095
 91
        1
280
     0
281
     0
  0
CLASS
  1
MLEADERSTYLE
  2
AcDbMLeaderStyle
  3
ACDB_MLEADERSTYLE_CLASS
 90
     4095
 91
        1
280
     0
281
     0
  0
CLASS
  1
SUN
  2
AcDbSun
  3
SCENEOE
 90
     1153
 91
        0
280
     0
281
     0
  0
CLASS
  1
DIMASSOC
  2
AcDbDimAssoc
  3
"AcDbDimAssoc|Product Desc:     AcDim ARX App For Dimension|Company:          Autodesk, Inc.|WEB Address:      www.autodesk.com"
 90
        0
 91
        6
280
     0
281
     0
  0
CLASS
  1
DICTIONARYVAR
  2
AcDbDictionaryVar
  3
ObjectDBX Classes
 90
        0
 91
        8
280
     0
281
     0
  0
CLASS
  1
CELLSTYLEMAP
  2
AcDbCellStyleMap
  3
ObjectDBX Classes
 90
     1152
 91
        2
280
     0
281
     0
  0
CLASS
  1
ACDBSECTIONVIEWSTYLE
  2
AcDbSectionViewStyle
  3
ObjectDBX Classes
 90
     1025
 91
        1
280
     0
281
     0
  0
CLASS
  1
ACDBDETAILVIEWSTYLE
  2
AcDbDetailViewStyle
  3
ObjectDBX Classes
 90
     1025
 91
        1
280
     0
281
     0
  0
CLASS
  1
SORTENTSTABLE
  2
AcDbSortentsTable
  3
ObjectDBX Classes
 90
        0
 91
        1
280
     0
281
     0
  0
ENDSEC
  0
SECTION
  2
TABLES
  0
TABLE
  2
VPORT
  5
8
330
0
100
AcDbSymbolTable
 70
    16
  0
VPORT
  5
29
330
8
100
AcDbSymbolTableRecord
100
AcDbViewportTableRecord
  2
*Active
 70
     0
 10
0.0
 20
0.0
 11
1.0
 21
1.0
 12
262.1738864519507
 22
262.5601312669543
 13
0.0
 23
0.0
 14
0.5
 24
0.5
 15
0.5
 25
0.5
 16
0.0
 26
0.0
 36
1.0
 17
0.0
 27
0.0
 37
0.0
 40
202.0293638640374
 41
2.283154121863799
 42
50.0
 43
373.154958
 44
-373.154958
 50
0.0
 51
0.0
 71
     0
 72
   100
 73
     1
 74
     3
 75
     0
 76
     0
 77
     0
 78
     0
281
     0
 65
     1
110
203.144248
120
243.731161
130
0.0
111
1.0
121
0.0
131
0.0
112
0.0
122
1.0
132
0.0
 79
     0
146
0.0
1001
ACAD_NAV_VCDISPLAY
1070
     3
  0
VPORT
  5
26E
330
8
100
AcDbSymbolTableRecord
100
AcDbViewportTableRecord
  2
L1
 70
     0
 10
0.0
 20
0.0
 11
1.0
 21
1.0
 12
242.458748
 22
258.456787
 13
0.0
 23
0.0
 14
0.5
 24
0.5
 15
0.5
 25
0.5
 16
0.0
 26
0.0
 36
1.0
 17
0.0
 27
0.0
 37
0.0
 40
209.020833
 41
0.084952
 42
50.0
 43
373.154958
 44
-373.154958
 50
0.0
 51
0.0
 71
     0
 72
   100
 73
     1
 74
     3
 75
     0
 76
     0
 77
     0
 78
     0
281
     0
 65
     1
110
0.0
120
0.0
130
0.0
111
1.0
121
0.0
131
0.0
112
0.0
122
1.0
132
0.0
 79
     0
146
0.0
  0
VPORT
  5
26F
330
8
100
AcDbSymbolTableRecord
100
AcDbViewportTableRecord
  2
L2
 70
     0
 10
0.0
 20
0.0
 11
0.5
 21
1.0
 12
0.0
 22
0.0
 13
0.0
 23
0.0
 14
0.5
 24
0.5
 15
0.5
 25
0.5
 16
0.0
 26
-1.0
 36
0.0
 17
0.0
 27
0.0
 37
0.0
 40
1485.861838
 41
0.01195
 42
50.0
 43
769.0441269999999
 44
-769.0441269999999
 50
0.0
 51
0.0
 71
     0
 72
   100
 73
     1
 74
     3
 75
     0
 76
     0
 77
     0
 78
     0
281
     0
 65
     1
110
0.0
120
0.0
130
0.0
111
1.0
121
0.0
131
0.0
112
0.0
122
1.0
132
0.0
 79
     0
146
0.0
  0
VPORT
  5
270
330
8
100
AcDbSymbolTableRecord
100
AcDbViewportTableRecord
  2
L2
 70
     0
 10
0.5
 20
0.0
 11
1.0
 21
1.0
 12
0.0
 22
0.0
 13
0.0
 23
0.0
 14
0.5
 24
0.5
 15
0.5
 25
0.5
 16
1.0
 26
0.0
 36
0.0
 17
0.0
 27
0.0
 37
0.0
 40
1485.861838
 41
0.01195
 42
50.0
 43
750.245812
 44
-750.245812
 50
0.0
 51
0.0
 71
     0
 72
   100
 73
     1
 74
     3
 75
     0
 76
     0
 77
     0
 78
     0
281
     0
 65
     1
110
0.0
120
0.0
130
0.0
111
1.0
121
0.0
131
0.0
112
0.0
122
1.0
132
0.0
 79
     0
146
0.0
  0
VPORT
  5
271
330
8
100
AcDbSymbolTableRecord
100
AcDbViewportTableRecord
  2
L3
 70
     0
 10
0.0
 20
0.5
 11
1.0
 21
1.0
 12
242.458748
 22
258.456787
 13
0.0
 23
0.0
 14
0.5
 24
0.5
 15
0.5
 25
0.5
 16
0.0
 26
0.0
 36
1.0
 17
0.0
 27
0.0
 37
0.0
 40
209.020833
 41
0.084952
 42
50.0
 43
373.154958
 44
-373.154958
 50
0.0
 51
0.0
 71
     0
 72
   100
 73
     1
 74
     3
 75
     0
 76
     0
 77
     0
 78
     0
281
     0
 65
     1
110
0.0
120
0.0
130
0.0
111
1.0
121
0.0
131
0.0
112
0.0
122
1.0
132
0.0
 79
     0
146
0.0
  0
VPORT
  5
272
330
8
100
AcDbSymbolTableRecord
100
AcDbViewportTableRecord
  2
L3
 70
     0
 10
0.0
 20
0.0
 11
1.0
 21
0.5
 12
0.0
 22
0.0
 13
0.0
 23
0.0
 14
0.5
 24
0.5
 15
0.5
 25
0.5
 16
0.0
 26
-1.0
 36
0.0
 17
0.0
 27
0.0
 37
0.0
 40
1485.861838
 41
0.01195
 42
50.0
 43
769.0441269999999
 44
-769.0441269999999
 50
0.0
 51
0.0
 71
     0
 72
   100
 73
     1
 74
     3
 75
     0
 76
     0
 77
     0
 78
     0
281
     0
 65
     1
110
0.0
120
0.0
130
0.0
111
1.0
121
0.0
131
0.0
112
0.0
122
1.0
132
0.0
 79
     0
146
0.0
  0
VPORT
  5
273
330
8
100
AcDbSymbolTableRecord
100
AcDbViewportTableRecord
  2
L4
 70
     0
 10
0.0
 20
0.5
 11
0.5
 21
1.0
 12
242.458748
 22
258.456787
 13
0.0
 23
0.0
 14
0.5
 24
0.5
 15
0.5
 25
0.5
 16
0.0
 26
0.0
 36
1.0
 17
0.0
 27
0.0
 37
0.0
 40
209.020833
 41
0.084952
 42
50.0
 43
373.154958
 44
-373.154958
 50
0.0
 51
0.0
 71
     0
 72
   100
 73
     1
 74
     3
 75
     0
 76
     0
 77
     0
 78
     0
281
     0
 65
     1
110
0.0
120
0.0
130
0.0
111
1.0
121
0.0
131
0.0
112
0.0
122
1.0
132
0.0
 79
     0
146
0.0
  0
VPORT
  5
274
330
8
100
AcDbSymbolTableRecord
100
AcDbViewportTableRecord
  2
L4
 70
     0
 10
0.0
 20
0.0
 11
0.5
 21
0.5
 12
0.0
 22
0.0
 13
0.0
 23
0.0
 14
0.5
 24
0.5
 15
0.5
 25
0.5
 16
0.0
 26
-1.0
 36
0.0
 17
0.0
 27
0.0
 37
0.0
 40
1485.861838
 41
0.01195
 42
50.0
 43
769.0441269999999
 44
-769.0441269999999
 50
0.0
 51
0.0
 71
     0
 72
   100
 73
     1
 74
     3
 75
     0
 76
     0
 77
     0
 78
     0
281
     0
 65
     1
110
0.0
120
0.0
130
0.0
111
1.0
121
0.0
131
0.0
112
0.0
122
1.0
132
0.0
 79
     0
146
0.0
  0
VPORT
  5
275
330
8
100
AcDbSymbolTableRecord
100
AcDbViewportTableRecord
  2
L4
 70
     0
 10
0.5
 20
0.0
 11
1.0
 21
0.5
 12
0.0
 22
0.0
 13
0.0
 23
0.0
 14
0.5
 24
0.5
 15
0.5
 25
0.5
 16
1.0
 26
0.0
 36
0.0
 17
0.0
 27
0.0
 37
0.0
 40
1485.861838
 41
0.01195
 42
50.0
 43
750.245812
 44
-750.245812
 50
0.0
 51
0.0
 71
     0
 72
   100
 73
     1
 74
     3
 75
     0
 76
     0
 77
     0
 78
     0
281
     0
 65
     1
110
0.0
120
0.0
130
0.0
111
1.0
121
0.0
131
0.0
112
0.0
122
1.0
132
0.0
 79
     0
146
0.0
  0
VPORT
  5
276
330
8
100
AcDbSymbolTableRecord
100
AcDbViewportTableRecord
  2
L4
 70
     0
 10
0.5
 20
0.5
 11
1.0
 21
1.0
 12
0.0
 22
0.0
 13
0.0
 23
0.0
 14
0.5
 24
0.5
 15
0.5
 25
0.5
 16
0.5773502691896259
 26
-0.5773502691896259
 36
0.5773502691896259
 17
0.0
 27
0.0
 37
0.0
 40
1460.77308
 41
0.012156
 42
50.0
 43
761.2052339999999
 44
-761.2052339999999
 50
0.0
 51
0.0
 71
     0
 72
   100
 73
     1
 74
     3
 75
     0
 76
     0
 77
     0
 78
     0
281
     0
 65
     1
110
0.0
120
0.0
130
0.0
111
1.0
121
0.0
131
0.0
112
0.0
122
1.0
132
0.0
 79
     0
146
0.0
  0
VPORT
  5
277
330
8
100
AcDbSymbolTableRecord
100
AcDbViewportTableRecord
  2
L6
 70
     0
 10
0.0
 20
0.5
 11
0.333333
 21
1.0
 12
0.0
 22
0.0
 13
0.0
 23
0.0
 14
0.5
 24
0.5
 15
0.5
 25
0.5
 16
0.7188730927569434
 26
-0.5850486126764433
 36
0.3754192287502549
 17
0.0
 27
0.0
 37
0.0
 40
1542.425587
 41
0.011512
 42
50.0
 43
798.3761809999999
 44
-798.3761809999999
 50
0.0
 51
0.0
 71
     0
 72
   100
 73
     1
 74
     3
 75
     0
 76
     0
 77
     0
 78
     0
281
     0
 65
     1
110
0.0
120
0.0
130
0.0
111
1.0
121
0.0
131
0.0
112
0.0
122
1.0
132
0.0
 79
     0
146
0.0
  0
VPORT
  5
278
330
8
100
AcDbSymbolTableRecord
100
AcDbViewportTableRecord
  2
L6
 70
     0
 10
0.0
 20
0.0
 11
0.333333
 21
0.5
 12
0.0
 22
0.0
 13
0.0
 23
0.0
 14
0.5
 24
0.5
 15
0.5
 25
0.5
 16
-1.0
 26
0.0
 36
0.0
 17
0.0
 27
0.0
 37
0.0
 40
1485.861838
 41
0.01195
 42
50.0
 43
750.245812
 44
-750.245812
 50
0.0
 51
0.0
 71
     0
 72
   100
 73
     1
 74
     3
 75
     0
 76
     0
 77
     0
 78
     0
281
     0
 65
     1
110
0.0
120
0.0
130
0.0
111
1.0
121
0.0
131
0.0
112
0.0
122
1.0
132
0.0
 79
     0
146
0.0
  0
VPORT
  5
279
330
8
100
AcDbSymbolTableRecord
100
AcDbViewportTableRecord
  2
L6
 70
     0
 10
0.333333
 20
0.5
 11
0.666667
 21
1.0
 12
242.458748
 22
258.456787
 13
0.0
 23
0.0
 14
0.5
 24
0.5
 15
0.5
 25
0.5
 16
0.0
 26
0.0
 36
1.0
 17
0.0
 27
0.0
 37
0.0
 40
209.020833
 41
0.084952
 42
50.0
 43
373.154958
 44
-373.154958
 50
0.0
 51
0.0
 71
     0
 72
   100
 73
     1
 74
     3
 75
     0
 76
     0
 77
     0
 78
     0
281
     0
 65
     1
110
0.0
120
0.0
130
0.0
111
1.0
121
0.0
131
0.0
112
0.0
122
1.0
132
0.0
 79
     0
146
0.0
  0
VPORT
  5
27A
330
8
100
AcDbSymbolTableRecord
100
AcDbViewportTableRecord
  2
L6
 70
     0
 10
0.333333
 20
0.0
 11
0.666667
 21
0.5
 12
0.0
 22
0.0
 13
0.0
 23
0.0
 14
0.5
 24
0.5
 15
0.5
 25
0.5
 16
0.0
 26
-1.0
 36
0.0
 17
0.0
 27
0.0
 37
0.0
 40
1485.861838
 41
0.01195
 42
50.0
 43
769.0441269999999
 44
-769.0441269999999
 50
0.0
 51
0.0
 71
     0
 72
   100
 73
     1
 74
     3
 75
     0
 76
     0
 77
     0
 78
     0
281
     0
 65
     1
110
0.0
120
0.0
130
0.0
111
1.0
121
0.0
131
0.0
112
0.0
122
1.0
132
0.0
 79
     0
146
0.0
  0
VPORT
  5
27B
330
8
100
AcDbSymbolTableRecord
100
AcDbViewportTableRecord
  2
L6
 70
     0
 10
0.666667
 20
0.5
 11
1.0
 21
1.0
 12
0.0
 22
0.0
 13
0.0
 23
0.0
 14
0.5
 24
0.5
 15
0.5
 25
0.5
 16
0.5773502691896259
 26
-0.5773502691896259
 36
0.5773502691896259
 17
0.0
 27
0.0
 37
0.0
 40
1460.77308
 41
0.012156
 42
50.0
 43
761.2052339999999
 44
-761.2052339999999
 50
0.0
 51
0.0
 71
     0
 72
   100
 73
     1
 74
     3
 75
     0
 76
     0
 77
     0
 78
     0
281
     0
 65
     1
110
0.0
120
0.0
130
0.0
111
1.0
121
0.0
131
0.0
112
0.0
122
1.0
132
0.0
 79
     0
146
0.0
  0
VPORT
  5
27C
330
8
100
AcDbSymbolTableRecord
100
AcDbViewportTableRecord
  2
L6
 70
     0
 10
0.666667
 20
0.0
 11
1.0
 21
0.5
 12
0.0
 22
0.0
 13
0.0
 23
0.0
 14
0.5
 24
0.5
 15
0.5
 25
0.5
 16
1.0
 26
0.0
 36
0.0
 17
0.0
 27
0.0
 37
0.0
 40
1485.861838
 41
0.01195
 42
50.0
 43
750.245812
 44
-750.245812
 50
0.0
 51
0.0
 71
     0
 72
   100
 73
     1
 74
     3
 75
     0
 76
     0
 77
     0
 78
     0
281
     0
 65
     1
110
0.0
120
0.0
130
0.0
111
1.0
121
0.0
131
0.0
112
0.0
122
1.0
132
0.0
 79
     0
146
0.0
  0
ENDTAB
  0
TABLE
  2
LTYPE
  5
5
330
0
100
AcDbSymbolTable
 70
     7
  0
LTYPE
  5
14
330
5
100
AcDbSymbolTableRecord
100
AcDbLinetypeTableRecord
  2
ByBlock
 70
     0
  3

 72
    65
 73
     0
 40
0.0
  0
LTYPE
  5
15
330
5
100
AcDbSymbolTableRecord
100
AcDbLinetypeTableRecord
  2
ByLayer
 70
     0
  3

 72
    65
 73
     0
 40
0.0
  0
LTYPE
  5
16
330
5
100
AcDbSymbolTableRecord
100
AcDbLinetypeTableRecord
  2
Continuous
 70
     0
  3
Solid line
 72
    65
 73
     0
 40
0.0
  0
LTYPE
  5
6E
330
5
100
AcDbSymbolTableRecord
100
AcDbLinetypeTableRecord
  2
CENTER
 70
     0
  3
____ _ ____ _ ____ _ ____
 72
    65
 73
     4
 40
47.4
 49
22.0
 74
     4
 75
     0
340
0
 46
0.0
 50
0.0
 44
0.0
 45
0.0
 49
-8.5
 74
     4
 75
     0
340
0
 46
0.0
 50
0.0
 44
0.0
 45
0.0
 49
8.5
 74
     4
 75
     0
340
0
 46
0.0
 50
0.0
 44
0.0
 45
0.0
 49
-8.5
 74
     4
 75
     0
340
0
 46
0.0
 50
0.0
 44
0.0
 45
0.0
  0
LTYPE
  5
6F
330
5
100
AcDbSymbolTableRecord
100
AcDbLinetypeTableRecord
  2
DASHDOT
 70
     0
  3
_._._._._._._._._._._._._._._._.
 72
    65
 73
     4
 40
70.0
 49
31.0
 74
     4
 75
     0
340
0
 46
0.0
 50
0.0
 44
0.0
 45
0.0
 49
-13.0
 74
     4
 75
     0
340
0
 46
0.0
 50
0.0
 44
0.0
 45
0.0
 49
13.0
 74
     4
 75
     0
340
0
 46
0.0
 50
0.0
 44
0.0
 45
0.0
 49
-13.0
 74
     4
 75
     0
340
0
 46
0.0
 50
0.0
 44
0.0
 45
0.0
  0
LTYPE
  5
70
330
5
100
AcDbSymbolTableRecord
100
AcDbLinetypeTableRecord
  2
DASHED
 70
     0
  3
__ __ __ __ __ __ __ __ __
 72
    65
 73
     2
 40
25.72
 49
12.86
 74
     4
 75
     0
340
0
 46
0.0
 50
0.0
 44
0.0
 45
0.0
 49
-12.86
 74
     4
 75
     0
340
0
 46
0.0
 50
0.0
 44
0.0
 45
0.0
  0
LTYPE
  5
71
330
5
100
AcDbSymbolTableRecord
100
AcDbLinetypeTableRecord
  2
DOT
 70
     0
  3
.........................
 72
    65
 73
     2
 40
10.0
 49
0.0
 74
     4
 75
     0
340
0
 46
0.0
 50
0.0
 44
0.0
 45
0.0
 49
-10.0
 74
     4
 75
     0
340
0
 46
0.0
 50
0.0
 44
0.0
 45
0.0
  0
LTYPE
  5
72
330
5
100
AcDbSymbolTableRecord
100
AcDbLinetypeTableRecord
  2
PHANTOM
 70
     0
  3
____ _ _ ____ _ _ _____ _ _ ____
 72
    65
 73
     6
 40
50.5
 49
18.0
 74
     4
 75
     0
340
0
 46
0.0
 50
0.0
 44
0.0
 45
0.0
 49
-6.5
 74
     4
 75
     0
340
0
 46
0.0
 50
0.0
 44
0.0
 45
0.0
 49
6.5
 74
     4
 75
     0
340
0
 46
0.0
 50
0.0
 44
0.0
 45
0.0
 49
-6.5
 74
     4
 75
     0
340
0
 46
0.0
 50
0.0
 44
0.0
 45
0.0
 49
6.5
 74
     4
 75
     0
340
0
 46
0.0
 50
0.0
 44
0.0
 45
0.0
 49
-6.5
 74
     4
 75
     0
340
0
 46
0.0
 50
0.0
 44
0.0
 45
0.0
  0
LTYPE
  5
341
330
5
100
AcDbSymbolTableRecord
100
AcDbLinetypeTableRecord
  2
CENTER2
 70
     0
  3
Center (.5x) ___ _ ___ _ ___ _ ___ _ ___ _ ___
 72
    65
 73
     4
 40
1.125
 49
0.75
 74
     0
 49
-0.125
 74
     0
 49
0.125
 74
     0
 49
-0.125
 74
     0
  0
ENDTAB
  0
TABLE
  2
LAYER
  5
2
330
0
100
AcDbSymbolTable
 70
    21
  0
LAYER
  5
10
102
{ACAD_XDICTIONARY
360
34C
102
}
330
2
100
AcDbSymbolTableRecord
100
AcDbLayerTableRecord
  2
0
 70
     0
 62
     7
  6
Continuous
370
    -3
390
F
  0
LAYER
  5
1DF
330
2
100
AcDbSymbolTableRecord
100
AcDbLayerTableRecord
  2
Defpoints
 70
     0
 62
     7
  6
Continuous
290
     0
370
    -3
390
F
  0
LAYER
  5
33E
102
{ACAD_XDICTIONARY
360
34E
102
}
330
2
100
AcDbSymbolTableRecord
100
AcDbLayerTableRecord
  2
1
 70
     0
 62
     4
  6
Continuous
370
    -3
390
F
  0
LAYER
  5
33F
102
{ACAD_XDICTIONARY
360
350
102
}
330
2
100
AcDbSymbolTableRecord
100
AcDbLayerTableRecord
  2
2
 70
     0
 62
     7
  6
Continuous
370
    -3
390
F
  0
LAYER
  5
340
102
{ACAD_XDICTIONARY
360
352
102
}
330
2
100
AcDbSymbolTableRecord
100
AcDbLayerTableRecord
  2
4
 70
     0
 62
     2
  6
CENTER2
370
    -3
390
F
  0
LAYER
  5
342
102
{ACAD_XDICTIONARY
360
354
102
}
330
2
100
AcDbSymbolTableRecord
100
AcDbLayerTableRecord
  2
SK1
 70
     0
 62
     4
  6
Continuous
370
    -3
390
F
  0
LAYER
  5
343
102
{ACAD_XDICTIONARY
360
356
102
}
330
2
100
AcDbSymbolTableRecord
100
AcDbLayerTableRecord
  2
SK2
 70
     0
 62
     7
  6
Continuous
370
    -3
390
F
  0
LAYER
  5
345
102
{ACAD_XDICTIONARY
360
358
102
}
330
2
100
AcDbSymbolTableRecord
100
AcDbLayerTableRecord
  2
SK4
 70
     0
 62
     2
  6
CENTER2
370
    -3
390
F
  0
LAYER
  5
346
102
{ACAD_XDICTIONARY
360
35A
102
}
330
2
100
AcDbSymbolTableRecord
100
AcDbLayerTableRecord
  2
SK6
 70
     0
 62
     5
  6
Continuous
370
    -3
390
F
  0
LAYER
  5
347
102
{ACAD_XDICTIONARY
360
35C
102
}
330
2
100
AcDbSymbolTableRecord
100
AcDbLayerTableRecord
  2
CUT
 70
     0
 62
     1
  6
Continuous
370
    -3
390
F
  0
LAYER
  5
348
102
{ACAD_XDICTIONARY
360
35E
102
}
330
2
100
AcDbSymbolTableRecord
100
AcDbLayerTableRecord
  2
NOCUT
 70
     0
 62
     7
  6
Continuous
370
    -3
390
F
  0
LAYER
  5
349
102
{ACAD_XDICTIONARY
360
360
102
}
330
2
100
AcDbSymbolTableRecord
100
AcDbLayerTableRecord
  2
80
 70
     0
 62
     6
  6
Continuous
370
    -3
390
F
  0
LAYER
  5
34A
102
{ACAD_XDICTIONARY
360
362
102
}
330
2
100
AcDbSymbolTableRecord
100
AcDbLayerTableRecord
  2
81
 70
     0
 62
     3
  6
Continuous
370
    -3
390
F
  0
ENDTAB
  0
TABLE
  2
STYLE
  5
3
330
0
100
AcDbSymbolTable
 70
     3
  0
STYLE
  5
11
330
3
100
AcDbSymbolTableRecord
100
AcDbTextStyleTableRecord
  2
Standard
 70
     0
 40
0.0
 41
1.0
 50
0.0
 71
     0
 42
0.2
  3
txt
  4

  0
STYLE
  5
1D9
330
3
100
AcDbSymbolTableRecord
100
AcDbTextStyleTableRecord
  2
cesky
 70
     0
 40
0.0
 41
1.0
 50
0.0
 71
     0
 42
0.2
  3
simplex.shx
  4

  0
STYLE
  5
1DA
330
3
100
AcDbSymbolTableRecord
100
AcDbTextStyleTableRecord
  2
DWGDirectTextStyle
 70
     0
 40
0.0
 41
1.0
 50
0.0
 71
     0
 42
0.2
  3
simplex
  4

  0
ENDTAB
  0
TABLE
  2
VIEW
  5
6
330
0
100
AcDbSymbolTable
 70
     0
  0
ENDTAB
  0
TABLE
  2
UCS
  5
7
330
0
100
AcDbSymbolTable
 70
     0
  0
ENDTAB
  0
TABLE
  2
APPID
  5
9
330
0
100
AcDbSymbolTable
 70
     7
  0
APPID
  5
12
330
9
100
AcDbSymbolTableRecord
100
AcDbRegAppTableRecord
  2
ACAD
 70
     0
  0
APPID
  5
1DB
330
9
100
AcDbSymbolTableRecord
100
AcDbRegAppTableRecord
  2
ACAD_DSTYLE_DIMBREAK
 70
     0
  0
APPID
  5
27D
330
9
100
AcDbSymbolTableRecord
100
AcDbRegAppTableRecord
  2
ACAD_DSTYLE_DIM_LINETYPE
 70
     0
  0
APPID
  5
27E
330
9
100
AcDbSymbolTableRecord
100
AcDbRegAppTableRecord
  2
ACAD_DSTYLE_DIM_EXT1_LINETYPE
 70
     0
  0
APPID
  5
27F
330
9
100
AcDbSymbolTableRecord
100
AcDbRegAppTableRecord
  2
ACAD_DSTYLE_DIM_EXT2_LINETYPE
 70
     0
  0
APPID
  5
2BF
330
9
100
AcDbSymbolTableRecord
100
AcDbRegAppTableRecord
  2
ACAD_MLEADERVER
 70
     0
  0
APPID
  5
367
330
9
100
AcDbSymbolTableRecord
100
AcDbRegAppTableRecord
  2
ACAD_NAV_VCDISPLAY
 70
     0
  0
ENDTAB
  0
TABLE
  2
DIMSTYLE
  5
A
330
0
100
AcDbSymbolTable
 70
     1
100
AcDbDimStyleTable
 71
     0
  0
DIMSTYLE
105
27
330
A
100
AcDbSymbolTableRecord
100
AcDbDimStyleTableRecord
  2
Standard
 70
     0
340
11
1001
ACAD_DSTYLE_DIMBREAK
1070
   391
1040
6.349999999999999
  0
ENDTAB
  0
TABLE
  2
BLOCK_RECORD
  5
1
330
0
100
AcDbSymbolTable
 70
    13
  0
BLOCK_RECORD
  5
1F
102
{ACAD_XDICTIONARY
360
2CF
102
}
330
1
100
AcDbSymbolTableRecord
100
AcDbBlockTableRecord
  2
*Model_Space
340
22
  0
BLOCK_RECORD
  5
1B
330
1
100
AcDbSymbolTableRecord
100
AcDbBlockTableRecord
  2
*Paper_Space
340
1E
  0
BLOCK_RECORD
  5
23
330
1
100
AcDbSymbolTableRecord
100
AcDbBlockTableRecord
  2
*Paper_Space0
340
26
  0
BLOCK_RECORD
  5
1E0
330
1
100
AcDbSymbolTableRecord
100
AcDbBlockTableRecord
  2
*D1
340
0
  0
BLOCK_RECORD
  5
1EB
330
1
100
AcDbSymbolTableRecord
100
AcDbBlockTableRecord
  2
_U0
340
0
  0
BLOCK_RECORD
  5
1F6
330
1
100
AcDbSymbolTableRecord
100
AcDbBlockTableRecord
  2
*D3
340
0
  0
BLOCK_RECORD
  5
202
330
1
100
AcDbSymbolTableRecord
100
AcDbBlockTableRecord
  2
_U1
340
0
  0
BLOCK_RECORD
  5
20F
330
1
100
AcDbSymbolTableRecord
100
AcDbBlockTableRecord
  2
*D5
340
0
  0
BLOCK_RECORD
  5
21B
330
1
100
AcDbSymbolTableRecord
100
AcDbBlockTableRecord
  2
_U2
340
0
  0
BLOCK_RECORD
  5
227
330
1
100
AcDbSymbolTableRecord
100
AcDbBlockTableRecord
  2
*D7
340
0
  0
BLOCK_RECORD
  5
233
330
1
100
AcDbSymbolTableRecord
100
AcDbBlockTableRecord
  2
_U3
340
0
  0
BLOCK_RECORD
  5
23F
330
1
100
AcDbSymbolTableRecord
100
AcDbBlockTableRecord
  2
*D9
340
0
  0
BLOCK_RECORD
  5
24B
330
1
100
AcDbSymbolTableRecord
100
AcDbBlockTableRecord
  2
_U4
340
0
  0
BLOCK_RECORD
  5
257
330
1
100
AcDbSymbolTableRecord
100
AcDbBlockTableRecord
  2
*D11
340
0
  0
BLOCK_RECORD
  5
265
330
1
100
AcDbSymbolTableRecord
100
AcDbBlockTableRecord
  2
_U5
340
0
  0
ENDTAB
  0
ENDSEC
  0
SECTION
  2
BLOCKS
  0
BLOCK
  5
20
330
1F
100
AcDbEntity
  8
0
100
AcDbBlockBegin
  2
*Model_Space
 70
     0
 10
0.0
 20
0.0
 30
0.0
  3
*Model_Space
  1

  0
ENDBLK
  5
21
330
1F
100
AcDbEntity
  8
0
100
AcDbBlockEnd
  0
BLOCK
  5
1C
330
1B
100
AcDbEntity
 67
     1
  8
0
100
AcDbBlockBegin
  2
*Paper_Space
 70
     0
 10
0.0
 20
0.0
 30
0.0
  3
*Paper_Space
  1

  0
ENDBLK
  5
1D
330
1B
100
AcDbEntity
 67
     1
  8
0
100
AcDbBlockEnd
  0
BLOCK
  5
24
330
23
100
AcDbEntity
 67
     1
  8
0
100
AcDbBlockBegin
  2
*Paper_Space0
 70
     0
 10
0.0
 20
0.0
 30
0.0
  3
*Paper_Space0
  1

  0
ENDBLK
  5
25
330
23
100
AcDbEntity
 67
     1
  8
0
100
AcDbBlockEnd
  0
BLOCK
  5
1E1
330
1E0
100
AcDbEntity
  8
0
100
AcDbBlockBegin
  2
*D1
 70
     1
 10
0.0
 20
0.0
 30
0.0
  3
*D1
  1

  0
LINE
  5
1E3
330
1E0
100
AcDbEntity
  8
0
 62
   254
370
    -2
100
AcDbLine
 10
148.144248
 20
243.731161
 30
0.0
 11
355.163299
 21
243.731161
 31
0.0
  0
LINE
  5
1E4
330
1E0
100
AcDbEntity
  8
0
 62
   254
370
    -2
100
AcDbLine
 10
339.144248
 20
256.231161
 30
0.0
 11
355.163299
 21
256.231161
 31
0.0
  0
LINE
  5
1E5
330
1E0
100
AcDbEntity
  8
0
 62
   254
370
    -2
100
AcDbLine
 10
354.163299
 20
259.731161
 30
0.0
 11
354.163299
 21
263.231161
 31
0.0
  0
SOLID
  5
1E6
330
1E0
100
AcDbEntity
  8
0
 62
   254
100
AcDbTrace
 10
353.579966
 20
259.731161
 30
0.0
 11
354.746633
 21
259.731161
 31
0.0
 12
354.163299
 22
256.231161
 32
0.0
 13
354.163299
 23
256.231161
 33
0.0
  0
MTEXT
  5
1E7
330
1E0
100
AcDbEntity
  8
0
 62
   254
370
    13
100
AcDbMText
 10
348.913299
 20
230.397828
 30
0.0
 40
3.5
 41
0.0
 71
     5
 72
     1
  1
\A1;25
  7
cesky
 11
0.0
 21
1.0
 31
0.0
 73
     1
 44
1.0
  0
POINT
  5
1E8
330
1E0
100
AcDbEntity
  8
Defpoints
 62
     0
100
AcDbPoint
 10
148.144248
 20
243.731161
 30
0.0
  0
POINT
  5
1E9
330
1E0
100
AcDbEntity
  8
Defpoints
 62
     0
100
AcDbPoint
 10
339.144248
 20
256.231161
 30
0.0
  0
POINT
  5
1EA
330
1E0
100
AcDbEntity
  8
Defpoints
 62
     0
100
AcDbPoint
 10
354.163299
 20
256.231161
 30
0.0
  0
ENDBLK
  5
1E2
330
1E0
100
AcDbEntity
  8
0
100
AcDbBlockEnd
  0
BLOCK
  5
1F1
330
1EB
100
AcDbEntity
  8
0
100
AcDbBlockBegin
  2
_U0
 70
     0
 10
0.0
 20
0.0
 30
0.0
  3
_U0
  1

  0
ENDBLK
  5
1F2
330
1EB
100
AcDbEntity
  8
0
100
AcDbBlockEnd
  0
BLOCK
  5
1F7
330
1F6
100
AcDbEntity
  8
0
100
AcDbBlockBegin
  2
*D3
 70
     1
 10
0.0
 20
0.0
 30
0.0
  3
*D3
  1

  0
LINE
  5
1F9
330
1F6
100
AcDbEntity
  8
0
 62
    95
370
    -2
100
AcDbLine
 10
179.4985669999999
 20
256.231161
 30
0.0
 11
134.616695
 21
256.231161
 31
0.0
  0
LINE
  5
1FA
330
1F6
100
AcDbEntity
  8
0
 62
    95
370
    -2
100
AcDbLine
 10
181.161452
 20
231.231161
 30
0.0
 11
134.616695
 21
231.231161
 31
0.0
  0
LINE
  5
1FB
330
1F6
100
AcDbEntity
  8
0
 62
    95
370
    -2
100
AcDbLine
 10
135.616695
 20
252.731161
 30
0.0
 11
135.616695
 21
234.731161
 31
0.0
  0
SOLID
  5
1FC
330
1F6
100
AcDbEntity
  8
0
 62
    95
100
AcDbTrace
 10
136.200028
 20
252.731161
 30
0.0
 11
135.033362
 21
252.731161
 31
0.0
 12
135.616695
 22
256.231161
 32
0.0
 13
135.616695
 23
256.231161
 33
0.0
  0
SOLID
  5
1FD
330
1F6
100
AcDbEntity
  8
0
 62
    95
100
AcDbTrace
 10
135.033362
 20
234.731161
 30
0.0
 11
136.200028
 21
234.731161
 31
0.0
 12
135.616695
 22
231.231161
 32
0.0
 13
135.616695
 23
231.231161
 33
0.0
  0
MTEXT
  5
1FE
330
1F6
100
AcDbEntity
  8
0
 62
    95
370
    13
100
AcDbMText
 10
130.366695
 20
243.731161
 30
0.0
 40
3.5
 41
0.0
 71
     5
 72
     1
  1
\A1;25
  7
cesky
 11
0.0
 21
1.0
 31
0.0
 73
     1
 44
1.0
  0
POINT
  5
1FF
330
1F6
100
AcDbEntity
  8
Defpoints
 62
     0
100
AcDbPoint
 10
179.4985669999999
 20
256.231161
 30
0.0
  0
POINT
  5
200
330
1F6
100
AcDbEntity
  8
Defpoints
 62
     0
100
AcDbPoint
 10
181.161452
 20
231.231161
 30
0.0
  0
POINT
  5
201
330
1F6
100
AcDbEntity
  8
Defpoints
 62
     0
100
AcDbPoint
 10
135.616695
 20
231.231161
 30
0.0
  0
ENDBLK
  5
1F8
330
1F6
100
AcDbEntity
  8
0
100
AcDbBlockEnd
  0
BLOCK
  5
20A
330
202
100
AcDbEntity
  8
0
100
AcDbBlockBegin
  2
_U1
 70
     0
 10
0.0
 20
0.0
 30
0.0
  3
_U1
  1

  0
ENDBLK
  5
20B
330
202
100
AcDbEntity
  8
0
100
AcDbBlockEnd
  0
BLOCK
  5
210
330
20F
100
AcDbEntity
  8
0
100
AcDbBlockBegin
  2
*D5
 70
     1
 10
0.0
 20
0.0
 30
0.0
  3
*D5
  1

  0
LINE
  5
212
330
20F
100
AcDbEntity
  8
0
 62
   254
370
    -2
100
AcDbLine
 10
237.144248
 20
243.731161
 30
0.0
 11
237.144248
 21
277.644584
 31
0.0
  0
LINE
  5
213
330
20F
100
AcDbEntity
  8
0
 62
   254
370
    -2
100
AcDbLine
 10
337.144248
 20
258.231161
 30
0.0
 11
337.144248
 21
277.644584
 31
0.0
  0
LINE
  5
214
330
20F
100
AcDbEntity
  8
0
 62
   254
370
    -2
100
AcDbLine
 10
240.644248
 20
276.644584
 30
0.0
 11
333.644248
 21
276.644584
 31
0.0
  0
SOLID
  5
215
330
20F
100
AcDbEntity
  8
0
 62
   254
100
AcDbTrace
 10
240.644248
 20
277.227918
 30
0.0
 11
240.644248
 21
276.061251
 31
0.0
 12
237.144248
 22
276.644584
 32
0.0
 13
237.144248
 23
276.644584
 33
0.0
  0
SOLID
  5
216
330
20F
100
AcDbEntity
  8
0
 62
   254
100
AcDbTrace
 10
333.644248
 20
276.061251
 30
0.0
 11
333.644248
 21
277.227918
 31
0.0
 12
337.144248
 22
276.644584
 32
0.0
 13
337.144248
 23
276.644584
 33
0.0
  0
MTEXT
  5
217
330
20F
100
AcDbEntity
  8
0
 62
   254
370
    13
100
AcDbMText
 10
287.144248
 20
281.894584
 30
0.0
 40
3.5
 41
0.0
 71
     5
 72
     1
  1
\A1;100
  7
cesky
 73
     1
 44
1.0
  0
POINT
  5
218
330
20F
100
AcDbEntity
  8
Defpoints
 62
     0
100
AcDbPoint
 10
237.144248
 20
243.731161
 30
0.0
  0
POINT
  5
219
330
20F
100
AcDbEntity
  8
Defpoints
 62
     0
100
AcDbPoint
 10
337.144248
 20
258.231161
 30
0.0
  0
POINT
  5
21A
330
20F
100
AcDbEntity
  8
Defpoints
 62
     0
100
AcDbPoint
 10
337.144248
 20
276.644584
 30
0.0
  0
ENDBLK
  5
211
330
20F
100
AcDbEntity
  8
0
100
AcDbBlockEnd
  0
BLOCK
  5
222
330
21B
100
AcDbEntity
  8
0
100
AcDbBlockBegin
  2
_U2
 70
     0
 10
0.0
 20
0.0
 30
0.0
  3
_U2
  1

  0
ENDBLK
  5
223
330
21B
100
AcDbEntity
  8
0
100
AcDbBlockEnd
  0
BLOCK
  5
228
330
227
100
AcDbEntity
  8
0
100
AcDbBlockBegin
  2
*D7
 70
     1
 10
0.0
 20
0.0
 30
0.0
  3
*D7
  1

  0
LINE
  5
22A
330
227
100
AcDbEntity
  8
0
 62
    95
370
    -2
100
AcDbLine
 10
147.144248
 20
255.231161
 30
0.0
 11
147.144248
 21
300.185289
 31
0.0
  0
LINE
  5
22B
330
227
100
AcDbEntity
  8
0
 62
    95
370
    -2
100
AcDbLine
 10
337.144248
 20
256.231161
 30
0.0
 11
337.144248
 21
300.185289
 31
0.0
  0
LINE
  5
22C
330
227
100
AcDbEntity
  8
0
 62
    95
370
    -2
100
AcDbLine
 10
150.644248
 20
299.185289
 30
0.0
 11
333.644248
 21
299.185289
 31
0.0
  0
SOLID
  5
22D
330
227
100
AcDbEntity
  8
0
 62
    95
100
AcDbTrace
 10
150.644248
 20
299.768623
 30
0.0
 11
150.644248
 21
298.601956
 31
0.0
 12
147.144248
 22
299.185289
 32
0.0
 13
147.144248
 23
299.185289
 33
0.0
  0
SOLID
  5
22E
330
227
100
AcDbEntity
  8
0
 62
    95
100
AcDbTrace
 10
333.644248
 20
298.601956
 30
0.0
 11
333.644248
 21
299.768623
 31
0.0
 12
337.144248
 22
299.185289
 32
0.0
 13
337.144248
 23
299.185289
 33
0.0
  0
MTEXT
  5
22F
330
227
100
AcDbEntity
  8
0
 62
    95
370
    13
100
AcDbMText
 10
242.144248
 20
304.435289
 30
0.0
 40
3.5
 41
0.0
 71
     5
 72
     1
  1
\A1;190
  7
cesky
 73
     1
 44
1.0
  0
POINT
  5
230
330
227
100
AcDbEntity
  8
Defpoints
 62
     0
100
AcDbPoint
 10
147.144248
 20
255.231161
 30
0.0
  0
POINT
  5
231
330
227
100
AcDbEntity
  8
Defpoints
 62
     0
100
AcDbPoint
 10
337.144248
 20
256.231161
 30
0.0
  0
POINT
  5
232
330
227
100
AcDbEntity
  8
Defpoints
 62
     0
100
AcDbPoint
 10
337.144248
 20
299.185289
 30
0.0
  0
ENDBLK
  5
229
330
227
100
AcDbEntity
  8
0
100
AcDbBlockEnd
  0
BLOCK
  5
23A
330
233
100
AcDbEntity
  8
0
100
AcDbBlockBegin
  2
_U3
 70
     0
 10
0.0
 20
0.0
 30
0.0
  3
_U3
  1

  0
ENDBLK
  5
23B
330
233
100
AcDbEntity
  8
0
100
AcDbBlockEnd
  0
BLOCK
  5
240
330
23F
100
AcDbEntity
  8
0
100
AcDbBlockBegin
  2
*D9
 70
     1
 10
0.0
 20
0.0
 30
0.0
  3
*D9
  1

  0
LINE
  5
242
330
23F
100
AcDbEntity
  8
0
 62
    95
370
    -2
100
AcDbLine
 10
337.144248
 20
258.231161
 30
0.0
 11
337.144248
 21
286.792925
 31
0.0
  0
LINE
  5
243
330
23F
100
AcDbEntity
  8
0
 62
    95
370
    -2
100
AcDbLine
 10
203.144248
 20
242.731588
 30
0.0
 11
203.144248
 21
286.792925
 31
0.0
  0
LINE
  5
244
330
23F
100
AcDbEntity
  8
0
 62
    95
370
    -2
100
AcDbLine
 10
333.644248
 20
285.792925
 30
0.0
 11
206.644248
 21
285.792925
 31
0.0
  0
SOLID
  5
245
330
23F
100
AcDbEntity
  8
0
 62
    95
100
AcDbTrace
 10
333.644248
 20
285.209591
 30
0.0
 11
333.644248
 21
286.376258
 31
0.0
 12
337.144248
 22
285.792925
 32
0.0
 13
337.144248
 23
285.792925
 33
0.0
  0
SOLID
  5
246
330
23F
100
AcDbEntity
  8
0
 62
    95
100
AcDbTrace
 10
206.644248
 20
286.376258
 30
0.0
 11
206.644248
 21
285.209591
 31
0.0
 12
203.144248
 22
285.792925
 32
0.0
 13
203.144248
 23
285.792925
 33
0.0
  0
MTEXT
  5
247
330
23F
100
AcDbEntity
  8
0
 62
    95
370
    13
100
AcDbMText
 10
270.144248
 20
291.042925
 30
0.0
 40
3.5
 41
0.0
 71
     5
 72
     1
  1
\A1;134
  7
cesky
 73
     1
 44
1.0
  0
POINT
  5
248
330
23F
100
AcDbEntity
  8
Defpoints
 62
     0
100
AcDbPoint
 10
337.144248
 20
258.231161
 30
0.0
  0
POINT
  5
249
330
23F
100
AcDbEntity
  8
Defpoints
 62
     0
100
AcDbPoint
 10
203.144248
 20
242.731588
 30
0.0
  0
POINT
  5
24A
330
23F
100
AcDbEntity
  8
Defpoints
 62
     0
100
AcDbPoint
 10
203.144248
 20
285.792925
 30
0.0
  0
ENDBLK
  5
241
330
23F
100
AcDbEntity
  8
0
100
AcDbBlockEnd
  0
BLOCK
  5
252
330
24B
100
AcDbEntity
  8
0
100
AcDbBlockBegin
  2
_U4
 70
     0
 10
0.0
 20
0.0
 30
0.0
  3
_U4
  1

  0
ENDBLK
  5
253
330
24B
100
AcDbEntity
  8
0
100
AcDbBlockEnd
  0
BLOCK
  5
258
330
257
100
AcDbEntity
  8
0
100
AcDbBlockBegin
  2
*D11
 70
     1
 10
0.0
 20
0.0
 30
0.0
  3
*D11
  1

  0
LINE
  5
25A
330
257
100
AcDbEntity
  8
0
 62
   254
370
    -2
100
AcDbLine
 10
337.144248
 20
254.231161
 30
0.0
 11
337.144248
 21
261.208648
 31
0.0
  0
LINE
  5
25B
330
257
100
AcDbEntity
  8
0
 62
   254
370
    -2
100
AcDbLine
 10
336.129046
 20
255.94649
 30
0.0
 11
336.129046
 21
261.208648
 31
0.0
  0
LINE
  5
25C
330
257
100
AcDbEntity
  8
0
 62
   254
370
    -2
100
AcDbLine
 10
336.129046
 20
260.208648
 30
0.0
 11
321.295713
 21
260.208648
 31
0.0
  0
LINE
  5
25D
330
257
100
AcDbEntity
  8
0
 62
   254
370
    -2
100
AcDbLine
 10
340.644248
 20
260.208648
 30
0.0
 11
344.144248
 21
260.208648
 31
0.0
  0
LINE
  5
25E
330
257
100
AcDbEntity
  8
0
 62
   254
370
    -2
100
AcDbLine
 10
332.629046
 20
260.208648
 30
0.0
 11
329.129046
 21
260.208648
 31
0.0
  0
SOLID
  5
25F
330
257
100
AcDbEntity
  8
0
 62
   254
100
AcDbTrace
 10
340.644248
 20
260.791981
 30
0.0
 11
340.644248
 21
259.625315
 31
0.0
 12
337.144248
 22
260.208648
 32
0.0
 13
337.144248
 23
260.208648
 33
0.0
  0
SOLID
  5
260
330
257
100
AcDbEntity
  8
0
 62
   254
100
AcDbTrace
 10
332.629046
 20
259.625315
 30
0.0
 11
332.629046
 21
260.791981
 31
0.0
 12
336.129046
 22
260.208648
 32
0.0
 13
336.129046
 23
260.208648
 33
0.0
  0
MTEXT
  5
261
330
257
100
AcDbEntity
  8
0
 62
   254
370
    13
100
AcDbMText
 10
325.21238
 20
265.458648
 30
0.0
 40
3.5
 41
0.0
 71
     5
 72
     1
  1
\A1;1
  7
cesky
 73
     1
 44
1.0
  0
POINT
  5
262
330
257
100
AcDbEntity
  8
Defpoints
 62
     0
100
AcDbPoint
 10
337.144248
 20
254.231161
 30
0.0
  0
POINT
  5
263
330
257
100
AcDbEntity
  8
Defpoints
 62
     0
100
AcDbPoint
 10
336.129046
 20
255.94649
 30
0.0
  0
POINT
  5
264
330
257
100
AcDbEntity
  8
Defpoints
 62
     0
100
AcDbPoint
 10
336.129046
 20
260.208648
 30
0.0
  0
ENDBLK
  5
259
330
257
100
AcDbEntity
  8
0
100
AcDbBlockEnd
  0
BLOCK
  5
26C
330
265
100
AcDbEntity
  8
0
100
AcDbBlockBegin
  2
_U5
 70
     0
 10
0.0
 20
0.0
 30
0.0
  3
_U5
  1

  0
ENDBLK
  5
26D
330
265
100
AcDbEntity
  8
0
100
AcDbBlockEnd
  0
ENDSEC
  0
SECTION
  2
ENTITIES
  0
POINT
  5
73
102
{ACAD_REACTORS
330
34B
102
}
330
1F
100
AcDbEntity
  8
80
100
AcDbPoint
 10
203.144248
 20
243.731161
 30
0.0
  0
POINT
  5
75
330
1F
100
AcDbEntity
  8
SK6
 60
     1
100
AcDbPoint
 10
237.144248
 20
243.731161
 30
0.0
  0
POINT
  5
77
330
1F
100
AcDbEntity
  8
SK6
 60
     1
100
AcDbPoint
 10
148.144248
 20
243.731161
 30
0.0
  0
POINT
  5
78
330
1F
100
AcDbEntity
  8
SK6
 60
     1
100
AcDbPoint
 10
148.144248
 20
243.731161
 30
0.0
  0
POINT
  5
79
330
1F
100
AcDbEntity
  8
SK6
 60
     1
100
AcDbPoint
 10
237.144248
 20
243.731161
 30
0.0
  0
POINT
  5
7A
330
1F
100
AcDbEntity
  8
SK6
 60
     1
100
AcDbPoint
 10
237.144248
 20
243.731161
 30
0.0
  0
LINE
  5
7B
330
1F
100
AcDbEntity
  8
80
100
AcDbLine
 10
202.144675
 20
243.731161
 30
0.0
 11
204.143822
 21
243.731161
 31
0.0
  0
LINE
  5
7C
330
1F
100
AcDbEntity
  8
SK1
100
AcDbLine
 10
148.144248
 20
231.231161
 30
0.0
 11
148.144248
 21
256.231161
 31
0.0
  0
LINE
  5
7E
330
1F
100
AcDbEntity
  8
SK1
100
AcDbLine
 10
237.144248
 20
231.231161
 30
0.0
 11
237.144248
 21
256.231161
 31
0.0
  0
LINE
  5
7F
330
1F
100
AcDbEntity
  8
1
100
AcDbLine
 10
334.142903
 20
237.921788
 30
0.0
 11
334.213847
 21
238.327239
 31
0.0
  0
LINE
  5
81
330
1F
100
AcDbEntity
  8
1
100
AcDbLine
 10
337.079308
 20
239.160897
 30
0.0
 11
337.02933
 21
239.544654
 31
0.0
  0
LINE
  5
82
330
1F
100
AcDbEntity
  8
1
100
AcDbLine
 10
333.632234
 20
253.323227
 30
0.0
 11
333.62691
 21
253.326917
 31
0.0
  0
LINE
  5
84
330
1F
100
AcDbEntity
  8
1
100
AcDbLine
 10
333.485017
 20
253.433324
 30
0.0
 11
333.632234
 21
253.323227
 31
0.0
  0
LINE
  5
85
330
1F
100
AcDbEntity
  8
1
100
AcDbLine
 10
332.637843
 20
252.867946
 30
0.0
 11
332.777662
 21
252.763382
 31
0.0
  0
LINE
  5
86
330
1F
100
AcDbEntity
  8
1
100
AcDbLine
 10
332.73775
 20
252.902074
 30
0.0
 11
332.881832
 21
252.794321
 31
0.0
  0
LINE
  5
87
330
1F
100
AcDbEntity
  8
1
100
AcDbLine
 10
332.597342
 20
252.480394
 30
0.0
 11
332.667481
 21
252.427941
 31
0.0
  0
LINE
  5
88
330
1F
100
AcDbEntity
  8
1
100
AcDbLine
 10
333.015809
 20
253.290455
 30
0.0
 11
333.159891
 21
253.182702
 31
0.0
  0
LINE
  5
89
330
1F
100
AcDbEntity
  8
1
100
AcDbLine
 10
332.805606
 20
252.90668
 30
0.0
 11
332.952823
 21
252.796583
 31
0.0
  0
LINE
  5
8A
330
1F
100
AcDbEntity
  8
1
100
AcDbLine
 10
333.033354
 20
253.224789
 30
0.0
 11
333.180571
 21
253.114692
 31
0.0
  0
LINE
  5
8B
330
1F
100
AcDbEntity
  8
1
100
AcDbLine
 10
333.015876
 20
253.395966
 30
0.0
 11
333.155694
 21
253.291401
 31
0.0
  0
LINE
  5
8C
330
1F
100
AcDbEntity
  8
1
100
AcDbLine
 10
332.753926
 20
252.412166
 30
0.0
 11
332.901143
 21
252.30207
 31
0.0
  0
LINE
  5
8D
330
1F
100
AcDbEntity
  8
1
100
AcDbLine
 10
333.369846
 20
253.559395
 30
0.0
 11
333.444684
 21
253.503427
 31
0.0
  0
LINE
  5
8E
330
1F
100
AcDbEntity
  8
1
100
AcDbLine
 10
332.9115240000001
 20
252.059016
 30
0.0
 11
333.058741
 21
251.948919
 31
0.0
  0
LINE
  5
8F
330
1F
100
AcDbEntity
  8
1
100
AcDbLine
 10
332.880713
 20
251.997747
 30
0.0
 11
333.024796
 21
251.889995
 31
0.0
  0
LINE
  5
90
330
1F
100
AcDbEntity
  8
1
100
AcDbLine
 10
332.858933
 20
251.894211
 30
0.0
 11
332.998752
 21
251.789647
 31
0.0
  0
LINE
  5
91
330
1F
100
AcDbEntity
  8
1
100
AcDbLine
 10
333.870363
 20
253.398282
 30
0.0
 11
334.01758
 21
253.288186
 31
0.0
  0
LINE
  5
92
330
1F
100
AcDbEntity
  8
1
100
AcDbLine
 10
333.918442
 20
253.447204
 30
0.0
 11
334.062525
 21
253.339451
 31
0.0
  0
LINE
  5
93
330
1F
100
AcDbEntity
  8
1
100
AcDbLine
 10
334.009469
 20
253.501231
 30
0.0
 11
334.149288
 21
253.396667
 31
0.0
  0
LINE
  5
94
330
1F
100
AcDbEntity
  8
1
100
AcDbLine
 10
333.733898
 20
251.681333
 30
0.0
 11
333.827091
 21
251.611639
 31
0.0
  0
LINE
  5
95
330
1F
100
AcDbEntity
  8
1
100
AcDbLine
 10
334.493569
 20
252.742409
 30
0.0
 11
334.592405
 21
252.668494
 31
0.0
  0
LINE
  5
96
330
1F
100
AcDbEntity
  8
1
100
AcDbLine
 10
326.478803
 20
240.084034
 30
0.0
 11
326.478803
 21
251.138739
 31
0.0
  0
LINE
  5
97
330
1F
100
AcDbEntity
  8
1
100
AcDbLine
 10
330.424706
 20
251.203729
 30
0.0
 11
329.896825
 21
254.590803
 31
0.0
  0
LINE
  5
98
330
1F
100
AcDbEntity
  8
1
100
AcDbLine
 10
330.350264
 20
250.961223
 30
0.0
 11
329.851899
 21
254.642173
 31
0.0
  0
LINE
  5
99
330
1F
100
AcDbEntity
  8
1
100
AcDbLine
 10
330.593683
 20
251.232694
 30
0.0
 11
330.424706
 21
251.203729
 31
0.0
  0
LINE
  5
9A
330
1F
100
AcDbEntity
  8
1
100
AcDbLine
 10
331.538435
 20
250.96119
 30
0.0
 11
328.999428
 21
250.96119
 31
0.0
  0
LINE
  5
9B
330
1F
100
AcDbEntity
  8
1
100
AcDbLine
 10
326.609699
 20
232.6808
 30
0.0
 11
326.609699
 21
232.920921
 31
0.0
  0
LINE
  5
9C
330
1F
100
AcDbEntity
  8
1
100
AcDbLine
 10
326.478803
 20
232.925055
 30
0.0
 11
326.478803
 21
232.679943
 31
0.0
  0
LINE
  5
9D
330
1F
100
AcDbEntity
  8
SK1
100
AcDbLine
 10
147.144248
 20
232.231161
 30
0.0
 11
147.144248
 21
255.231161
 31
0.0
  0
LINE
  5
9E
330
1F
100
AcDbEntity
  8
1
100
AcDbLine
 10
238.159919
 20
231.523785
 30
0.0
 11
238.159919
 21
255.938537
 31
0.0
  0
LINE
  5
9F
330
1F
100
AcDbEntity
  8
1
100
AcDbLine
 10
337.142347
 20
239.673944
 30
0.0
 11
336.924185
 21
241.281742
 31
0.0
  0
LINE
  5
A0
330
1F
100
AcDbEntity
  8
1
100
AcDbLine
 10
330.377626
 20
240.008122
 30
0.0
 11
330.317137
 21
239.879136
 31
0.0
  0
LINE
  5
A1
330
1F
100
AcDbEntity
  8
1
100
AcDbLine
 10
333.479917
 20
253.436845
 30
0.0
 11
333.626913
 21
253.326912
 31
0.0
  0
LINE
  5
A2
330
1F
100
AcDbEntity
  8
1
100
AcDbLine
 10
332.898904
 20
252.3038
 30
0.0
 11
332.751792
 21
252.413818
 31
0.0
  0
LINE
  5
A3
330
1F
100
AcDbEntity
  8
1
100
AcDbLine
 10
334.430078
 20
252.757502
 30
0.0
 11
334.57719
 21
252.647483
 31
0.0
  0
LINE
  5
A4
330
1F
100
AcDbEntity
  8
1
100
AcDbLine
 10
333.848951
 20
251.624543
 30
0.0
 11
333.701954
 21
251.734475
 31
0.0
  0
LINE
  5
A5
330
1F
100
AcDbEntity
  8
1
100
AcDbLine
 10
334.735909
 20
253.914636
 30
0.0
 11
334.677021
 21
253.958675
 31
0.0
  0
LINE
  5
A6
330
1F
100
AcDbEntity
  8
1
100
AcDbLine
 10
332.58087
 20
251.155793
 30
0.0
 11
332.639758
 21
251.111753
 31
0.0
  0
LINE
  5
A7
330
1F
100
AcDbEntity
  8
1
100
AcDbLine
 10
337.108152
 20
239.925948
 30
0.0
 11
337.120505
 21
240.006127
 31
0.0
  0
LINE
  5
A8
330
1F
100
AcDbEntity
  8
1
100
AcDbLine
 10
336.493356
 20
249.793401
 30
0.0
 11
336.493356
 21
250.11767
 31
0.0
  0
LINE
  5
A9
330
1F
100
AcDbEntity
  8
1
100
AcDbLine
 10
332.147782
 20
232.6435299999999
 30
0.0
 11
335.556701
 21
232.224968
 31
0.0
  0
LINE
  5
AA
330
1F
100
AcDbEntity
  8
1
100
AcDbLine
 10
326.609699
 20
232.6808
 30
0.0
 11
331.538435
 21
232.6808
 31
0.0
  0
LINE
  5
AB
330
1F
100
AcDbEntity
  8
1
100
AcDbLine
 10
335.889568
 20
232.475801
 30
0.0
 11
336.481045
 21
236.210235
 31
0.0
  0
LINE
  5
AC
330
1F
100
AcDbEntity
  8
1
100
AcDbLine
 10
336.493356
 20
236.36667
 30
0.0
 11
336.493356
 21
237.077586
 31
0.0
  0
LINE
  5
AD
330
1F
100
AcDbEntity
  8
1
100
AcDbLine
 10
336.493356
 20
237.077566
 30
0.0
 11
336.493356
 21
237.948294
 31
0.0
  0
LINE
  5
AE
330
1F
100
AcDbEntity
  8
1
100
AcDbLine
 10
336.493356
 20
242.674185
 30
0.0
 11
336.493356
 21
249.793403
 31
0.0
  0
LINE
  5
AF
330
1F
100
AcDbEntity
  8
1
100
AcDbLine
 10
238.159919
 20
231.523785
 30
0.0
 11
326.478803
 21
232.679943
 31
0.0
  0
LINE
  5
B0
330
1F
100
AcDbEntity
  8
SK1
100
AcDbLine
 10
147.144248
 20
232.231161
 30
0.0
 11
148.144248
 21
231.231161
 31
0.0
  0
LINE
  5
B1
330
1F
100
AcDbEntity
  8
SK1
100
AcDbLine
 10
148.144248
 20
256.231161
 30
0.0
 11
147.144248
 21
255.231161
 31
0.0
  0
LINE
  5
B2
330
1F
100
AcDbEntity
  8
SK1
100
AcDbLine
 10
237.144248
 20
256.231161
 30
0.0
 11
148.144248
 21
256.231161
 31
0.0
  0
LINE
  5
B3
330
1F
100
AcDbEntity
  8
80
100
AcDbLine
 10
203.144248
 20
242.731588
 30
0.0
 11
203.144248
 21
244.730735
 31
0.0
  0
LINE
  5
B4
330
1F
100
AcDbEntity
  8
81
100
AcDbLine
 10
335.144248
 20
256.231161
 30
0.0
 11
339.144248
 21
256.231161
 31
0.0
  0
LINE
  5
B5
330
1F
100
AcDbEntity
  8
81
100
AcDbLine
 10
337.144248
 20
254.231161
 30
0.0
 11
337.144248
 21
258.231161
 31
0.0
  0
LINE
  5
B6
330
1F
100
AcDbEntity
  8
SK1
100
AcDbLine
 10
148.144248
 20
231.231161
 30
0.0
 11
237.144248
 21
231.231161
 31
0.0
  0
LINE
  5
B7
330
1F
100
AcDbEntity
  8
1
100
AcDbLine
 10
337.150294
 20
240.390193
 30
0.0
 11
337.094621
 21
240.025642
 31
0.0
  0
LINE
  5
B8
330
1F
100
AcDbEntity
  8
1
100
AcDbLine
 10
336.615723
 20
237.960934
 30
0.0
 11
336.493347
 21
237.488527
 31
0.0
  0
LINE
  5
B9
330
1F
100
AcDbEntity
  8
1
100
AcDbLine
 10
336.489094
 20
237.97989
 30
0.0
 11
336.549758
 21
237.981047
 31
0.0
  0
LINE
  5
BA
330
1F
100
AcDbEntity
  8
1
100
AcDbLine
 10
335.556701
 20
232.392973
 30
0.0
 11
335.556701
 21
232.224968
 31
0.0
  0
LINE
  5
BB
330
1F
100
AcDbEntity
  8
1
100
AcDbLine
 10
332.147782
 20
232.6435299999999
 30
0.0
 11
332.147782
 21
232.839003
 31
0.0
  0
LINE
  5
BC
330
1F
100
AcDbEntity
  8
1
100
AcDbLine
 10
331.538435
 20
232.6808
 30
0.0
 11
331.538435
 21
232.87889
 31
0.0
  0
LINE
  5
BD
330
1F
100
AcDbEntity
  8
1
100
AcDbLine
 10
335.889568
 20
232.475801
 30
0.0
 11
335.889568
 21
232.659849
 31
0.0
  0
LINE
  5
BE
330
1F
100
AcDbEntity
  8
1
100
AcDbLine
 10
336.312508
 20
237.813691
 30
0.0
 11
336.312508
 21
237.946025
 31
0.0
  0
LINE
  5
BF
330
1F
100
AcDbEntity
  8
1
100
AcDbLine
 10
335.556701
 20
241.074147
 30
0.0
 11
335.556701
 21
246.60232
 31
0.0
  0
LINE
  5
C0
330
1F
100
AcDbEntity
  8
1
100
AcDbLine
 10
335.556701
 20
247.510679
 30
0.0
 11
335.556701
 21
251.096863
 31
0.0
  0
LINE
  5
C1
330
1F
100
AcDbEntity
  8
1
100
AcDbLine
 10
336.481045
 20
236.210235
 30
0.0
 11
336.481045
 21
236.880237
 31
0.0
  0
LINE
  5
C2
330
1F
100
AcDbEntity
  8
1
100
AcDbLine
 10
331.538435
 20
232.87889
 30
0.0
 11
328.999428
 21
232.87889
 31
0.0
  0
LINE
  5
C3
330
1F
100
AcDbEntity
  8
1
100
AcDbLine
 10
330.262305
 20
239.747955
 30
0.0
 11
329.658157
 21
239.801931
 31
0.0
  0
LINE
  5
C4
330
1F
100
AcDbEntity
  8
1
100
AcDbLine
 10
329.999451
 20
240.058088
 30
0.0
 11
329.851899
 21
239.790658
 31
0.0
  0
LINE
  5
C5
330
1F
100
AcDbEntity
  8
1
100
AcDbLine
 10
331.064741
 20
240.985446
 30
0.0
 11
331.397702
 21
241.818659
 31
0.0
  0
LINE
  5
C6
330
1F
100
AcDbEntity
  8
1
100
AcDbLine
 10
331.209139
 20
241.681802
 30
0.0
 11
331.165875
 21
241.573539
 31
0.0
  0
LINE
  5
C7
330
1F
100
AcDbEntity
  8
1
100
AcDbLine
 10
326.609699
 20
251.120443
 30
0.0
 11
326.609699
 21
240.072813
 31
0.0
  0
LINE
  5
C8
330
1F
100
AcDbEntity
  8
1
100
AcDbLine
 10
331.538435
 20
241.827019
 30
0.0
 11
331.538435
 21
250.96119
 31
0.0
  0
LINE
  5
C9
330
1F
100
AcDbEntity
  8
1
100
AcDbLine
 10
336.481045
 20
242.606286
 30
0.0
 11
336.481045
 21
249.843977
 31
0.0
  0
LINE
  5
CA
330
1F
100
AcDbEntity
  8
1
100
AcDbLine
 10
329.658157
 20
239.801931
 30
0.0
 11
328.999428
 21
232.87889
 31
0.0
  0
LINE
  5
CB
330
1F
100
AcDbEntity
  8
1
100
AcDbLine
 10
332.147782
 20
250.972327
 30
0.0
 11
332.147782
 21
241.725076
 31
0.0
  0
LINE
  5
CC
330
1F
100
AcDbEntity
  8
1
100
AcDbLine
 10
335.889568
 20
251.022348
 30
0.0
 11
335.889568
 21
241.131897
 31
0.0
  0
LINE
  5
CD
330
1F
100
AcDbEntity
  8
1
100
AcDbLine
 10
337.150294
 20
239.55789
 30
0.0
 11
336.99178
 21
240.729957
 31
0.0
  0
LINE
  5
CE
330
1F
100
AcDbEntity
  8
1
100
AcDbLine
 10
330.2128140000001
 20
239.629563
 30
0.0
 11
330.374175
 21
239.973807
 31
0.0
  0
LINE
  5
CF
330
1F
100
AcDbEntity
  8
1
100
AcDbLine
 10
330.141828
 20
239.232571
 30
0.0
 11
330.494283
 21
239.992712
 31
0.0
  0
LINE
  5
D0
330
1F
100
AcDbEntity
  8
1
100
AcDbLine
 10
336.615723
 20
242.652859
 30
0.0
 11
335.937739
 21
240.981417
 31
0.0
  0
LINE
  5
D1
330
1F
100
AcDbEntity
  8
1
100
AcDbLine
 10
336.493308
 20
242.691242
 30
0.0
 11
336.549758
 21
242.680362
 31
0.0
  0
LINE
  5
D2
330
1F
100
AcDbEntity
  8
1
100
AcDbLine
 10
331.544692
 20
241.812783
 30
0.0
 11
331.549702
 21
241.825136
 31
0.0
  0
LINE
  5
D3
330
1F
100
AcDbEntity
  8
1
100
AcDbLine
 10
335.891313
 20
240.960252
 30
0.0
 11
331.610657
 21
241.78528
 31
0.0
  0
LINE
  5
D4
330
1F
100
AcDbEntity
  8
1
100
AcDbLine
 10
335.13162
 20
237.766388
 30
0.0
 11
335.304471
 21
239.032233
 31
0.0
  0
LINE
  5
D5
330
1F
100
AcDbEntity
  8
1
100
AcDbLine
 10
330.3019700000001
 20
254.810492
 30
0.0
 11
330.190442
 21
254.821307
 31
0.0
  0
LINE
  5
D6
330
1F
100
AcDbEntity
  8
1
100
AcDbLine
 10
330.254626
 20
254.132831
 30
0.0
 11
330.141828
 21
254.126573
 31
0.0
  0
LINE
  5
D7
330
1F
100
AcDbEntity
  8
1
100
AcDbLine
 10
330.324394
 20
253.15804
 30
0.0
 11
330.2128140000001
 21
253.134751
 31
0.0
  0
LINE
  5
D8
330
1F
100
AcDbEntity
  8
1
100
AcDbLine
 10
330.472258
 20
255.026039
 30
0.0
 11
330.436277
 21
255.132484
 31
0.0
  0
LINE
  5
D9
330
1F
100
AcDbEntity
  8
1
100
AcDbLine
 10
334.153835
 20
256.027527
 30
0.0
 11
334.142903
 21
256.140876
 31
0.0
  0
LINE
  5
DA
330
1F
100
AcDbEntity
  8
1
100
AcDbLine
 10
335.125574
 20
256.111784
 30
0.0
 11
335.13162
 21
256.226605
 31
0.0
  0
LINE
  5
DB
330
1F
100
AcDbEntity
  8
1
100
AcDbLine
 10
335.799717
 20
256.074075
 30
0.0
 11
335.822741
 21
256.187864
 31
0.0
  0
LINE
  5
DC
330
1F
100
AcDbEntity
  8
1
100
AcDbLine
 10
336.011895
 20
255.906174
 30
0.0
 11
336.129046
 21
255.945481
 31
0.0
  0
LINE
  5
DD
330
1F
100
AcDbEntity
  8
1
100
AcDbLine
 10
336.955636
 20
252.222978
 30
0.0
 11
337.079308
 21
252.237224
 31
0.0
  0
LINE
  5
DE
330
1F
100
AcDbEntity
  8
1
100
AcDbLine
 10
337.150294
 20
251.245402
 30
0.0
 11
337.025404
 21
251.248187
 31
0.0
  0
LINE
  5
DF
330
1F
100
AcDbEntity
  8
1
100
AcDbLine
 10
336.97806
 20
250.570526
 30
0.0
 11
337.101674
 21
250.550672
 31
0.0
  0
LINE
  5
E0
330
1F
100
AcDbEntity
  8
1
100
AcDbLine
 10
336.807772
 20
250.354979
 30
0.0
 11
336.85584
 21
250.239495
 31
0.0
  0
LINE
  5
E1
330
1F
100
AcDbEntity
  8
1
100
AcDbLine
 10
317.553785
 20
254.899215
 30
0.0
 11
238.159919
 21
255.938537
 31
0.0
  0
LINE
  5
E2
330
1F
100
AcDbEntity
  8
NOCUT
100
AcDbLine
 10
309.453649
 20
243.731161
 30
0.0
 11
335.044248
 21
243.731161
 31
0.0
  0
LINE
  5
E4
330
1F
100
AcDbEntity
  8
NOCUT
100
AcDbLine
 10
309.453649
 20
243.731161
 30
0.0
 11
307.144248
 21
247.731161
 31
0.0
  0
LINE
  5
E5
330
1F
100
AcDbEntity
  8
NOCUT
100
AcDbLine
 10
149.144248
 20
247.731161
 30
0.0
 11
147.144248
 21
248.885862
 31
0.0
  0
LINE
  5
E6
330
1F
100
AcDbEntity
  8
NOCUT
100
AcDbLine
 10
147.144248
 20
248.885862
 30
0.0
 11
147.144248
 21
255.231161
 31
0.0
  0
LINE
  5
E7
330
1F
100
AcDbEntity
  8
NOCUT
100
AcDbLine
 10
238.159919
 20
255.938537
 30
0.0
 11
326.478803
 21
254.78238
 31
0.0
  0
LINE
  5
E8
330
1F
100
AcDbEntity
  8
NOCUT
100
AcDbLine
 10
326.609699
 20
254.781523
 30
0.0
 11
331.538435
 21
254.781523
 31
0.0
  0
LINE
  5
E9
330
1F
100
AcDbEntity
  8
NOCUT
100
AcDbLine
 10
335.889568
 20
254.986521
 30
0.0
 11
336.481045
 21
251.252087
 31
0.0
  0
LINE
  5
EA
330
1F
100
AcDbEntity
  8
NOCUT
100
AcDbLine
 10
336.312508
 20
250.522076
 30
0.0
 11
335.225096
 21
248.969091
 31
0.0
  0
LINE
  5
EB
330
1F
100
AcDbEntity
  8
NOCUT
100
AcDbLine
 10
148.144248
 20
256.231161
 30
0.0
 11
237.144248
 21
256.231161
 31
0.0
  0
LINE
  5
EC
330
1F
100
AcDbEntity
  8
NOCUT
100
AcDbLine
 10
147.144248
 20
255.231161
 30
0.0
 11
148.144248
 21
256.231161
 31
0.0
  0
LINE
  5
ED
330
1F
100
AcDbEntity
  8
NOCUT
100
AcDbLine
 10
332.147782
 20
254.818792
 30
0.0
 11
335.556701
 21
255.237355
 31
0.0
  0
LINE
  5
EE
330
1F
100
AcDbEntity
  8
NOCUT
100
AcDbLine
 10
307.144248
 20
247.731161
 30
0.0
 11
149.144248
 21
247.731161
 31
0.0
  0
LINE
  5
EF
330
1F
100
AcDbEntity
  8
NOCUT
100
AcDbLine
 10
335.044248
 20
248.395514
 30
0.0
 11
335.044248
 21
243.731161
 31
0.0
  0
ARC
  5
F0
330
1F
100
AcDbEntity
  8
1
100
AcDbCircle
 10
335.593262
 20
232.522732
 30
0.0
 40
0.3
100
AcDbArc
 50
263.0
 51
351.0
  0
ARC
  5
F1
330
1F
100
AcDbEntity
  8
1
100
AcDbCircle
 10
331.538435
 20
227.6808
 30
0.0
 40
5.0
100
AcDbArc
 50
83.0
 51
90.0
  0
ARC
  5
F2
330
1F
100
AcDbEntity
  8
1
100
AcDbCircle
 10
335.493356
 20
236.36667
 30
0.0
 40
1.0
100
AcDbArc
 50
351.0
 51
0.0
  0
ARC
  5
F3
330
1F
100
AcDbEntity
  8
1
100
AcDbCircle
 10
326.609699
 20
222.6808
 30
0.0
 40
10.0
100
AcDbArc
 50
90.0
 51
90.75000000000001
  0
ARC
  5
F4
330
1F
100
AcDbEntity
  8
1
100
AcDbCircle
 10
238.186099
 20
229.523957
 30
0.0
 40
2.0
100
AcDbArc
 50
90.75000000000001
 51
121.394333
  0
ARC
  5
F5
330
1F
100
AcDbEntity
  8
1
100
AcDbCircle
 10
238.186099
 20
257.938366
 30
0.0
 40
2.0
100
AcDbArc
 50
238.6056669999999
 51
269.25
  0
ARC
  5
F6
330
1F
100
AcDbEntity
  8
NOCUT
100
AcDbCircle
 10
238.186099
 20
257.938366
 30
0.0
 40
2.0
100
AcDbArc
 50
238.6056669999999
 51
269.25
  0
ARC
  5
F7
330
1F
100
AcDbEntity
  8
NOCUT
100
AcDbCircle
 10
326.609699
 20
264.781523
 30
0.0
 40
10.0
100
AcDbArc
 50
269.25
 51
270.0
  0
ARC
  5
F8
330
1F
100
AcDbEntity
  8
NOCUT
100
AcDbCircle
 10
336.044248
 20
248.395514
 30
0.0
 40
1.0
100
AcDbArc
 50
145.0
 51
180.0
  0
ARC
  5
F9
330
1F
100
AcDbEntity
  8
NOCUT
100
AcDbCircle
 10
331.538435
 20
259.781523
 30
0.0
 40
5.0
100
AcDbArc
 50
270.0
 51
277.0
  0
ARC
  5
FA
330
1F
100
AcDbEntity
  8
NOCUT
100
AcDbCircle
 10
335.593262
 20
254.939591
 30
0.0
 40
0.3
100
AcDbArc
 50
9.0
 51
97.0
  0
ARC
  5
FB
330
1F
100
AcDbEntity
  8
NOCUT
100
AcDbCircle
 10
335.493356
 20
251.095653
 30
0.0
 40
1.0
100
AcDbArc
 50
325.0
 51
9.0
  0
ELLIPSE
  5
FC
330
1F
100
AcDbEntity
  8
1
100
AcDbEllipse
 10
330.8363
 20
266.983036
 30
0.0
 11
-6.046801128077424
 21
27.67545970765621
 31
0.0
210
0.0
220
0.0
230
0.9999999999999998
 40
0.057517
 41
2.792758612325488
 42
3.26060997779035
  0
ELLIPSE
  5
FD
330
1F
100
AcDbEntity
  8
1
100
AcDbEllipse
 10
333.687833
 20
252.513194
 30
0.0
 11
1.048075552891555
 21
1.401441270774862
 31
0.0
210
0.0
220
0.0
230
1.0
 40
0.9849479999999999
 41
4.357674389734754
 42
6.283176024596404
  0
ELLIPSE
  5
FE
330
1F
100
AcDbEntity
  8
1
100
AcDbEllipse
 10
333.687833
 20
252.513194
 30
0.0
 11
1.048075552891555
 21
1.401441270774862
 31
0.0
210
0.0
220
0.0
230
1.0
 40
0.9849479999999999
 41
3.141681350057171
 42
3.269406554463129
  0
ELLIPSE
  5
FF
330
1F
100
AcDbEntity
  8
1
100
AcDbEllipse
 10
333.6289450000001
 20
252.557234
 30
0.0
 11
-1.048075552891559
 21
-1.401441270774859
 31
0.0
210
0.0
220
0.0
230
1.0
 40
0.9849479999999999
 41
3.162690688398384
 42
6.283185307179585
  0
ELLIPSE
  5
100
330
1F
100
AcDbEntity
  8
1
100
AcDbEllipse
 10
333.6289450000001
 20
252.557234
 30
0.0
 11
-1.048075552891559
 21
-1.401441270774859
 31
0.0
210
0.0
220
0.0
230
1.0
 40
0.9849479999999999
 41
0.0
 42
0.1751343633009259
  0
ELLIPSE
  5
101
330
1F
100
AcDbEntity
  8
1
100
AcDbEllipse
 10
333.6289450000001
 20
252.557234
 30
0.0
 11
-1.048075552891559
 21
-1.401441270774859
 31
0.0
210
0.0
220
0.0
230
1.0
 40
0.9849479999999999
 41
1.156293321488548
 42
3.162691268555861
  0
ELLIPSE
  5
102
330
1F
100
AcDbEntity
  8
1
100
AcDbEllipse
 10
333.840569
 20
253.476084
 30
0.0
 11
0.050441870526483
 21
0.0674486862477269
 31
0.0
210
0.0
220
0.0
230
1.0
 40
0.9849479999999999
 41
4.156258478260143
 42
4.995286670437824
  0
ELLIPSE
  5
103
330
1F
100
AcDbEntity
  8
1
100
AcDbEllipse
 10
333.996316
 20
253.418324
 30
0.0
 11
0.0504418705264831
 21
0.067448686247727
 31
0.0
210
0.0
220
0.0
230
0.9999999999999996
 40
0.9849479999999999
 41
0.491067049072235
 42
1.853694016848241
  0
ELLIPSE
  5
104
330
1F
100
AcDbEntity
  8
1
100
AcDbEllipse
 10
333.942009
 20
253.076025
 30
0.0
 11
0.258701961321836
 21
0.3459250665913939
 31
0.0
210
0.0
220
0.0
230
0.9999999999999998
 40
0.9849479999999999
 41
5.834314862615688
 42
6.774252356251771
  0
ELLIPSE
  5
105
330
1F
100
AcDbEntity
  8
1
100
AcDbEllipse
 10
334.248664
 20
253.237901
 30
0.0
 11
0.0504418705264829
 21
0.0674486862477268
 31
0.0
210
0.0
220
0.0
230
1.0
 40
0.9849479999999999
 41
4.471687894839667
 42
5.834314862615651
  0
ELLIPSE
  5
106
330
1F
100
AcDbEntity
  8
1
100
AcDbEllipse
 10
334.353651
 20
253.109243
 30
0.0
 11
0.0504418705264829
 21
0.0674486862477268
 31
0.0
210
0.0
220
0.0
230
1.0
 40
0.9849479999999999
 41
1.330095241250079
 42
2.16912343342742
  0
ELLIPSE
  5
107
330
1F
100
AcDbEntity
  8
1
100
AcDbEllipse
 10
334.697592
 20
253.096607
 30
0.0
 11
0.2587019613218359
 21
0.3459250665913938
 31
0.0
210
0.0
220
0.0
230
0.9999999999999998
 40
0.9849479999999999
 41
2.169123433427618
 42
3.109060927063667
  0
ELLIPSE
  5
108
330
1F
100
AcDbEntity
  8
1
100
AcDbEllipse
 10
334.48052
 20
252.82495
 30
0.0
 11
0.050441870526483
 21
0.0674486862477269
 31
0.0
210
0.0
220
0.0
230
1.0
 40
0.9849479999999999
 41
3.109060927063488
 42
3.948089119241359
  0
ELLIPSE
  5
109
330
1F
100
AcDbEntity
  8
1
100
AcDbEllipse
 10
334.506618
 20
252.659868
 30
0.0
 11
0.0504418705264831
 21
0.067448686247727
 31
0.0
210
0.0
220
0.0
230
0.9999999999999996
 40
0.9849479999999999
 41
5.727054805055046
 42
7.089681772831271
  0
ELLIPSE
  5
10A
330
1F
100
AcDbEntity
  8
1
100
AcDbEllipse
 10
334.184946
 20
252.531644
 30
0.0
 11
0.258701961321836
 21
0.3459250665913939
 31
0.0
210
0.0
220
0.0
230
0.9999999999999998
 40
0.9849479999999999
 41
4.787117311419043
 42
5.727054805055169
  0
ELLIPSE
  5
10B
330
1F
100
AcDbEntity
  8
1
100
AcDbEllipse
 10
334.474013
 20
252.347882
 30
0.0
 11
0.0504418705264829
 21
0.0674486862477268
 31
0.0
210
0.0
220
0.0
230
1.0
 40
0.9849479999999999
 41
3.424490343643065
 42
4.787117311419121
  0
ELLIPSE
  5
10C
330
1F
100
AcDbEntity
  8
1
100
AcDbEllipse
 10
334.414228
 20
252.19061
 30
0.0
 11
0.0504418705264829
 21
0.0674486862477268
 31
0.0
210
0.0
220
0.0
230
1.0
 40
0.9849479999999999
 41
0.2828976900532721
 42
1.121925882231057
  0
ELLIPSE
  5
10D
330
1F
100
AcDbEntity
  8
1
100
AcDbEllipse
 10
334.570967
 20
251.88496
 30
0.0
 11
0.2587019613218359
 21
0.3459250665913938
 31
0.0
210
0.0
220
0.0
230
0.9999999999999998
 40
0.9849479999999999
 41
1.121925882230994
 42
2.061863375867076
  0
ELLIPSE
  5
10E
330
1F
100
AcDbEntity
  8
1
100
AcDbEllipse
 10
334.230886
 20
251.934526
 30
0.0
 11
0.050441870526483
 21
0.0674486862477269
 31
0.0
210
0.0
220
0.0
230
1.0
 40
0.9849479999999999
 41
2.061863375867221
 42
2.900891568044758
  0
ELLIPSE
  5
10F
330
1F
100
AcDbEntity
  8
1
100
AcDbEllipse
 10
334.101238
 20
251.827204
 30
0.0
 11
0.0504418705264831
 21
0.067448686247727
 31
0.0
210
0.0
220
0.0
230
0.9999999999999996
 40
0.9849479999999999
 41
4.679857253858647
 42
6.042484221634758
  0
ELLIPSE
  5
110
330
1F
100
AcDbEntity
  8
1
100
AcDbEllipse
 10
333.833872
 20
252.041279
 30
0.0
 11
0.258701961321836
 21
0.3459250665913939
 31
0.0
210
0.0
220
0.0
230
0.9999999999999998
 40
0.9849479999999999
 41
3.739919760222468
 42
4.679857253858543
  0
ELLIPSE
  5
111
330
1F
100
AcDbEntity
  8
1
100
AcDbEllipse
 10
333.816285
 20
251.69564
 30
0.0
 11
0.0504418705264829
 21
0.0674486862477268
 31
0.0
210
0.0
220
0.0
230
1.0
 40
0.9849479999999999
 41
2.37729279244647
 42
3.739919760222107
  0
ELLIPSE
  5
112
330
1F
100
AcDbEntity
  8
1
100
AcDbEllipse
 10
333.651512
 20
251.667026
 30
0.0
 11
0.0504418705264829
 21
0.0674486862477268
 31
0.0
210
0.0
220
0.0
230
1.0
 40
0.9849479999999999
 41
5.518885446036269
 42
6.35791363821391
  0
ELLIPSE
  5
113
330
1F
100
AcDbEntity
  8
1
100
AcDbEllipse
 10
333.464311
 20
251.374013
 30
0.0
 11
0.2587019613218359
 21
0.3459250665913938
 31
0.0
210
0.0
220
0.0
230
0.9999999999999998
 40
0.9849479999999999
 41
0.0747283310342983
 42
1.014665824670428
  0
ELLIPSE
  5
114
330
1F
100
AcDbEntity
  8
1
100
AcDbEllipse
 10
333.341301
 20
251.695235
 30
0.0
 11
0.050441870526483
 21
0.0674486862477269
 31
0.0
210
0.0
220
0.0
230
1.0
 40
0.9849479999999999
 41
1.014665824670655
 42
1.853694016848321
  0
ELLIPSE
  5
115
330
1F
100
AcDbEntity
  8
1
100
AcDbEllipse
 10
333.185555
 20
251.752995
 30
0.0
 11
0.0504418705264831
 21
0.067448686247727
 31
0.0
210
0.0
220
0.0
230
0.9999999999999996
 40
0.9849479999999999
 41
3.632659702661796
 42
4.995286670438034
  0
ELLIPSE
  5
116
330
1F
100
AcDbEntity
  8
1
100
AcDbEllipse
 10
298.51908
 20
245.301937
 30
0.0
 11
-123.8295584475532
 21
11.06890339641645
 31
0.0
210
0.0
220
0.0
230
0.9999999999999998
 40
0.022368
 41
1.7433834195836
 42
1.800551283442499
  0
ELLIPSE
  5
117
330
1F
100
AcDbEntity
  8
1
100
AcDbEllipse
 10
336.320673
 20
243.730864
 30
0.0
 11
-79.06143035067126
 21
-1.17782157950292
 31
0.0
210
0.0
220
0.0
230
0.9999999999999998
 40
0.138977
 41
4.788234290594411
 42
4.791659405206283
  0
ELLIPSE
  5
118
330
1F
100
AcDbEntity
  8
1
100
AcDbEllipse
 10
316.1004660000001
 20
243.731165
 30
0.0
 11
-119.8504703488757
 21
-3.013448007477758
 31
0.0
210
0.0
220
0.0
230
1.0
 40
0.088707
 41
4.595167385919419
 42
4.622359852159168
  0
ELLIPSE
  5
119
330
1F
100
AcDbEntity
  8
1
100
AcDbEllipse
 10
331.507846
 20
243.731164
 30
0.0
 11
-1.921785043563305
 21
11.0479933109829
 31
0.0
210
0.0
220
0.0
230
1.0
 40
0.118977
 41
6.076432737985036
 42
6.103514221268772
  0
ELLIPSE
  5
11A
330
1F
100
AcDbEntity
  8
1
100
AcDbEllipse
 10
330.2170680000001
 20
251.359012
 30
0.0
 11
-0.2534233923529275
 21
1.478437210100022
 31
0.0
210
0.0
220
0.0
230
1.0
 40
0.119892
 41
4.419440677880443
 42
4.586636994298324
  0
ELLIPSE
  5
11B
330
1F
100
AcDbEntity
  8
1
100
AcDbEllipse
 10
329.805056
 20
263.037722
 30
0.0
 11
-12.68371773298697
 21
-4.322418821668256
 31
0.0
210
0.0
220
0.0
230
0.9999999999999998
 40
0.9586379999999998
 41
0.3773668076195089
 42
0.6236767530596568
  0
ELLIPSE
  5
11C
330
1F
100
AcDbEntity
  8
1
100
AcDbEllipse
 10
298.519079
 20
243.292586
 30
0.0
 11
-123.8295053215381
 21
-3.112996790316616
 31
0.0
210
0.0
220
0.0
230
1.0
 40
0.087808
 41
4.482426054697083
 42
4.539593918092501
  0
ELLIPSE
  5
11D
330
1F
100
AcDbEntity
  8
1
100
AcDbEllipse
 10
330.8363
 20
216.468086
 30
0.0
 11
-6.252687743595088
 21
-23.24637197554142
 31
0.0
210
0.0
220
0.0
230
1.0
 40
0.001688
 41
2.695252341372519
 42
2.830644170087773
  0
ELLIPSE
  5
11E
330
1F
100
AcDbEntity
  8
1
100
AcDbEllipse
 10
335.750252
 20
211.891287
 30
0.0
 11
-2.425793684159772
 21
28.83275184020194
 31
0.0
210
0.0
220
0.0
230
1.0
 40
0.235268
 41
5.83527559751979
 42
5.837439400281978
  0
ELLIPSE
  5
11F
330
1F
100
AcDbEntity
  8
1
100
AcDbEllipse
 10
316.100463
 20
243.731161
 30
0.0
 11
-119.8505385690778
 21
10.71333711123438
 31
0.0
210
0.0
220
0.0
230
1.0
 40
0.022597
 41
1.660615037397573
 42
1.687807500352559
  0
ELLIPSE
  5
120
330
1F
100
AcDbEntity
  8
1
100
AcDbEllipse
 10
331.507848
 20
243.731165
 30
0.0
 11
-2.135006178768195
 21
-11.04891012877589
 31
0.0
210
0.0
220
0.0
230
1.0
 40
0.08407
 41
5.066171895412701
 42
5.093253361863853
  0
ELLIPSE
  5
121
330
1F
100
AcDbEntity
  8
1
100
AcDbEllipse
 10
336.320356
 20
243.731072
 30
0.0
 11
-79.05751613039426
 21
10.12683542946062
 31
0.0
210
0.0
220
0.0
230
0.9999999999999998
 40
0.055934
 41
1.496622162743051
 42
1.504239544159863
  0
ELLIPSE
  5
122
330
1F
100
AcDbEntity
  8
1
100
AcDbEllipse
 10
331.896311
 20
243.731161
 30
0.0
 11
-6.114612413894346
 21
-11.04631273600096
 31
0.0
210
0.0
220
0.0
230
0.9999999999999998
 40
0.048919
 41
1.252711738933675
 42
1.34676483728147
  0
ELLIPSE
  5
123
330
1F
100
AcDbEntity
  8
1
100
AcDbEllipse
 10
332.524632
 20
243.731161
 30
0.0
 11
-2.135004399870498
 21
-11.04890283269708
 31
0.0
210
0.0
220
0.0
230
1.0
 40
0.08407
 41
4.925148477745032
 42
4.979735888014262
  0
ELLIPSE
  5
124
330
1F
100
AcDbEntity
  8
1
100
AcDbEllipse
 10
329.658157
 20
236.096257
 30
0.0
 11
14.93255581247959
 21
-1.420836692650561
 31
0.0
210
0.0
220
0.0
230
1.0
 40
0.246001
 41
1.594199160909886
 42
1.825799483095267
  0
ELLIPSE
  5
125
330
1F
100
AcDbEntity
  8
1
100
AcDbEllipse
 10
329.658157
 20
236.096257
 30
0.0
 11
14.93255581247959
 21
-1.420836692650561
 31
0.0
210
0.0
220
0.0
230
1.0
 40
0.246001
 41
2.054537942958995
 42
2.549095017717291
  0
ELLIPSE
  5
126
330
1F
100
AcDbEntity
  8
1
100
AcDbEllipse
 10
718.96817
 20
196.716841
 30
0.0
 11
-419.1347846914191
 21
53.55698757188495
 31
0.0
210
0.0
220
0.0
230
0.9999999999999998
 40
0.026727
 41
0.3986744169075525
 42
0.4192891468899671
  0
ELLIPSE
  5
127
330
1F
100
AcDbEntity
  8
1
100
AcDbEllipse
 10
344.398042
 20
263.717925
 30
0.0
 11
-14.03138896197378
 21
-23.81339409784798
 31
0.0
210
0.0
220
0.0
230
0.9999999999999998
 40
0.01532
 41
6.198944276365721
 42
6.215384837269923
  0
ELLIPSE
  5
128
330
1F
100
AcDbEntity
  8
1
100
AcDbEllipse
 10
335.770622
 20
249.110651
 30
0.0
 11
-5.399341761758651
 21
-9.16350146020796
 31
0.0
210
0.0
220
0.0
230
1.0
 40
0.01532
 41
6.215384837265261
 42
6.578599881730037
  0
ELLIPSE
  5
129
330
1F
100
AcDbEntity
  8
1
100
AcDbEllipse
 10
334.646224
 20
250.103067
 30
0.0
 11
-2.326836349017578
 21
10.64964172941538
 31
0.0
210
0.0
220
0.0
230
1.0
 40
0.057517
 41
3.260609977785378
 42
3.623825022220646
  0
ELLIPSE
  5
12A
330
1F
100
AcDbEntity
  8
1
100
AcDbEllipse
 10
335.351261
 20
247.285659
 30
0.0
 11
-1.62742619925506
 21
7.44852811486371
 31
0.0
210
0.0
220
0.0
230
1.0
 40
0.057517
 41
3.62382502231006
 42
3.789817711441236
  0
ELLIPSE
  5
12B
330
1F
100
AcDbEntity
  8
1
100
AcDbEllipse
 10
336.24186
 20
249.705792
 30
0.0
 11
-2.117981114971859
 21
-11.3685070162859
 31
0.0
210
0.0
220
0.0
230
1.0
 40
0.231102
 41
0.0337897085098855
 42
0.3970047529620133
  0
ELLIPSE
  5
12C
330
1F
100
AcDbEntity
  8
1
100
AcDbEllipse
 10
335.960096
 20
246.497489
 30
0.0
 11
-1.481349539126201
 21
-7.951313859632732
 31
0.0
210
0.0
220
0.0
230
0.9999999999999998
 40
0.231102
 41
0.3970047536606887
 42
0.5629959483219551
  0
ELLIPSE
  5
12D
330
1F
100
AcDbEntity
  8
1
100
AcDbEllipse
 10
339.484091
 20
267.896938
 30
0.0
 11
-5.504044408558894
 21
-29.54359084429766
 31
0.0
210
0.0
220
0.0
230
1.0
 40
0.231102
 41
5.849120916115852
 42
6.31697501568955
  0
ELLIPSE
  5
12E
330
1F
100
AcDbEntity
  8
1
100
AcDbEllipse
 10
333.239862
 20
252.095295
 30
0.0
 11
0.258701961321836
 21
0.3459250665913939
 31
0.0
210
0.0
220
0.0
230
0.9999999999999998
 40
0.9849479999999999
 41
2.692722209025886
 42
3.632659702661985
  0
ELLIPSE
  5
12F
330
1F
100
AcDbEntity
  8
1
100
AcDbEllipse
 10
332.933207
 20
251.933418
 30
0.0
 11
0.0504418705264829
 21
0.0674486862477268
 31
0.0
210
0.0
220
0.0
230
1.0
 40
0.9849479999999999
 41
1.330095241249793
 42
2.692722209025823
  0
ELLIPSE
  5
130
330
1F
100
AcDbEntity
  8
1
100
AcDbEllipse
 10
332.828219
 20
252.062076
 30
0.0
 11
0.0504418705264829
 21
0.0674486862477268
 31
0.0
210
0.0
220
0.0
230
1.0
 40
0.9849479999999999
 41
4.471687894839749
 42
5.31071608701738
  0
ELLIPSE
  5
131
330
1F
100
AcDbEntity
  8
1
100
AcDbEllipse
 10
332.484279
 20
252.074712
 30
0.0
 11
0.2587019613218359
 21
0.3459250665913938
 31
0.0
210
0.0
220
0.0
230
0.9999999999999998
 40
0.9849479999999999
 41
5.310716087017324
 42
6.250653580653456
  0
ELLIPSE
  5
132
330
1F
100
AcDbEntity
  8
1
100
AcDbEllipse
 10
332.70135
 20
252.346369
 30
0.0
 11
0.050441870526483
 21
0.0674486862477269
 31
0.0
210
0.0
220
0.0
230
1.0
 40
0.9849479999999999
 41
6.250653580653451
 42
7.089681772831034
  0
ELLIPSE
  5
133
330
1F
100
AcDbEntity
  8
1
100
AcDbEllipse
 10
332.675253
 20
252.511451
 30
0.0
 11
0.0504418705264831
 21
0.067448686247727
 31
0.0
210
0.0
220
0.0
230
0.9999999999999996
 40
0.9849479999999999
 41
2.585462151465486
 42
3.948089119241356
  0
ELLIPSE
  5
134
330
1F
100
AcDbEntity
  8
1
100
AcDbEllipse
 10
332.996925
 20
252.639676
 30
0.0
 11
0.258701961321836
 21
0.3459250665913939
 31
0.0
210
0.0
220
0.0
230
0.9999999999999998
 40
0.9849479999999999
 41
1.645524657829284
 42
2.585462151465349
  0
ELLIPSE
  5
135
330
1F
100
AcDbEntity
  8
1
100
AcDbEllipse
 10
332.707857
 20
252.823438
 30
0.0
 11
0.0504418705264829
 21
0.0674486862477268
 31
0.0
210
0.0
220
0.0
230
1.0
 40
0.9849479999999999
 41
0.282897690053225
 42
1.645524657829328
  0
ELLIPSE
  5
136
330
1F
100
AcDbEntity
  8
1
100
AcDbEllipse
 10
332.767643
 20
252.98071
 30
0.0
 11
0.0504418705264829
 21
0.0674486862477268
 31
0.0
210
0.0
220
0.0
230
1.0
 40
0.9849479999999999
 41
3.424490343643181
 42
4.263518535820924
  0
ELLIPSE
  5
137
330
1F
100
AcDbEntity
  8
1
100
AcDbEllipse
 10
332.610903
 20
253.286359
 30
0.0
 11
0.2587019613218359
 21
0.3459250665913938
 31
0.0
210
0.0
220
0.0
230
0.9999999999999998
 40
0.9849479999999999
 41
4.263518535820741
 42
5.203456029456869
  0
ELLIPSE
  5
138
330
1F
100
AcDbEntity
  8
1
100
AcDbEllipse
 10
332.950984
 20
253.236794
 30
0.0
 11
0.050441870526483
 21
0.0674486862477269
 31
0.0
210
0.0
220
0.0
230
1.0
 40
0.9849479999999999
 41
5.203456029457013
 42
6.042484221634552
  0
ELLIPSE
  5
139
330
1F
100
AcDbEntity
  8
1
100
AcDbEllipse
 10
333.0806330000001
 20
253.344115
 30
0.0
 11
0.0504418705264831
 21
0.067448686247727
 31
0.0
210
0.0
220
0.0
230
0.9999999999999996
 40
0.9849479999999999
 41
1.538264600268858
 42
2.900891568044799
  0
ELLIPSE
  5
13A
330
1F
100
AcDbEntity
  8
1
100
AcDbEllipse
 10
333.347999
 20
253.130041
 30
0.0
 11
0.258701961321836
 21
0.3459250665913939
 31
0.0
210
0.0
220
0.0
230
0.9999999999999998
 40
0.9849479999999999
 41
0.5983271066326204
 42
1.538264600268781
  0
ELLIPSE
  5
13B
330
1F
100
AcDbEntity
  8
1
100
AcDbEllipse
 10
333.365586
 20
253.475679
 30
0.0
 11
0.0504418705264829
 21
0.0674486862477268
 31
0.0
210
0.0
220
0.0
230
1.0
 40
0.9849479999999999
 41
5.518885446036386
 42
6.881512413812184
  0
ELLIPSE
  5
13C
330
1F
100
AcDbEntity
  8
1
100
AcDbEllipse
 10
333.530359
 20
253.504293
 30
0.0
 11
0.0504418705264829
 21
0.0674486862477268
 31
0.0
210
0.0
220
0.0
230
1.0
 40
0.9849479999999999
 41
2.377292792446477
 42
3.21632098462413
  0
ELLIPSE
  5
13D
330
1F
100
AcDbEntity
  8
1
100
AcDbEllipse
 10
333.71756
 20
253.797307
 30
0.0
 11
0.2587019613218359
 21
0.3459250665913938
 31
0.0
210
0.0
220
0.0
230
0.9999999999999998
 40
0.9849479999999999
 41
3.216320984624126
 42
4.156258478260252
  0
ELLIPSE
  5
13E
330
1F
100
AcDbEntity
  8
1
100
AcDbEllipse
 10
333.590935
 20
252.58566
 30
0.0
 11
-0.6887353633287388
 21
-0.9209471207949068
 31
0.0
210
0.0
220
0.0
230
0.9999999999999998
 40
0.9849479999999999
 41
0.0
 42
6.283185307179585
  0
ELLIPSE
  5
13F
330
1F
100
AcDbEntity
  8
1
100
AcDbEllipse
 10
333.785724
 20
252.581539
 30
0.0
 11
-1.098269728626824
 21
-1.468558750267489
 31
0.0
210
0.0
220
0.0
230
1.0
 40
0.9849479999999999
 41
2.482536009440144
 42
4.519368025198952
  0
ELLIPSE
  5
140
330
1F
100
AcDbEntity
  8
1
100
AcDbEllipse
 10
333.765997
 20
252.596293
 30
0.0
 11
-1.140732149930879
 21
-1.525337662349115
 31
0.0
210
0.0
220
0.0
230
0.9999999999999996
 40
0.9849479999999999
 41
2.87818039230435
 42
3.430216883768039
  0
ELLIPSE
  5
141
330
1F
100
AcDbEntity
  8
1
100
AcDbEllipse
 10
333.765997
 20
252.596293
 30
0.0
 11
-1.140732149930879
 21
-1.525337662349115
 31
0.0
210
0.0
220
0.0
230
0.9999999999999996
 40
0.9849479999999999
 41
3.430217416141779
 42
6.031161524326693
  0
ELLIPSE
  5
142
330
1F
100
AcDbEntity
  8
1
100
AcDbEllipse
 10
333.765997
 20
252.596293
 30
0.0
 11
-1.140732149930879
 21
-1.525337662349115
 31
0.0
210
0.0
220
0.0
230
0.9999999999999996
 40
0.9849479999999999
 41
6.031161524326702
 42
6.283185307179585
  0
ELLIPSE
  5
143
330
1F
100
AcDbEntity
  8
1
100
AcDbEllipse
 10
333.765997
 20
252.596293
 30
0.0
 11
-1.140732149930879
 21
-1.525337662349115
 31
0.0
210
0.0
220
0.0
230
0.9999999999999996
 40
0.9849479999999999
 41
0.0
 42
0.0757818444046985
  0
ELLIPSE
  5
144
330
1F
100
AcDbEntity
  8
1
100
AcDbEllipse
 10
333.640015
 20
252.690509
 30
0.0
 11
1.169297635852484
 21
1.563534193868086
 31
0.0
210
0.0
220
0.0
230
0.9999999999999998
 40
0.9849479999999999
 41
4.346089741316845
 42
6.283185307179585
  0
ELLIPSE
  5
145
330
1F
100
AcDbEntity
  8
1
100
AcDbEllipse
 10
333.640015
 20
252.690509
 30
0.0
 11
1.169297635852484
 21
1.563534193868086
 31
0.0
210
0.0
220
0.0
230
0.9999999999999998
 40
0.9849479999999999
 41
0.0
 42
3.279616867197852
  0
SPLINE
  5
155
330
1F
100
AcDbEntity
  8
1
100
AcDbSpline
210
0.0
220
0.0
230
1.0
 70
     8
 71
     3
 72
    16
 73
    12
 74
     0
 42
0.000000001
 43
0.0000000001
 40
0.0
 40
0.0
 40
0.0
 40
0.0
 40
0.1250000000000039
 40
0.1250000000000039
 40
0.2500000000000078
 40
0.2500000000000078
 40
0.5000000000000053
 40
0.5000000000000053
 40
0.7500000000000026
 40
0.7500000000000026
 40
1.0
 40
1.0
 40
1.0
 40
1.0
 10
334.1429031201511
 20
237.9217883974009
 30
0.0
 10
333.9849857994084
 20
237.9513134345323
 30
0.0
 10
333.8274132516046
 20
237.9816627961682
 30
0.0
 10
333.5129575435465
 20
238.0440101354251
 30
0.0
 10
333.3560691053892
 20
238.0760097632697
 30
0.0
 10
332.8868982380033
 20
238.1743872435477
 30
0.0
 10
332.5759554914836
 20
238.2431718658507
 30
0.0
 10
331.9577504390232
 20
238.3871496651412
 30
0.0
 10
331.6511194670359
 20
238.4621970987972
 30
0.0
 10
331.0431089601406
 20
238.6183032269051
 30
0.0
 10
330.7416752186143
 20
238.6993745219767
 30
0.0
 10
330.4428231871236
 20
238.7834745422818
 30
0.0
  0
SPLINE
  5
156
330
1F
100
AcDbEntity
  8
1
100
AcDbSpline
210
0.0
220
0.0
230
1.0
 70
     8
 71
     3
 72
    24
 73
    20
 74
     0
 42
0.000000001
 43
0.0000000001
 40
0.0
 40
0.0
 40
0.0
 40
0.0
 40
0.0549531386250686
 40
0.1103891671077046
 40
0.166308285443021
 40
0.222710687962467
 40
0.2795965635273162
 40
0.3369660957141609
 40
0.3948194629928361
 40
0.4531568388971012
 40
0.5119783921884658
 40
0.5712842870134361
 40
0.6310746830545501
 40
0.6913497356754461
 40
0.7521095960602623
 40
0.8133544113476327
 40
0.8750843247595149
 40
0.9372994757250971
 40
1.0
 40
1.0
 40
1.0
 40
1.0
 10
335.9748319193451
 20
240.8555335891898
 30
0.0
 10
335.9776267484355
 20
240.7987639974809
 30
0.0
 10
335.983240965625
 20
240.6847259624826
 30
0.0
 10
335.9917378171751
 20
240.5129738218786
 30
0.0
 10
336.0003363694004
 20
240.3397636357564
 30
0.0
 10
336.0090393734398
 20
240.1650988867565
 30
0.0
 10
336.0178459443478
 20
239.9889780774512
 30
0.0
 10
336.0267561870752
 20
239.8114010704482
 30
0.0
 10
336.0357699409871
 20
239.6323673674677
 30
0.0
 10
336.0448871206775
 20
239.4518765762569
 30
0.0
 10
336.0541076239219
 20
239.2699282843078
 30
0.0
 10
336.0634313556756
 20
239.0865220913544
 30
0.0
 10
336.0728582259498
 20
238.9016576070892
 30
0.0
 10
336.0823881344968
 20
238.7153344269457
 30
0.0
 10
336.0920210356682
 20
238.52755223234
 30
0.0
 10
336.1017566922048
 20
238.3383104095188
 30
0.0
 10
336.1115956061146
 20
238.1476094896177
 30
0.0
 10
336.1215355036685
 20
237.9554457100918
 30
0.0
 10
336.1282089719759
 20
237.8268692923804
 30
0.0
 10
336.1315586713695
 20
237.7623312847655
 30
0.0
  0
SPLINE
  5
157
330
1F
100
AcDbEntity
  8
1
100
AcDbSpline
210
0.0
220
0.0
230
1.0
 70
     8
 71
     3
 72
    16
 73
    12
 74
     0
 42
0.000000001
 43
0.0000000001
 40
0.0
 40
0.0
 40
0.0
 40
0.0
 40
0.1250000000000001
 40
0.1250000000000001
 40
0.2500000000000002
 40
0.2500000000000002
 40
0.5000000000000001
 40
0.5000000000000001
 40
0.75
 40
0.75
 40
1.0
 40
1.0
 40
1.0
 40
1.0
 10
337.0793075156315
 20
239.1608972156342
 30
0.0
 10
337.056514208669
 20
239.0989527675612
 30
0.0
 10
337.031605462627
 20
239.0374196295933
 30
0.0
 10
336.9775586586732
 20
238.9151762302803
 30
0.0
 10
336.9484182231122
 20
238.8544641043833
 30
0.0
 10
336.85474105742
 20
238.6737404242344
 30
0.0
 10
336.7839281870679
 20
238.5550806703387
 30
0.0
 10
336.6255589792576
 20
238.3214124175708
 30
0.0
 10
336.5381612202394
 20
238.206642940405
 30
0.0
 10
336.3470981132792
 20
237.9813385609875
 30
0.0
 10
336.2434189342587
 20
237.870783158276
 30
0.0
 10
336.1315586713695
 20
237.7623312847667
 30
0.0
  0
SPLINE
  5
158
330
1F
100
AcDbEntity
  8
1
100
AcDbSpline
210
0.0
220
0.0
230
1.0
 70
     8
 71
     3
 72
    10
 73
     6
 74
     0
 42
0.000000001
 43
0.0000000001
 40
0.0
 40
0.0
 40
0.0
 40
0.0
 40
0.1853020080439789
 40
0.1853020080439789
 40
1.0
 40
1.0
 40
1.0
 40
1.0
 10
334.5927940399592
 20
252.6385359366276
 30
0.0
 10
334.5916324076209
 20
252.6390237648009
 30
0.0
 10
334.5904836982857
 20
252.6395414790169
 30
0.0
 10
334.5843702050464
 20
252.642492095331
 30
0.0
 10
334.5796340966173
 20
252.6454644794255
 30
0.0
 10
334.5751609433656
 20
252.6490564514851
 30
0.0
  0
SPLINE
  5
159
330
1F
100
AcDbEntity
  8
1
100
AcDbSpline
210
0.0
220
0.0
230
1.0
 70
     8
 71
     3
 72
    10
 73
     6
 74
     0
 42
0.000000001
 43
0.0000000001
 40
0.0
 40
0.0
 40
0.0
 40
0.0
 40
0.9429526166143967
 40
0.9429526166143967
 40
1.0
 40
1.0
 40
1.0
 40
1.0
 10
334.1492876569101
 20
253.3966668258967
 30
0.0
 10
334.1820924551263
 20
253.3921654488629
 30
0.0
 10
334.2139140027413
 20
253.3837436781789
 30
0.0
 10
334.2466121959879
 20
253.3706820188569
 30
0.0
 10
334.2484741021735
 20
253.3699221162309
 30
0.0
 10
334.2503318726567
 20
253.3691477945791
 30
0.0
  0
SPLINE
  5
15A
330
1F
100
AcDbEntity
  8
1
100
AcDbSpline
210
0.0
220
0.0
230
1.0
 70
     8
 71
     3
 72
    18
 73
    14
 74
     0
 42
0.000000001
 43
0.0000000001
 40
0.0
 40
0.0
 40
0.0
 40
0.0
 40
0.1250000000000827
 40
0.1250000000000827
 40
0.2500000000001653
 40
0.2500000000001653
 40
0.375000000000248
 40
0.375000000000248
 40
0.5000000000003306
 40
0.5000000000003306
 40
0.7500000000001653
 40
0.7500000000001653
 40
1.0
 40
1.0
 40
1.0
 40
1.0
 10
332.7776622311325
 20
252.76338195178
 30
0.0
 10
332.7804178096994
 20
252.7675373558438
 30
0.0
 10
332.7835126765685
 20
252.7713756165444
 30
0.0
 10
332.7903458771441
 20
252.7784499809746
 30
0.0
 10
332.7941263054793
 20
252.781712579093
 30
0.0
 10
332.8021088710275
 20
252.7874468864173
 30
0.0
 10
332.8063046325784
 20
252.7899282285312
 30
0.0
 10
332.8150856821258
 20
252.7941540141233
 30
0.0
 10
332.8197166682036
 20
252.7959096591931
 30
0.0
 10
332.8338579348937
 20
252.7999324948958
 30
0.0
 10
332.84356716772
 20
252.8009957203629
 30
0.0
 10
332.863168226573
 20
252.7999609992049
 30
0.0
 10
332.872655838928
 20
252.7979031282584
 30
0.0
 10
332.8818324229382
 20
252.7943211074485
 30
0.0
  0
SPLINE
  5
15B
330
1F
100
AcDbEntity
  8
1
100
AcDbSpline
210
0.0
220
0.0
230
1.0
 70
     8
 71
     3
 72
    19
 73
    15
 74
     0
 42
0.000000001
 43
0.0000000001
 40
0.0
 40
0.0
 40
0.0
 40
0.0
 40
0.1402474252849404
 40
0.1402474252849404
 40
0.283539521070766
 40
0.283539521070766
 40
0.4268316168565917
 40
0.5701237126424173
 40
0.5701237126424173
 40
0.6417697605353431
 40
0.6417697605353431
 40
0.7134158084282688
 40
0.7134158084282688
 40
1.0
 40
1.0
 40
1.0
 40
1.0
 10
332.72110939176
 20
252.4252164959153
 30
0.0
 10
332.716969098313
 20
252.441222261653
 30
0.0
 10
332.7137741812216
 20
252.4574470266042
 30
0.0
 10
332.7092201727335
 20
252.4906908977786
 30
0.0
 10
332.7079274064956
 20
252.5077465013328
 30
0.0
 10
332.7074035828752
 20
252.5414767133521
 30
0.0
 10
332.7089024230823
 20
252.5750376126268
 30
0.0
 10
332.7144011248095
 20
252.6082640523512
 30
0.0
 10
332.7200712688252
 20
252.6330544592228
 30
0.0
 10
332.7222236830687
 20
252.6413024962366
 30
0.0
 10
332.7269878012042
 20
252.6575314832454
 30
0.0
 10
332.7296052327711
 20
252.6655407648037
 30
0.0
 10
332.7438463870262
 20
252.705071076029
 30
0.0
 10
332.7588846213878
 20
252.7350653736289
 30
0.0
 10
332.7776622311325
 20
252.76338195178
 30
0.0
  0
SPLINE
  5
15C
330
1F
100
AcDbEntity
  8
1
100
AcDbSpline
210
0.0
220
0.0
230
1.0
 70
     8
 71
     3
 72
    14
 73
    10
 74
     0
 42
0.000000001
 43
0.0000000001
 40
0.0
 40
0.0
 40
0.0
 40
0.0
 40
0.25
 40
0.25
 40
0.5
 40
0.5
 40
0.75
 40
0.75
 40
1.0
 40
1.0
 40
1.0
 40
1.0
 10
332.9528225285977
 20
252.7965830051547
 30
0.0
 10
332.9472646487984
 20
252.7939006213203
 30
0.0
 10
332.9414144706583
 20
252.7918414993735
 30
0.0
 10
332.9295892862791
 20
252.7890232421278
 30
0.0
 10
332.9235935202365
 20
252.7882432335472
 30
0.0
 10
332.9114383008036
 20
252.7879057135188
 30
0.0
 10
332.9052932863797
 20
252.7883662441382
 30
0.0
 10
332.8933825709092
 20
252.790461277253
 30
0.0
 10
332.8875461962155
 20
252.7920907726354
 30
0.0
 10
332.8818324229382
 20
252.7943211074485
 30
0.0
  0
SPLINE
  5
15D
330
1F
100
AcDbEntity
  8
1
100
AcDbSpline
210
0.0
220
0.0
230
1.0
 70
     8
 71
     3
 72
    20
 73
    16
 74
     0
 42
0.000000001
 43
0.0000000001
 40
0.0
 40
0.0
 40
0.0
 40
0.0
 40
0.2499999999999702
 40
0.2499999999999702
 40
0.3749999999999751
 40
0.3749999999999751
 40
0.4999999999999801
 40
0.4999999999999801
 40
0.6249999999999851
 40
0.6249999999999851
 40
0.7499999999999901
 40
0.7499999999999901
 40
0.8749999999999948
 40
0.8749999999999948
 40
1.0
 40
1.0
 40
1.0
 40
1.0
 10
333.1598911526699
 20
253.1827018946792
 30
0.0
 10
333.1535508734071
 20
253.1902451777005
 30
0.0
 10
333.1485656878327
 20
253.198559631198
 30
0.0
 10
333.1431186335233
 20
253.2121845940862
 30
0.0
 10
333.1416622513337
 20
253.2169113202003
 30
0.0
 10
333.139568206599
 20
253.2264278608247
 30
0.0
 10
333.1389125353952
 20
253.2312579894311
 30
0.0
 10
333.1384202888633
 20
253.2410676749843
 30
0.0
 10
333.1385933699901
 20
253.2460175940636
 30
0.0
 10
333.1397742569955
 20
253.2557195126137
 30
0.0
 10
333.140778559048
 20
253.2605125960113
 30
0.0
 10
333.1436637021094
 20
253.2699752365423
 30
0.0
 10
333.1455260657727
 20
253.2745647174185
 30
0.0
 10
333.1500135178142
 20
253.283288323459
 30
0.0
 10
333.1526466404441
 20
253.2874509590226
 30
0.0
 10
333.1556942845812
 20
253.2914012902073
 30
0.0
  0
SPLINE
  5
15E
330
1F
100
AcDbEntity
  8
1
100
AcDbSpline
210
0.0
220
0.0
230
1.0
 70
     8
 71
     3
 72
    14
 73
    10
 74
     0
 42
0.000000001
 43
0.0000000001
 40
0.0
 40
0.0
 40
0.0
 40
0.0
 40
0.25
 40
0.25
 40
0.5
 40
0.5
 40
0.75
 40
0.75
 40
1.0
 40
1.0
 40
1.0
 40
1.0
 10
333.1598911526699
 20
253.1827018946792
 30
0.0
 10
333.1638370849694
 20
253.178007261701
 30
0.0
 10
333.1673095919979
 20
253.1729211838734
 30
0.0
 10
333.1731427024279
 20
253.1622322940887
 30
0.0
 10
333.1754992356609
 20
253.1566586934635
 30
0.0
 10
333.1790760809978
 20
253.1450450953664
 30
0.0
 10
333.180283414672
 20
253.1389805718557
 30
0.0
 10
333.1813931193873
 20
253.1268991778233
 30
0.0
 10
333.1813223380631
 20
253.1208182173932
 30
0.0
 10
333.1805707758082
 20
253.1146922176487
 30
0.0
  0
SPLINE
  5
15F
330
1F
100
AcDbEntity
  8
1
100
AcDbSpline
210
0.0
220
0.0
230
1.0
 70
     8
 71
     3
 72
    20
 73
    16
 74
     0
 42
0.000000001
 43
0.0000000001
 40
0.0
 40
0.0
 40
0.0
 40
0.0
 40
0.1249999999999991
 40
0.1249999999999991
 40
0.2499999999999984
 40
0.312499999999992
 40
0.312499999999992
 40
0.3749999999999856
 40
0.3749999999999856
 40
0.4999999999999729
 40
0.6249999999999602
 40
0.6249999999999602
 40
0.7499999999999476
 40
0.7499999999999476
 40
1.0
 40
1.0
 40
1.0
 40
1.0
 10
333.1805707758086
 20
253.1146922176489
 30
0.0
 10
333.1784947834769
 20
253.0977707604962
 30
0.0
 10
333.1753967697105
 20
253.0809647138912
 30
0.0
 10
333.1672311607659
 20
253.0480665916691
 30
0.0
 10
333.159621963881
 20
253.0238344889576
 30
0.0
 10
333.1497194601066
 20
253.000276104467
 30
0.0
 10
333.1425903271283
 20
252.9847247738242
 30
0.0
 10
333.1387460610208
 20
252.9769972976814
 30
0.0
 10
333.1265433855431
 20
252.9543290887751
 30
0.0
 10
333.1084941514578
 20
252.9254292950342
 30
0.0
 10
333.0869786793648
 20
252.8991105583798
 30
0.0
 10
333.0637074275908
 20
252.8740990158307
 30
0.0
 10
333.0511379085991
 20
252.8622218927455
 30
0.0
 10
333.0119289416856
 20
252.8295843074552
 30
0.0
 10
332.9834921528791
 20
252.811384999323
 30
0.0
 10
332.9528225285977
 20
252.7965830051547
 30
0.0
  0
SPLINE
  5
160
330
1F
100
AcDbEntity
  8
1
100
AcDbSpline
210
0.0
220
0.0
230
1.0
 70
     8
 71
     3
 72
    19
 73
    15
 74
     0
 42
0.000000001
 43
0.0000000001
 40
0.0
 40
0.0
 40
0.0
 40
0.0
 40
0.2726655677593504
 40
0.2726655677593504
 40
0.40899835163903
 40
0.40899835163903
 40
0.5453311355187094
 40
0.681663919398389
 40
0.681663919398389
 40
0.7498303113382308
 40
0.7498303113382308
 40
0.8179967032780727
 40
0.8179967032780727
 40
1.0
 40
1.0
 40
1.0
 40
1.0
 10
333.1556942845812
 20
253.2914012902073
 30
0.0
 10
333.1764654346693
 20
253.3183246835708
 30
0.0
 10
333.2000947048174
 20
253.3423323493542
 30
0.0
 10
333.2397900862961
 20
253.3739962701608
 30
0.0
 10
333.2537669983147
 20
253.3838190023486
 30
0.0
 10
333.2824669748168
 20
253.40150622947
 30
0.0
 10
333.3120744907231
 20
253.4173767724278
 30
0.0
 10
333.3434762909852
 20
253.4296547999647
 30
0.0
 10
333.3677213176181
 20
253.4374747424366
 30
0.0
 10
333.3759265394419
 20
253.4398491637025
 30
0.0
 10
333.3923468453378
 20
253.4440687000663
 30
0.0
 10
333.4005892124967
 20
253.4459233912103
 30
0.0
 10
333.4309546093349
 20
253.4518121739035
 30
0.0
 10
333.453268428074
 20
253.4543362820691
 30
0.0
 10
333.475809367489
 20
253.4550702168132
 30
0.0
  0
SPLINE
  5
161
330
1F
100
AcDbEntity
  8
1
100
AcDbSpline
210
0.0
220
0.0
230
1.0
 70
     8
 71
     3
 72
    20
 73
    16
 74
     0
 42
0.000000001
 43
0.0000000001
 40
0.0
 40
0.0
 40
0.0
 40
0.0
 40
0.125
 40
0.125
 40
0.2499999999999999
 40
0.3124999999999999
 40
0.3124999999999999
 40
0.3749999999999999
 40
0.3749999999999999
 40
0.4999999999999999
 40
0.6249999999999999
 40
0.6249999999999999
 40
0.7499999999999997
 40
0.7499999999999997
 40
1.0
 40
1.0
 40
1.0
 40
1.0
 10
332.9011429402092
 20
252.3020696258389
 30
0.0
 10
332.9145863562791
 20
252.2913344855197
 30
0.0
 10
332.9274143318114
 20
252.2798297847687
 30
0.0
 10
332.9514648297291
 20
252.2556138260173
 30
0.0
 10
332.9683751698539
 20
252.2364903692381
 30
0.0
 10
332.9835529085195
 20
252.2158915354917
 30
0.0
 10
332.9932736490925
 20
252.201820458329
 30
0.0
 10
332.9979518808213
 20
252.1945873268519
 30
0.0
 10
333.0112092715779
 20
252.1726306483393
 30
0.0
 10
333.0268563807507
 20
252.142650650166
 30
0.0
 10
333.0385498262932
 20
252.1113045197201
 30
0.0
 10
333.0482404015977
 20
252.0792631317741
 30
0.0
 10
333.052077440575
 20
252.0628364706488
 30
0.0
 10
333.0602690397766
 20
252.013961013643
 30
0.0
 10
333.0615249648817
 20
251.9814477874563
 30
0.0
 10
333.0587405614072
 20
251.9489191744643
 30
0.0
  0
SPLINE
  5
162
330
1F
100
AcDbEntity
  8
1
100
AcDbSpline
210
0.0
220
0.0
230
1.0
 70
     8
 71
     3
 72
    14
 73
    10
 74
     0
 42
0.000000001
 43
0.0000000001
 40
0.0
 40
0.0
 40
0.0
 40
0.0
 40
0.25
 40
0.25
 40
0.5
 40
0.5
 40
0.75
 40
0.75
 40
1.0
 40
1.0
 40
1.0
 40
1.0
 10
333.0587405614072
 20
251.9489191744643
 30
0.0
 10
333.0582359805279
 20
251.9430244410694
 30
0.0
 10
333.0570482078458
 20
251.9372121493244
 30
0.0
 10
333.0534924107488
 20
251.9261513536499
 30
0.0
 10
333.0511318332757
 20
251.9208752693295
 30
0.0
 10
333.0452771328762
 20
251.9108136141928
 30
0.0
 10
333.0417747978668
 20
251.9060489835755
 30
0.0
 10
333.0339526362495
 20
251.8974260024781
 30
0.0
 10
333.0296013872905
 20
251.8935076082543
 30
0.0
 10
333.0247955583075
 20
251.8899946386423
 30
0.0
  0
SPLINE
  5
163
330
1F
100
AcDbEntity
  8
1
100
AcDbSpline
210
0.0
220
0.0
230
1.0
 70
     8
 71
     3
 72
    18
 73
    14
 74
     0
 42
0.000000001
 43
0.0000000001
 40
0.0
 40
0.0
 40
0.0
 40
0.0
 40
0.1249999999999687
 40
0.1249999999999687
 40
0.2499999999999373
 40
0.2499999999999373
 40
0.3749999999999059
 40
0.3749999999999059
 40
0.4999999999998745
 40
0.4999999999998745
 40
0.7499999999999373
 40
0.7499999999999373
 40
1.0
 40
1.0
 40
1.0
 40
1.0
 10
332.9987520145094
 20
251.7896468306466
 30
0.0
 10
332.9965701954527
 20
251.7939834563171
 30
0.0
 10
332.9948328275547
 20
251.7984375253773
 30
0.0
 10
332.9922015777572
 20
251.80756739709
 30
0.0
 10
332.9913061848446
 20
251.8122908666363
 30
0.0
 10
332.9904090876153
 20
251.8216828241749
 30
0.0
 10
332.990395867506
 20
251.8263509528702
 30
0.0
 10
332.9912002595959
 20
251.8356322150543
 30
0.0
 10
332.9920313389614
 20
251.8402881990776
 30
0.0
 10
332.9957201367288
 20
251.8538286516285
 30
0.0
 10
332.9997139182604
 20
251.8622656202964
 30
0.0
 10
333.0105118226652
 20
251.877681835583
 30
0.0
 10
333.0170771451587
 20
251.8843526253832
 30
0.0
 10
333.0247955583075
 20
251.8899946386423
 30
0.0
  0
SPLINE
  5
164
330
1F
100
AcDbEntity
  8
1
100
AcDbSpline
210
0.0
220
0.0
230
1.0
 70
     8
 71
     3
 72
     8
 73
     4
 74
     0
 42
0.000000001
 43
0.0000000001
 40
0.0
 40
0.0
 40
0.0
 40
0.0
 40
1.0
 40
1.0
 40
1.0
 40
1.0
 10
333.0522113134313
 20
251.7090717635616
 30
0.0
 10
333.0312151226043
 20
251.7337529575157
 30
0.0
 10
333.0133675723632
 20
251.7605966657468
 30
0.0
 10
332.9987520145094
 20
251.7896468306466
 30
0.0
  0
SPLINE
  5
165
330
1F
100
AcDbEntity
  8
1
100
AcDbSpline
210
0.0
220
0.0
230
1.0
 70
     8
 71
     3
 72
    20
 73
    16
 74
     0
 42
0.000000001
 43
0.0000000001
 40
0.0
 40
0.0
 40
0.0
 40
0.0
 40
0.1250000000000739
 40
0.1250000000000739
 40
0.250000000000148
 40
0.3125000000001852
 40
0.3125000000001852
 40
0.3750000000002224
 40
0.3750000000002224
 40
0.5000000000001971
 40
0.6250000000001719
 40
0.6250000000001719
 40
0.7500000000001466
 40
0.7500000000001466
 40
1.0
 40
1.0
 40
1.0
 40
1.0
 10
334.0175797773871
 20
253.2881856304717
 30
0.0
 10
334.0026044791017
 20
253.2815924159006
 30
0.0
 10
333.9871722879794
 20
253.2759218970271
 30
0.0
 10
333.9558170337545
 20
253.2665960268252
 30
0.0
 10
333.9318512560481
 20
253.261073224818
 30
0.0
 10
333.9071721970365
 20
253.2578135520498
 30
0.0
 10
333.8905537653399
 20
253.2561601421652
 30
0.0
 10
333.8821292643555
 20
253.2555924823426
 30
0.0
 10
333.8569038694142
 20
253.2547055530096
 30
0.0
 10
333.8233627055942
 20
253.2556697128052
 30
0.0
 10
333.7899968073824
 20
253.2608144262842
 30
0.0
 10
333.7567224369152
 20
253.2680779668493
 30
0.0
 10
333.7400799809173
 20
253.2728039310548
 30
0.0
 10
333.6917718406741
 20
253.2897204628249
 30
0.0
 10
333.6612072437497
 20
253.3046863352266
 30
0.0
 10
333.6322339089779
 20
253.3232268693525
 30
0.0
  0
SPLINE
  5
166
330
1F
100
AcDbEntity
  8
1
100
AcDbSpline
210
0.0
220
0.0
230
1.0
 70
     8
 71
     3
 72
    14
 73
    10
 74
     0
 42
0.000000001
 43
0.0000000001
 40
0.0
 40
0.0
 40
0.0
 40
0.0
 40
0.25
 40
0.25
 40
0.5
 40
0.5
 40
0.75
 40
0.75
 40
1.0
 40
1.0
 40
1.0
 40
1.0
 10
334.0625248651541
 20
253.3394514692711
 30
0.0
 10
334.0607410222427
 20
253.3337618113113
 30
0.0
 10
334.0583889088376
 20
253.3282833965888
 30
0.0
 10
334.0526792214836
 20
253.3180207699311
 30
0.0
 10
334.0493436019341
 20
253.3132547616578
 30
0.0
 10
334.0416946308108
 20
253.3044625852877
 30
0.0
 10
334.0373541539454
 20
253.3004351690734
 30
0.0
 10
334.0280265812713
 20
253.2935173970103
 30
0.0
 10
334.0230010653403
 20
253.2905724753981
 30
0.0
 10
334.0175797773863
 20
253.2881856304718
 30
0.0
  0
SPLINE
  5
167
330
1F
100
AcDbEntity
  8
1
100
AcDbSpline
210
0.0
220
0.0
230
1.0
 70
     8
 71
     3
 72
    20
 73
    16
 74
     0
 42
0.000000001
 43
0.0000000001
 40
0.0
 40
0.0
 40
0.0
 40
0.0
 40
0.2499999999999764
 40
0.2499999999999764
 40
0.3749999999999802
 40
0.3749999999999802
 40
0.4999999999999842
 40
0.4999999999999842
 40
0.6249999999999883
 40
0.6249999999999883
 40
0.7499999999999921
 40
0.7499999999999921
 40
0.874999999999996
 40
0.874999999999996
 40
1.0
 40
1.0
 40
1.0
 40
1.0
 10
334.0625248651541
 20
253.3394514692711
 30
0.0
 10
334.0653911398856
 20
253.3485935987361
 30
0.0
 10
334.0695981477876
 20
253.3569587517391
 30
0.0
 10
334.0779138201018
 20
253.3683403129156
 30
0.0
 10
334.081025266585
 20
253.3719188727947
 30
0.0
 10
334.0877265376045
 20
253.3784067854687
 30
0.0
 10
334.091340025363
 20
253.3813515295287
 30
0.0
 10
334.0991154148717
 20
253.3866140063163
 30
0.0
 10
334.1032585790147
 20
253.3889091426338
 30
0.0
 10
334.1118159305753
 20
253.3926869806595
 30
0.0
 10
334.1162620427307
 20
253.394193050984
 30
0.0
 10
334.1255071128404
 20
253.3963935755153
 30
0.0
 10
334.1302316775572
 20
253.3970644366131
 30
0.0
 10
334.1397014878193
 20
253.3975276443203
 30
0.0
 10
334.1444745478594
 20
253.3973272664334
 30
0.0
 10
334.1492876569101
 20
253.3966668258967
 30
0.0
  0
SPLINE
  5
168
330
1F
100
AcDbEntity
  8
1
100
AcDbSpline
210
0.0
220
0.0
230
1.0
 70
     8
 71
     3
 72
    10
 73
     6
 74
     0
 42
0.000000001
 43
0.0000000001
 40
0.0
 40
0.0
 40
0.0
 40
0.0
 40
0.7221080455398523
 40
0.7221080455398523
 40
1.0
 40
1.0
 40
1.0
 40
1.0
 10
333.8489655805056
 20
251.6245299766763
 30
0.0
 10
333.8519391636365
 20
251.6223045169855
 30
0.0
 10
333.8547160788917
 20
251.6198809876677
 30
0.0
 10
333.8582407513863
 20
251.61631390084
 30
0.0
 10
333.859187622546
 20
251.6152997205288
 30
0.0
 10
333.8601021416518
 20
251.6142627531978
 30
0.0
  0
SPLINE
  5
169
330
1F
100
AcDbEntity
  8
1
100
AcDbSpline
210
0.0
220
0.0
230
1.0
 70
     8
 71
     3
 72
    47
 73
    43
 74
     0
 42
0.000000001
 43
0.0000000001
 40
0.0
 40
0.0
 40
0.0
 40
0.0
 40
0.1250000000000131
 40
0.1250000000000131
 40
0.2500000000000262
 40
0.2500000000000262
 40
0.2812500000000258
 40
0.2812500000000258
 40
0.3125000000000254
 40
0.3125000000000254
 40
0.3750000000000106
 40
0.3750000000000106
 40
0.4374999999999958
 40
0.4374999999999958
 40
0.4687499999999886
 40
0.4687499999999886
 40
0.4999999999999812
 40
0.4999999999999812
 40
0.5624999999999794
 40
0.5624999999999794
 40
0.6249999999999777
 40
0.6249999999999777
 40
0.6562499999999821
 40
0.6562499999999821
 40
0.6874999999999866
 40
0.6874999999999866
 40
0.7499999999999862
 40
0.7499999999999862
 40
0.8124999999999856
 40
0.8124999999999856
 40
0.8281249999999873
 40
0.8281249999999873
 40
0.8437499999999891
 40
0.8749999999999921
 40
0.8749999999999921
 40
0.9374999999999966
 40
0.9374999999999966
 40
0.9687499999999978
 40
0.9687499999999978
 40
0.9843749999999987
 40
0.9843749999999987
 40
1.0
 40
1.0
 40
1.0
 40
1.0
 10
319.5406101691016
 20
240.6723379425998
 30
0.0
 10
319.4236837737343
 20
240.6823303719218
 30
0.0
 10
319.3067780168931
 20
240.685172392707
 30
0.0
 10
319.0730106511615
 20
240.675737372342
 30
0.0
 10
318.9561490064178
 20
240.6634834599594
 30
0.0
 10
318.8101022223233
 20
240.6373438111841
 30
0.0
 10
318.7808620659529
 20
240.6315605696425
 30
0.0
 10
318.7228990794997
 20
240.6189674578537
 30
0.0
 10
318.6941164452651
 20
240.6121482517527
 30
0.0
 10
318.6083756718481
 20
240.5900972392201
 30
0.0
 10
318.5520230966897
 20
240.5732759864428
 30
0.0
 10
318.4410240754896
 20
240.5351709083345
 30
0.0
 10
318.3863770216606
 20
240.513888611441
 30
0.0
 10
318.3057959910253
 20
240.4783456022057
 30
0.0
 10
318.2791677384372
 20
240.4658934133807
 30
0.0
 10
318.2264011676215
 20
240.4397158444657
 30
0.0
 10
318.2002058431052
 20
240.4259584090023
 30
0.0
 10
318.1228124559383
 20
240.382887239581
 30
0.0
 10
318.0730938482504
 20
240.3519565299654
 30
0.0
 10
317.9776245942287
 20
240.285442846814
 30
0.0
 10
317.9318721776807
 20
240.2498618466885
 30
0.0
 10
317.8664988935316
 20
240.1927020315077
 30
0.0
 10
317.8452517619256
 20
240.1730157825994
 30
0.0
 10
317.8039132588049
 20
240.132303457533
 30
0.0
 10
317.7837585531597
 20
240.1112017464787
 30
0.0
 10
317.7258646536598
 20
240.0465663619803
 30
0.0
 10
317.6905409619471
 20
240.0015993190596
 30
0.0
 10
317.6267318391528
 20
239.9077896732379
 30
0.0
 10
317.5982435413215
 20
239.858948603208
 30
0.0
 10
317.5672754653937
 20
239.7952944288219
 30
0.0
 10
317.5613033834649
 20
239.7824064334229
 30
0.0
 10
317.5498970200967
 20
239.7564979070882
 30
0.0
 10
317.5336159246115
 20
239.717494527381
 30
0.0
 10
317.5197942083178
 20
239.6780769249919
 30
0.0
 10
317.4953908526611
 20
239.5987034233266
 30
0.0
 10
317.4834321080922
 20
239.5450719825032
 30
0.0
 10
317.471987206084
 20
239.4635703269588
 30
0.0
 10
317.469256923666
 20
239.4362268675244
 30
0.0
 10
317.4668150667991
 20
239.3949452163225
 30
0.0
 10
317.4662778971677
 20
239.381128153526
 30
0.0
 10
317.4657609465204
 20
239.3536390200917
 30
0.0
 10
317.4657788870347
 20
239.3399386582969
 30
0.0
 10
317.4660665654228
 20
239.326281565468
 30
0.0
  0
SPLINE
  5
16A
330
1F
100
AcDbEntity
  8
1
100
AcDbSpline
210
0.0
220
0.0
230
1.0
 70
     8
 71
     3
 72
     8
 73
     4
 74
     0
 42
0.000000001
 43
0.0000000001
 40
0.0
 40
0.0
 40
0.0
 40
0.0
 40
1.0
 40
1.0
 40
1.0
 40
1.0
 10
326.4788031107993
 20
254.5891545785846
 30
0.0
 10
326.5224309698598
 20
254.5893544279621
 30
0.0
 10
326.5660629542778
 20
254.589828060536
 30
0.0
 10
326.6096990665127
 20
254.5905756395339
 30
0.0
  0
SPLINE
  5
16B
330
1F
100
AcDbEntity
  8
1
100
AcDbSpline
210
0.0
220
0.0
230
1.0
 70
     8
 71
     3
 72
    10
 73
     6
 74
     0
 42
0.000000001
 43
0.0000000001
 40
0.0
 40
0.0
 40
0.0
 40
0.0
 40
0.5
 40
0.5
 40
1.0
 40
1.0
 40
1.0
 40
1.0
 10
326.6096990665127
 20
251.120443041356
 30
0.0
 10
327.0047990814708
 20
251.0674481849851
 30
0.0
 10
327.4015283473177
 20
251.0276618922055
 30
0.0
 10
328.1981260878128
 20
250.9745329194249
 30
0.0
 10
328.5979948954117
 20
250.9611902070269
 30
0.0
 10
328.9994281589669
 20
250.9611902070269
 30
0.0
  0
SPLINE
  5
16C
330
1F
100
AcDbEntity
  8
1
100
AcDbSpline
210
0.0
220
0.0
230
1.0
 70
     8
 71
     3
 72
     8
 73
     4
 74
     0
 42
0.000000001
 43
0.0000000001
 40
0.0
 40
0.0
 40
0.0
 40
0.0
 40
1.0
 40
1.0
 40
1.0
 40
1.0
 10
326.4788031107991
 20
251.138738541561
 30
0.0
 10
326.5224189134603
 20
251.1323962097103
 30
0.0
 10
326.5660509224303
 20
251.1262975770155
 30
0.0
 10
326.6096990665128
 20
251.1204430413564
 30
0.0
  0
SPLINE
  5
16D
330
1F
100
AcDbEntity
  8
1
100
AcDbSpline
210
0.0
220
0.0
230
1.0
 70
     8
 71
     3
 72
     8
 73
     4
 74
     0
 42
0.000000001
 43
0.0000000001
 40
0.0
 40
0.0
 40
0.0
 40
0.0
 40
1.0
 40
1.0
 40
1.0
 40
1.0
 10
332.1477819012657
 20
250.9723271091446
 30
0.0
 10
331.9455910352916
 20
250.9649112977269
 30
0.0
 10
331.7424776576682
 20
250.9611902070269
 30
0.0
 10
331.5384351842399
 20
250.9611902070269
 30
0.0
  0
SPLINE
  5
16E
330
1F
100
AcDbEntity
  8
1
100
AcDbSpline
210
0.0
220
0.0
230
1.0
 70
     8
 71
     3
 72
    12
 73
     8
 74
     0
 42
0.000000001
 43
0.0000000001
 40
0.0
 40
0.0
 40
0.0
 40
0.0
 40
0.5
 40
0.5
 40
0.75
 40
0.75
 40
1.0
 40
1.0
 40
1.0
 40
1.0
 10
335.889568387057
 20
251.0223484136102
 30
0.0
 10
335.9939249360006
 20
250.8261667285687
 30
0.0
 10
336.0964624080343
 20
250.6299178226259
 30
0.0
 10
336.2453833965815
 20
250.3353639387118
 30
0.0
 10
336.2941958622296
 20
250.2371487184355
 30
0.0
 10
336.389546996047
 20
250.0406342535543
 30
0.0
 10
336.4360896133452
 20
249.9423351548828
 30
0.0
 10
336.4810446584916
 20
249.8439773901754
 30
0.0
  0
SPLINE
  5
16F
330
1F
100
AcDbEntity
  8
1
100
AcDbSpline
210
0.0
220
0.0
230
1.0
 70
     8
 71
     3
 72
     8
 73
     4
 74
     0
 42
0.000000001
 43
0.0000000001
 40
0.0
 40
0.0
 40
0.0
 40
0.0
 40
1.0
 40
1.0
 40
1.0
 40
1.0
 10
332.1477819012657
 20
250.9723271091446
 30
0.0
 10
333.2840075760693
 20
251.0140007786829
 30
0.0
 10
334.4203174964777
 20
251.0555056451329
 30
0.0
 10
335.5567010818569
 20
251.0968629089321
 30
0.0
  0
SPLINE
  5
170
330
1F
100
AcDbEntity
  8
1
100
AcDbSpline
210
0.0
220
0.0
230
1.0
 70
     8
 71
     3
 72
    29
 73
    25
 74
     0
 42
0.000000001
 43
0.0000000001
 40
0.0
 40
0.0
 40
0.0
 40
0.0
 40
0.1249999999999823
 40
0.1249999999999823
 40
0.1874999999999728
 40
0.1874999999999728
 40
0.2499999999999634
 40
0.2499999999999634
 40
0.3749999999999537
 40
0.3749999999999537
 40
0.4374999999999489
 40
0.4374999999999489
 40
0.499999999999944
 40
0.5624999999999392
 40
0.5624999999999392
 40
0.6249999999999343
 40
0.6249999999999343
 40
0.7499999999999291
 40
0.7499999999999291
 40
0.8124999999999246
 40
0.8124999999999246
 40
0.8749999999999204
 40
0.8749999999999204
 40
1.0
 40
1.0
 40
1.0
 40
1.0
 10
335.889568387057
 20
251.0223484136102
 30
0.0
 10
335.8867029051827
 20
251.0277352826496
 30
0.0
 10
335.8822171780472
 20
251.0329986126212
 30
0.0
 10
335.8730551176016
 20
251.0407080624696
 30
0.0
 10
335.869593085364
 20
251.0432467693306
 30
0.0
 10
335.861820867302
 20
251.0482595137673
 30
0.0
 10
335.8575269244124
 20
251.0507207522193
 30
0.0
 10
335.8435620971109
 20
251.0578871322619
 30
0.0
 10
335.8327681593336
 20
251.0624101627211
 30
0.0
 10
335.8142268384339
 20
251.0687915471777
 30
0.0
 10
335.8076172775453
 20
251.0708600409081
 30
0.0
 10
335.7937987514147
 20
251.0747862890189
 30
0.0
 10
335.7793632754304
 20
251.0785121111715
 30
0.0
 10
335.7636853980363
 20
251.0818343194944
 30
0.0
 10
335.7473644982948
 20
251.0849476317955
 30
0.0
 10
335.7388376205706
 20
251.0864064411951
 30
0.0
 10
335.7125685664505
 20
251.0903987448933
 30
0.0
 10
335.6942988046739
 20
251.0925357531285
 30
0.0
 10
335.6657397398973
 20
251.0949414253188
 30
0.0
 10
335.6559916967478
 20
251.0956108585938
 30
0.0
 10
335.6362395852872
 20
251.0966587509158
 30
0.0
 10
335.6263435723673
 20
251.0970325671213
 30
0.0
 10
335.5965972324574
 20
251.0977154394953
 30
0.0
 10
335.576689193463
 20
251.0975903513338
 30
0.0
 10
335.5567010818569
 20
251.0968629089321
 30
0.0
  0
SPLINE
  5
171
330
1F
100
AcDbEntity
  8
1
100
AcDbSpline
210
0.0
220
0.0
230
1.0
 70
     8
 71
     3
 72
    60
 73
    56
 74
     0
 42
0.000000001
 43
0.0000000001
 40
0.0
 40
0.0
 40
0.0
 40
0.0
 40
0.0071383998616865
 40
0.0071383998616865
 40
0.0242567033123471
 40
0.0242567033123471
 40
0.0328158550376772
 40
0.0328158550376772
 40
0.0413750067630072
 40
0.1098482205656482
 40
0.1098482205656482
 40
0.1783214343682892
 40
0.1783214343682892
 40
0.2125580412696098
 40
0.2125580412696098
 40
0.2296763447202705
 40
0.2296763447202705
 40
0.2382354964456009
 40
0.2382354964456009
 40
0.2467946481709314
 40
0.315267861973572
 40
0.315267861973572
 40
0.3837410757762127
 40
0.3837410757762127
 40
0.4179776826775323
 40
0.4179776826775323
 40
0.4265368344028623
 40
0.4265368344028623
 40
0.4350959861281923
 40
0.4350959861281923
 40
0.4522142895788523
 40
0.4522142895788523
 40
0.5206875033814982
 40
0.5206875033814982
 40
0.5891607171841442
 40
0.5891607171841442
 40
0.6233973240854671
 40
0.6233973240854671
 40
0.6405156275361285
 40
0.6405156275361285
 40
0.6576339309867898
 40
0.6576339309867898
 40
0.7261071447894331
 40
0.7261071447894331
 40
0.7945803585920764
 40
0.7945803585920764
 40
0.8288169654933991
 40
0.8288169654933991
 40
0.8459352689440592
 40
0.8459352689440592
 40
0.8630535723947193
 40
0.8630535723947193
 40
0.9315267861973598
 40
0.9315267861973598
 40
1.0
 40
1.0
 40
1.0
 40
1.0
 10
317.5529798784026
 20
254.8992253368079
 30
0.0
 10
317.5567432328608
 20
254.8991755957484
 30
0.0
 10
317.5606326684685
 20
254.8989786178413
 30
0.0
 10
317.5742832449012
 20
254.8978081992764
 30
0.0
 10
317.5846519410773
 20
254.896133940807
 30
0.0
 10
317.601349125577
 20
254.8923429369214
 30
0.0
 10
317.6071030260954
 20
254.8908662674728
 30
0.0
 10
317.6189600954639
 20
254.8874979910133
 30
0.0
 10
317.6739304211281
 20
254.8704630420487
 30
0.0
 10
317.7434168895336
 20
254.836763319947
 30
0.0
 10
317.8916094062504
 20
254.7525612702793
 30
0.0
 10
317.9780355043333
 20
254.6983070539863
 30
0.0
 10
318.1282042283266
 20
254.5999572133063
 30
0.0
 10
318.1816898231287
 20
254.564343725252
 30
0.0
 10
318.2673904353056
 20
254.5068229323306
 30
0.0
 10
318.2968698779882
 20
254.4869658513795
 30
0.0
 10
318.3425039449392
 20
254.4561727830086
 30
0.0
 10
318.3579603728276
 20
254.4457342827781
 30
0.0
 10
318.3892462439063
 20
254.4245966097065
 30
0.0
 10
318.5318116932192
 20
254.3282356825684
 30
0.0
 10
318.690399374845
 20
254.2210549495161
 30
0.0
 10
318.9985703826061
 20
254.01709453091
 30
0.0
 10
319.1657765357742
 20
253.9083982411058
 30
0.0
 10
319.4372441195753
 20
253.7378346975574
 30
0.0
 10
319.5311791751706
 20
253.6797255786201
 30
0.0
 10
319.6530280306799
 20
253.6057811886139
 30
0.0
 10
319.6776193583147
 20
253.5909269073148
 30
0.0
 10
319.7272484150995
 20
253.5610940402359
 30
0.0
 10
319.7523040975644
 20
253.546104787988
 30
0.0
 10
319.8280071831717
 20
253.5010427366348
 30
0.0
 10
319.8791421788819
 20
253.4709040617624
 30
0.0
 10
320.1381226930105
 20
253.319866484396
 30
0.0
 10
320.3558742956798
 20
253.1979549510484
 30
0.0
 10
320.8120268603028
 20
252.955259145098
 30
0.0
 10
321.0504285756406
 20
252.8344683870565
 30
0.0
 10
321.4233444902514
 20
252.6562905278125
 30
0.0
 10
321.5502039066616
 20
252.5973968280096
 30
0.0
 10
321.7443196296567
 20
252.5100588477549
 30
0.0
 10
321.8096829101491
 20
252.481105642215
 30
0.0
 10
321.9410781874517
 20
252.4238345875922
 30
0.0
 10
322.0071835187208
 20
252.3954832838211
 30
0.0
 10
322.339717422739
 20
252.2552157857843
 30
0.0
 10
322.6121576619225
 20
252.1477763705214
 30
0.0
 10
323.1692327649438
 20
251.9440085798653
 30
0.0
 10
323.453868515472
 20
251.8476761562413
 30
0.0
 10
323.8896758107514
 20
251.7125447058787
 30
0.0
 10
324.0364223073004
 20
251.6690611006919
 30
0.0
 10
324.2587372984003
 20
251.6063001317778
 30
0.0
 10
324.3332082788372
 20
251.5857905237696
 30
0.0
 10
324.4828800464835
 20
251.5456132375381
 30
0.0
 10
324.5580593524794
 20
251.5259522200475
 30
0.0
 10
324.9346975478464
 20
251.4300660533568
 30
0.0
 10
325.2392108765138
 20
251.3608703613084
 30
0.0
 10
325.8544061228432
 20
251.2380164480277
 30
0.0
 10
326.1650884060292
 20
251.1843569331231
 30
0.0
 10
326.4788031107991
 20
251.138738541561
 30
0.0
  0
SPLINE
  5
172
330
1F
100
AcDbEntity
  8
1
100
AcDbSpline
210
0.0
220
0.0
230
1.0
 70
     8
 71
     3
 72
    24
 73
    20
 74
     0
 42
0.000000001
 43
0.0000000001
 40
0.0
 40
0.0
 40
0.0
 40
0.0
 40
0.1153103581509636
 40
0.1153103581509636
 40
0.1729655372264589
 40
0.1729655372264589
 40
0.2306207163019543
 40
0.2306207163019543
 40
0.4612414326039626
 40
0.4612414326039626
 40
0.6918621489059708
 40
0.6918621489059708
 40
0.7495173279814732
 40
0.7495173279814732
 40
0.8071725070569753
 40
0.8071725070569753
 40
0.9224828652079796
 40
0.9224828652079796
 40
1.0
 40
1.0
 40
1.0
 40
1.0
 10
319.540610169101
 20
254.5391270186515
 30
0.0
 10
319.4822417914497
 20
254.538554426834
 30
0.0
 10
319.4236034920598
 20
254.5384283671637
 30
0.0
 10
319.3352219314921
 20
254.538949204888
 30
0.0
 10
319.3056906320502
 20
254.5392412139877
 30
0.0
 10
319.246481996346
 20
254.5400697840434
 30
0.0
 10
319.2167500837864
 20
254.5406076568991
 30
0.0
 10
319.0684382838392
 20
254.5439128157952
 30
0.0
 10
318.9513020542399
 20
254.5485045479148
 30
0.0
 10
318.7202528676285
 20
254.5616693286685
 30
0.0
 10
318.6063332752985
 20
254.5702387529534
 30
0.0
 10
318.4662922807223
 20
254.5836019027498
 30
0.0
 10
318.4384138638159
 20
254.586407622942
 30
0.0
 10
318.3834346594725
 20
254.5922330080304
 30
0.0
 10
318.3562681603581
 20
254.5952587466896
 30
0.0
 10
318.2757619023736
 20
254.6046684336586
 30
0.0
 10
318.2234121569469
 20
254.6113845278373
 30
0.0
 10
318.1382435359255
 20
254.6233327115723
 30
0.0
 10
318.1046461641833
 20
254.6283296893318
 30
0.0
 10
318.0717377639954
 20
254.6335179345492
 30
0.0
  0
SPLINE
  5
17D
330
1F
100
AcDbEntity
  8
1
100
AcDbSpline
210
0.0
220
0.0
230
1.0
 70
     8
 71
     3
 72
     8
 73
     4
 74
     0
 42
0.000000001
 43
0.0000000001
 40
0.0
 40
0.0
 40
0.0
 40
0.0
 40
1.0
 40
1.0
 40
1.0
 40
1.0
 10
337.1502942095997
 20
240.3901925646207
 30
0.0
 10
337.1502942095997
 20
240.263109611252
 30
0.0
 10
337.1403477752513
 20
240.1349493504169
 30
0.0
 10
337.1205135616457
 20
240.0062032792456
 30
0.0
  0
SPLINE
  5
17E
330
1F
100
AcDbEntity
  8
1
100
AcDbSpline
210
0.0
220
0.0
230
1.0
 70
     8
 71
     3
 72
    10
 73
     6
 74
     0
 42
0.000000001
 43
0.0000000001
 40
0.0
 40
0.0
 40
0.0
 40
0.0
 40
0.5
 40
0.5
 40
1.0
 40
1.0
 40
1.0
 40
1.0
 10
337.1027485678151
 20
240.7906308110063
 30
0.0
 10
337.1185748291438
 20
240.7252045578601
 30
0.0
 10
337.1304562251996
 20
240.6590842055981
 30
0.0
 10
337.1463238274706
 20
240.5254657872739
 30
0.0
 10
337.1502942095997
 20
240.4580627723077
 30
0.0
 10
337.1502942095997
 20
240.3901925646207
 30
0.0
  0
SPLINE
  5
17F
330
1F
100
AcDbEntity
  8
1
100
AcDbSpline
210
0.0
220
0.0
230
1.0
 70
     8
 71
     3
 72
    10
 73
     6
 74
     0
 42
0.000000001
 43
0.0000000001
 40
0.0
 40
0.0
 40
0.0
 40
0.0
 40
0.4438253659081154
 40
0.8826086502556037
 40
1.0
 40
1.0
 40
1.0
 40
1.0
 10
337.1027485679471
 20
240.7906308122541
 30
0.0
 10
337.0955569687796
 20
240.7228992413454
 30
0.0
 10
337.0812554706638
 20
240.5882055645721
 30
0.0
 10
337.0647970836421
 20
240.4356031400613
 30
0.0
 10
337.0555748870193
 20
240.3507315844582
 30
0.0
 10
337.0536252079204
 20
240.3328179075618
 30
0.0
  0
SPLINE
  5
180
330
1F
100
AcDbEntity
  8
1
100
AcDbSpline
210
0.0
220
0.0
230
1.0
 70
     8
 71
     3
 72
     8
 73
     4
 74
     0
 42
0.000000001
 43
0.0000000001
 40
0.0
 40
0.0
 40
0.0
 40
0.0
 40
1.0
 40
1.0
 40
1.0
 40
1.0
 10
337.1016741405857
 20
240.7948936139406
 30
0.0
 10
337.1020621959655
 20
240.7934704773555
 30
0.0
 10
337.1024281789537
 20
240.7920486408135
 30
0.0
 10
337.1027719390328
 20
240.7906284612598
 30
0.0
  0
SPLINE
  5
181
330
1F
100
AcDbEntity
  8
1
100
AcDbSpline
210
0.0
220
0.0
230
1.0
 70
     8
 71
     3
 72
    17
 73
    13
 74
     0
 42
0.000000001
 43
0.0000000001
 40
0.0
 40
0.0
 40
0.0
 40
0.0
 40
0.0542860662971603
 40
0.0542860662971603
 40
0.2434288530377622
 40
0.432571639778364
 40
0.432571639778364
 40
0.5271430331486285
 40
0.5271430331486285
 40
0.621714426518893
 40
0.621714426518893
 40
1.0
 40
1.0
 40
1.0
 40
1.0
 10
336.9740416398491
 20
240.9195638927006
 30
0.0
 10
336.9777372157997
 20
240.9180424407898
 30
0.0
 10
336.9813674853841
 20
240.9164738581077
 30
0.0
 10
336.9973082781838
 20
240.9092443849332
 30
0.0
 10
337.0203506480443
 20
240.8969439222583
 30
0.0
 10
337.0399966937857
 20
240.8824937964919
 30
0.0
 10
337.0534205674885
 20
240.870847345233
 30
0.0
 10
337.0576791776684
 20
240.8668235201481
 30
0.0
 10
337.0656278615575
 20
240.8586291059346
 30
0.0
 10
337.0693357067448
 20
240.8544442511842
 30
0.0
 10
337.0865716086582
 20
240.8330940696109
 30
0.0
 10
337.0962553526888
 20
240.8146696215494
 30
0.0
 10
337.1016741405857
 20
240.7948936139406
 30
0.0
  0
SPLINE
  5
182
330
1F
100
AcDbEntity
  8
1
100
AcDbSpline
210
0.0
220
0.0
230
1.0
 70
     8
 71
     3
 72
     8
 73
     4
 74
     0
 42
0.000000001
 43
0.0000000001
 40
0.0
 40
0.0
 40
0.0
 40
0.0
 40
1.0
 40
1.0
 40
1.0
 40
1.0
 10
336.5015354727497
 20
238.1270067142543
 30
0.0
 10
336.5039662707803
 20
238.1449211928821
 30
0.0
 10
336.5063970688109
 20
238.1628356715098
 30
0.0
 10
336.5088256614669
 20
238.180750521716
 30
0.0
  0
SPLINE
  5
183
330
1F
100
AcDbEntity
  8
1
100
AcDbSpline
210
0.0
220
0.0
230
1.0
 70
     8
 71
     3
 72
    12
 73
     8
 74
     0
 42
0.000000001
 43
0.0000000001
 40
0.0
 40
0.0
 40
0.0
 40
0.0
 40
0.0267933238986862
 40
0.0267933238986862
 40
0.5133966619493431
 40
0.5133966619493431
 40
1.0
 40
1.0
 40
1.0
 40
1.0
 10
336.7735922080129
 20
238.5489399594619
 30
0.0
 10
336.7722184108568
 20
238.5438284471477
 30
0.0
 10
336.7708432849743
 20
238.5387117889734
 30
0.0
 10
336.7444696454425
 20
238.4405753298201
 30
0.0
 10
336.7190586795873
 20
238.3459581938081
 30
0.0
 10
336.6677277353731
 20
238.1547526303398
 30
0.0
 10
336.6418006792164
 20
238.0581368892771
 30
0.0
 10
336.6157181288373
 20
237.9609143720488
 30
0.0
  0
SPLINE
  5
184
330
1F
100
AcDbEntity
  8
1
100
AcDbSpline
210
0.0
220
0.0
230
1.0
 70
     8
 71
     3
 72
    12
 73
     8
 74
     0
 42
0.000000001
 43
0.0000000001
 40
0.0
 40
0.0
 40
0.0
 40
0.0
 40
0.499999999999953
 40
0.499999999999953
 40
0.7499999999999765
 40
0.7499999999999765
 40
1.0
 40
1.0
 40
1.0
 40
1.0
 10
336.5497728443847
 20
237.9810221729665
 30
0.0
 10
336.544766364878
 20
238.0061036611853
 30
0.0
 10
336.5389232539335
 20
238.030979397959
 30
0.0
 10
336.5277041744405
 20
238.0676893931973
 30
0.0
 10
336.5235500268751
 20
238.0798241321621
 30
0.0
 10
336.5138777718059
 20
238.1037581735831
 30
0.0
 10
336.5084054091678
 20
238.1155687260018
 30
0.0
 10
336.5015451147278
 20
238.1270379465496
 30
0.0
  0
SPLINE
  5
185
330
1F
100
AcDbEntity
  8
1
100
AcDbSpline
210
0.0
220
0.0
230
1.0
 70
     8
 71
     2
 72
     7
 73
     4
 74
     0
 42
0.000000001
 43
0.0000000001
 40
0.0
 40
0.0
 40
0.0
 40
0.376016849189758
 40
1.0
 40
1.0
 40
1.0
 10
336.6157136463814
 20
237.9609376314956
 30
0.0
 10
336.6040920688491
 20
237.965602455144
 30
0.0
 10
336.5717102593022
 20
237.9762621931715
 30
0.0
 10
336.5497649053085
 20
237.9810456405608
 30
0.0
  0
SPLINE
  5
186
330
1F
100
AcDbEntity
  8
1
100
AcDbSpline
210
0.0
220
0.0
230
1.0
 70
     8
 71
     3
 72
     8
 73
     4
 74
     0
 42
0.000000001
 43
0.0000000001
 40
0.0
 40
0.0
 40
0.0
 40
0.0
 40
1.0
 40
1.0
 40
1.0
 40
1.0
 10
336.4933396164272
 20
237.9550865354644
 30
0.0
 10
336.4931418266244
 20
237.969402026427
 30
0.0
 10
336.4921145710013
 20
237.9836610424752
 30
0.0
 10
336.4902601445805
 20
237.9978637398677
 30
0.0
  0
SPLINE
  5
187
330
1F
100
AcDbEntity
  8
1
100
AcDbSpline
210
0.0
220
0.0
230
1.0
 70
     8
 71
     3
 72
     8
 73
     4
 74
     0
 42
0.000000001
 43
0.0000000001
 40
0.0
 40
0.0
 40
0.0
 40
0.0
 40
1.0
 40
1.0
 40
1.0
 40
1.0
 10
336.2670889524024
 20
237.9073390420973
 30
0.0
 10
336.2821729131837
 20
237.8781630752914
 30
0.0
 10
336.2973134412005
 20
237.8490109562892
 30
0.0
 10
336.3125083621854
 20
237.819881768456
 30
0.0
  0
SPLINE
  5
188
330
1F
100
AcDbEntity
  8
1
100
AcDbSpline
210
0.0
220
0.0
230
1.0
 70
     8
 71
     3
 72
    20
 73
    16
 74
     0
 42
0.000000001
 43
0.0000000001
 40
0.0
 40
0.0
 40
0.0
 40
0.0
 40
0.1249999999999996
 40
0.1249999999999996
 40
0.2499999999999991
 40
0.2499999999999991
 40
0.3749999999999987
 40
0.3749999999999987
 40
0.4374999999999986
 40
0.4374999999999986
 40
0.4999999999999986
 40
0.4999999999999986
 40
0.7499999999999993
 40
0.7499999999999993
 40
1.0
 40
1.0
 40
1.0
 40
1.0
 10
335.5567010818569
 20
247.5106793004698
 30
0.0
 10
335.5689274655339
 20
247.4748046792793
 30
0.0
 10
335.5786859788781
 20
247.438148121072
 30
0.0
 10
335.5947319993107
 20
247.3639476400724
 30
0.0
 10
335.6009910453142
 20
247.3263904975532
 30
0.0
 10
335.6106033621121
 20
247.2506515448422
 30
0.0
 10
335.6139481327689
 20
247.2124661823403
 30
0.0
 10
335.6169807554414
 20
247.1548085166726
 30
0.0
 10
335.617658115723
 20
247.1355117251809
 30
0.0
 10
335.6183641429467
 20
247.0970445314458
 30
0.0
 10
335.6183948655628
 20
247.0778436556169
 30
0.0
 10
335.6170043623135
 20
246.9819944372093
 30
0.0
 10
335.610972136536
 20
246.9058331413935
 30
0.0
 10
335.5901286216462
 20
246.7539923505366
 30
0.0
 10
335.5752667937827
 20
246.6783111900845
 30
0.0
 10
335.5567010818569
 20
246.6023199613297
 30
0.0
  0
SPLINE
  5
189
330
1F
100
AcDbEntity
  8
1
100
AcDbSpline
210
0.0
220
0.0
230
1.0
 70
     8
 71
     3
 72
    16
 73
    12
 74
     0
 42
0.000000001
 43
0.0000000001
 40
0.0
 40
0.0
 40
0.0
 40
0.0
 40
0.0869649853203294
 40
0.0869649853203294
 40
0.2695719882562615
 40
0.2695719882562615
 40
0.6347859941281309
 40
0.6347859941281309
 40
0.8173929970640653
 40
0.8173929970640653
 40
1.0
 40
1.0
 40
1.0
 40
1.0
 10
336.463880315257
 20
238.1217548750285
 30
0.0
 10
336.4650269102577
 20
238.1175113260739
 30
0.0
 10
336.4661467617882
 20
238.1133030939459
 30
0.0
 10
336.4695170856407
 20
238.1004227987169
 30
0.0
 10
336.4716534467888
 20
238.0919467536184
 30
0.0
 10
336.4776202947811
 20
238.067248888581
 30
0.0
 10
336.4810088961059
 20
238.0517494370988
 30
0.0
 10
336.4851949657756
 20
238.0300270456215
 30
0.0
 10
336.4864409303604
 20
238.023033739691
 30
0.0
 10
336.4885891925024
 20
238.0098837744889
 30
0.0
 10
336.4894999834649
 20
238.003685668515
 30
0.0
 10
336.4902601445811
 20
237.9978637398678
 30
0.0
  0
SPLINE
  5
18A
330
1F
100
AcDbEntity
  8
1
100
AcDbSpline
210
0.0
220
0.0
230
1.0
 70
     8
 71
     3
 72
     8
 73
     4
 74
     0
 42
0.000000001
 43
0.0000000001
 40
0.0
 40
0.0
 40
0.0
 40
0.0
 40
1.0
 40
1.0
 40
1.0
 40
1.0
 10
332.1477819012657
 20
232.8390029783936
 30
0.0
 10
331.9455910352916
 20
232.8655630313692
 30
0.0
 10
331.7424776576682
 20
232.8788902804796
 30
0.0
 10
331.5384351842399
 20
232.8788902804796
 30
0.0
  0
SPLINE
  5
18B
330
1F
100
AcDbEntity
  8
1
100
AcDbSpline
210
0.0
220
0.0
230
1.0
 70
     8
 71
     3
 72
     8
 73
     4
 74
     0
 42
0.000000001
 43
0.0000000001
 40
0.0
 40
0.0
 40
0.0
 40
0.0
 40
1.0
 40
1.0
 40
1.0
 40
1.0
 10
335.5567010818569
 20
232.3929725639967
 30
0.0
 10
334.4203175076178
 20
232.5410954118953
 30
0.0
 10
333.2840075877168
 20
232.6897469065181
 30
0.0
 10
332.1477819012657
 20
232.8390029783935
 30
0.0
  0
SPLINE
  5
18C
330
1F
100
AcDbEntity
  8
1
100
AcDbSpline
210
0.0
220
0.0
230
1.0
 70
     8
 71
     3
 72
    29
 73
    25
 74
     0
 42
0.000000001
 43
0.0000000001
 40
0.0
 40
0.0
 40
0.0
 40
0.0
 40
0.0624999999999996
 40
0.0624999999999996
 40
0.1249999999999992
 40
0.1874999999999988
 40
0.1874999999999988
 40
0.2499999999999984
 40
0.2499999999999984
 40
0.3749999999999977
 40
0.3749999999999977
 40
0.4374999999999972
 40
0.4374999999999972
 40
0.4999999999999967
 40
0.4999999999999967
 40
0.6249999999999955
 40
0.6249999999999955
 40
0.7499999999999944
 40
0.7499999999999944
 40
0.8124999999999891
 40
0.8124999999999891
 40
0.874999999999984
 40
0.874999999999984
 40
1.0
 40
1.0
 40
1.0
 40
1.0
 10
335.5567010818569
 20
232.3929725639968
 30
0.0
 10
335.5666189414972
 20
232.3916798124573
 30
0.0
 10
335.5767225834153
 20
232.39090549383
 30
0.0
 10
335.5967433701776
 20
232.3904428568971
 30
0.0
 10
335.6166601263853
 20
232.3910443623195
 30
0.0
 10
335.6363734403333
 20
232.3937269056216
 30
0.0
 10
335.6559842739015
 20
232.3974577343338
 30
0.0
 10
335.6657961029993
 20
232.399867154663
 30
0.0
 10
335.6945259738532
 20
232.4085476557425
 30
0.0
 10
335.7127870583337
 20
232.4162327805121
 30
0.0
 10
335.7389070630594
 20
232.4304659115742
 30
0.0
 10
335.747442593504
 20
232.435695063902
 30
0.0
 10
335.7638520311978
 20
232.4469179888706
 30
0.0
 10
335.7717100226101
 20
232.452893021105
 30
0.0
 10
335.7942946731176
 20
232.4718554980242
 30
0.0
 10
335.8080594318178
 20
232.4858950645916
 30
0.0
 10
335.8329319598712
 20
232.516582565237
 30
0.0
 10
335.8437217582589
 20
232.532827491292
 30
0.0
 10
335.8576310083455
 20
232.5584403227414
 30
0.0
 10
335.8618853174098
 20
232.5671870758366
 30
0.0
 10
335.8696309286693
 20
232.5850982058497
 30
0.0
 10
335.873123704986
 20
232.5942801173242
 30
0.0
 10
335.8822881081906
 20
232.6219601673086
 30
0.0
 10
335.8867309680087
 20
232.6407451284959
 30
0.0
 10
335.889568387057
 20
232.6598494884129
 30
0.0
  0
SPLINE
  5
18D
330
1F
100
AcDbEntity
  8
1
100
AcDbSpline
210
0.0
220
0.0
230
1.0
 70
     8
 71
     3
 72
    12
 73
     8
 74
     0
 42
0.000000001
 43
0.0000000001
 40
0.0
 40
0.0
 40
0.0
 40
0.0
 40
0.2499999999999996
 40
0.2499999999999996
 40
0.4999999999999998
 40
0.4999999999999998
 40
1.0
 40
1.0
 40
1.0
 40
1.0
 10
336.4810446584916
 20
236.8802368532705
 30
0.0
 10
336.436088082462
 20
236.5279522204269
 30
0.0
 10
336.3895443958918
 20
236.1758821095696
 30
0.0
 10
336.2941919485237
 20
235.4720480468841
 30
0.0
 10
336.2453792356693
 20
235.1202846292362
 30
0.0
 10
336.0964585201007
 20
234.0653299341104
 30
0.0
 10
335.9939225679529
 20
233.3624668307085
 30
0.0
 10
335.889568387057
 20
232.6598494884129
 30
0.0
  0
SPLINE
  5
18E
330
1F
100
AcDbEntity
  8
1
100
AcDbSpline
210
0.0
220
0.0
230
1.0
 70
     8
 71
     3
 72
    16
 73
    12
 74
     0
 42
0.000000001
 43
0.0000000001
 40
0.0
 40
0.0
 40
0.0
 40
0.0
 40
0.2499999999999989
 40
0.2499999999999989
 40
0.3749999999999992
 40
0.3749999999999992
 40
0.4999999999999994
 40
0.4999999999999994
 40
0.7499999999999999
 40
0.7499999999999999
 40
1.0
 40
1.0
 40
1.0
 40
1.0
 10
336.4810446584916
 20
236.8802368532705
 30
0.0
 10
336.4913077605223
 20
236.9606596401021
 30
0.0
 10
336.4950162108532
 20
237.0411285846467
 30
0.0
 10
336.4915314112786
 20
237.1618957135841
 30
0.0
 10
336.4888508919753
 20
237.2021621194273
 30
0.0
 10
336.4804597929516
 20
237.2827162687323
 30
0.0
 10
336.4747258588895
 20
237.3230732851524
 30
0.0
 10
336.4532459278257
 20
237.4424509319903
 30
0.0
 10
336.4332288152455
 20
237.5203472099457
 30
0.0
 10
336.3817862716642
 20
237.6727579755373
 30
0.0
 10
336.3503810794743
 20
237.7472784626041
 30
0.0
 10
336.3125083621854
 20
237.819881768456
 30
0.0
  0
SPLINE
  5
18F
330
1F
100
AcDbEntity
  8
1
100
AcDbSpline
210
0.0
220
0.0
230
1.0
 70
     8
 71
     3
 72
     8
 73
     4
 74
     0
 42
0.000000001
 43
0.0000000001
 40
0.0
 40
0.0
 40
0.0
 40
0.0
 40
1.0
 40
1.0
 40
1.0
 40
1.0
 10
336.4810446584916
 20
242.6062860815025
 30
0.0
 10
336.4898051691836
 20
242.6283652411627
 30
0.0
 10
336.4938855054753
 20
242.6511809443779
 30
0.0
 10
336.493324073915
 20
242.6747271469087
 30
0.0
  0
SPLINE
  5
190
330
1F
100
AcDbEntity
  8
1
100
AcDbSpline
210
0.0
220
0.0
230
1.0
 70
     8
 71
     3
 72
     8
 73
     4
 74
     0
 42
0.000000001
 43
0.0000000001
 40
0.0
 40
0.0
 40
0.0
 40
0.0
 40
1.0
 40
1.0
 40
1.0
 40
1.0
 10
336.4810446584916
 20
249.8439773901754
 30
0.0
 10
336.4898202428938
 20
249.8247771677533
 30
0.0
 10
336.4938035226164
 20
249.805567522773
 30
0.0
 10
336.4933214581409
 20
249.7863490980995
 30
0.0
  0
SPLINE
  5
191
330
1F
100
AcDbEntity
  8
1
100
AcDbSpline
210
0.0
220
0.0
230
1.0
 70
    12
 71
     2
 72
     6
 73
     3
 74
     0
 42
0.000000001
 43
0.0000000001
 40
0.0
 40
0.0
 40
0.0
 40
1.0
 40
1.0
 40
1.0
 10
331.5384351842399
 20
241.8270187681021
 30
0.0
 41
0.4999999940651157
 10
331.5279556257997
 20
241.828506269719
 30
0.0
 41
0.5000000059348843
 10
331.5174767860162
 20
241.8299938423949
 30
0.0
 41
0.4999999940651157
  0
SPLINE
  5
192
330
1F
100
AcDbEntity
  8
1
100
AcDbSpline
210
0.0
220
0.0
230
1.0
 70
     8
 71
     3
 72
    30
 73
    26
 74
     0
 42
0.000000001
 43
0.0000000001
 40
0.0
 40
0.0
 40
0.0
 40
0.0
 40
0.1249999999999449
 40
0.1249999999999449
 40
0.1874999999999195
 40
0.1874999999999195
 40
0.2499999999998942
 40
0.2499999999998942
 40
0.3749999999998906
 40
0.3749999999998906
 40
0.4374999999999189
 40
0.4374999999999189
 40
0.4999999999999473
 40
0.4999999999999473
 40
0.6250000000000022
 40
0.6250000000000022
 40
0.6875000000000295
 40
0.6875000000000295
 40
0.7500000000000571
 40
0.7500000000000571
 40
0.8750000000000282
 40
0.8750000000000282
 40
0.937500000000014
 40
0.937500000000014
 40
1.0
 40
1.0
 40
1.0
 40
1.0
 10
331.1658753574566
 20
241.5735388796394
 30
0.0
 10
331.1693062295658
 20
241.5932047123544
 30
0.0
 10
331.1746217973541
 20
241.612227900392
 30
0.0
 10
331.1852567599942
 20
241.6398531430359
 30
0.0
 10
331.1892487959757
 20
241.6489087775143
 30
0.0
 10
331.1981389597242
 20
241.6667098700255
 30
0.0
 10
331.2030648644566
 20
241.6754940391559
 30
0.0
 10
331.2189361974406
 20
241.7008766367502
 30
0.0
 10
331.2310050070195
 20
241.716635165375
 30
0.0
 10
331.2512974088593
 20
241.7385575329282
 30
0.0
 10
331.2584289876297
 20
241.7455770621706
 30
0.0
 10
331.2734522831267
 20
241.7590197507764
 30
0.0
 10
331.2812674981483
 20
241.7653708842401
 30
0.0
 10
331.3054102567281
 20
241.7831825712647
 30
0.0
 10
331.3225069714553
 20
241.7934841937954
 30
0.0
 10
331.3496862445356
 20
241.8065235306344
 30
0.0
 10
331.3590582121229
 20
241.8104833577339
 30
0.0
 10
331.3780295078466
 20
241.8174377616455
 30
0.0
 10
331.3876205262764
 20
241.8204367972354
 30
0.0
 10
331.416704414768
 20
241.828022754664
 30
0.0
 10
331.4365049389888
 20
241.8312129052376
 30
0.0
 10
331.4668570272528
 20
241.8330398294083
 30
0.0
 10
331.4770521192654
 20
241.8331452173841
 30
0.0
 10
331.4973052760245
 20
241.8323354973011
 30
0.0
 10
331.5074048351294
 20
241.8314236532558
 30
0.0
 10
331.5174767860162
 20
241.8299938423949
 30
0.0
  0
SPLINE
  5
193
330
1F
100
AcDbEntity
  8
1
100
AcDbSpline
210
0.0
220
0.0
230
1.0
 70
     8
 71
     3
 72
     8
 73
     4
 74
     0
 42
0.000000001
 43
0.0000000001
 40
0.0
 40
0.0
 40
0.0
 40
0.0
 40
1.0
 40
1.0
 40
1.0
 40
1.0
 10
326.4788031107993
 20
240.0840342188914
 30
0.0
 10
326.5224309698598
 20
240.0803643633883
 30
0.0
 10
326.5660629542778
 20
240.0766239087105
 30
0.0
 10
326.6096990665127
 20
240.0728128127672
 30
0.0
  0
SPLINE
  5
194
330
1F
100
AcDbEntity
  8
1
100
AcDbSpline
210
0.0
220
0.0
230
1.0
 70
     8
 71
     3
 72
     8
 73
     4
 74
     0
 42
0.000000001
 43
0.0000000001
 40
0.0
 40
0.0
 40
0.0
 40
0.0
 40
1.0
 40
1.0
 40
1.0
 40
1.0
 10
332.1477819012657
 20
241.725076143393
 30
0.0
 10
331.9458641011055
 20
241.7640042607632
 30
0.0
 10
331.7427561946672
 20
241.7980167986852
 30
0.0
 10
331.5384351842399
 20
241.8270187681021
 30
0.0
  0
SPLINE
  5
195
330
1F
100
AcDbEntity
  8
1
100
AcDbSpline
210
0.0
220
0.0
230
1.0
 70
     8
 71
     3
 72
    10
 73
     6
 74
     0
 42
0.000000001
 43
0.0000000001
 40
0.0
 40
0.0
 40
0.0
 40
0.0
 40
0.5
 40
0.5
 40
1.0
 40
1.0
 40
1.0
 40
1.0
 10
336.4810446584916
 20
242.6062860815025
 30
0.0
 10
336.3834675501536
 20
242.3603619990006
 30
0.0
 10
336.2851694356172
 20
242.1145763881865
 30
0.0
 10
336.0878501524024
 20
241.6231440315609
 30
0.0
 10
335.9888160106073
 20
241.3774997772803
 30
0.0
 10
335.889568387057
 20
241.1318965228956
 30
0.0
  0
SPLINE
  5
196
330
1F
100
AcDbEntity
  8
1
100
AcDbSpline
210
0.0
220
0.0
230
1.0
 70
     8
 71
     3
 72
    18
 73
    14
 74
     0
 42
0.000000001
 43
0.0000000001
 40
0.0
 40
0.0
 40
0.0
 40
0.0
 40
0.1675604701085295
 40
0.1675604701085295
 40
0.2513407051627927
 40
0.2513407051627927
 40
0.3351209402170559
 40
0.3351209402170559
 40
0.6702418804341061
 40
0.6702418804341061
 40
0.8378023505426625
 40
0.8378023505426625
 40
1.0
 40
1.0
 40
1.0
 40
1.0
 10
323.0225277544615
 20
240.0090259158868
 30
0.0
 10
323.0255634108991
 20
240.0317120233672
 30
0.0
 10
323.0303902071042
 20
240.0540491113161
 30
0.0
 10
323.0401490612029
 20
240.087063343091
 30
0.0
 10
323.0438223653676
 20
240.0979860772276
 30
0.0
 10
323.0519878717682
 20
240.1196716999608
 30
0.0
 10
323.0565000024076
 20
240.1304747114072
 30
0.0
 10
323.0807326198159
 20
240.1834125937187
 30
0.0
 10
323.1054228225701
 20
240.222610195515
 30
0.0
 10
323.1483179138176
 20
240.2779230210487
 30
0.0
 10
323.1636852539221
 20
240.2958473343735
 30
0.0
 10
323.1951306438451
 20
240.3295484938115
 30
0.0
 10
323.2111927636613
 20
240.3454211242708
 30
0.0
 10
323.2277565315281
 20
240.3607004342058
 30
0.0
  0
SPLINE
  5
197
330
1F
100
AcDbEntity
  8
1
100
AcDbSpline
210
0.0
220
0.0
230
1.0
 70
     8
 71
     3
 72
     8
 73
     4
 74
     0
 42
0.000000001
 43
0.0000000001
 40
0.0
 40
0.0
 40
0.0
 40
0.0
 40
1.0
 40
1.0
 40
1.0
 40
1.0
 10
326.2432900493597
 20
240.1046255041402
 30
0.0
 10
326.239997533297
 20
240.0729853401253
 30
0.0
 10
326.2354413457398
 20
240.0412104573861
 30
0.0
 10
326.2296681724731
 20
240.0093026508375
 30
0.0
  0
SPLINE
  5
198
330
1F
100
AcDbEntity
  8
1
100
AcDbSpline
210
0.0
220
0.0
230
1.0
 70
     8
 71
     3
 72
    76
 73
    72
 74
     0
 42
0.000000001
 43
0.0000000001
 40
0.0
 40
0.0
 40
0.0
 40
0.0
 40
0.0312499999999812
 40
0.0312499999999812
 40
0.0390624999999764
 40
0.0390624999999764
 40
0.0468749999999715
 40
0.0468749999999715
 40
0.0624999999999672
 40
0.0624999999999672
 40
0.093749999999958
 40
0.093749999999958
 40
0.1093749999999565
 40
0.1093749999999565
 40
0.1249999999999551
 40
0.1249999999999551
 40
0.15624999999996
 40
0.15624999999996
 40
0.1874999999999649
 40
0.1874999999999649
 40
0.2187499999999698
 40
0.2187499999999698
 40
0.2499999999999747
 40
0.2499999999999747
 40
0.3124999999999761
 40
0.3124999999999761
 40
0.3749999999999775
 40
0.3749999999999775
 40
0.4062499999999782
 40
0.4062499999999782
 40
0.4374999999999789
 40
0.4374999999999789
 40
0.4999999999999711
 40
0.4999999999999711
 40
0.5624999999999634
 40
0.5624999999999634
 40
0.5781249999999615
 40
0.5781249999999615
 40
0.5937499999999595
 40
0.5937499999999595
 40
0.6249999999999555
 40
0.6249999999999555
 40
0.6874999999999561
 40
0.6874999999999561
 40
0.7187499999999564
 40
0.7187499999999564
 40
0.7343749999999565
 40
0.7343749999999565
 40
0.7499999999999565
 40
0.7499999999999565
 40
0.7812499999999647
 40
0.7812499999999647
 40
0.8124999999999728
 40
0.8124999999999728
 40
0.8437499999999808
 40
0.8437499999999808
 40
0.8749999999999889
 40
0.8749999999999889
 40
0.8906249999999904
 40
0.8906249999999904
 40
0.9062499999999921
 40
0.9062499999999921
 40
0.9374999999999948
 40
0.9374999999999948
 40
0.9531249999999968
 40
0.9531249999999968
 40
0.9609374999999969
 40
0.9609374999999969
 40
0.9687499999999971
 40
0.9687499999999971
 40
1.0
 40
1.0
 40
1.0
 40
1.0
 10
326.2296681724731
 20
240.0093026508375
 30
0.0
 10
326.2217002954475
 20
239.9652649150919
 30
0.0
 10
326.2078605612843
 20
239.9230590533046
 30
0.0
 10
326.1845401419304
 20
239.8721725349227
 30
0.0
 10
326.1795724306419
 20
239.8620895528234
 30
0.0
 10
326.1690535177307
 20
239.8421045342895
 30
0.0
 10
326.1634840708737
 20
239.8321730854407
 30
0.0
 10
326.1461009135634
 20
239.8029167284859
 30
0.0
 10
326.1336145713098
 20
239.7841063289696
 30
0.0
 10
326.0938719639503
 20
239.7294386416005
 30
0.0
 10
326.0643532474095
 20
239.695328495456
 30
0.0
 10
326.0165865954352
 20
239.6468503798615
 30
0.0
 10
326.0000219457833
 20
239.6310977127849
 30
0.0
 10
325.9662243908727
 20
239.6007466903682
 30
0.0
 10
325.9489692285739
 20
239.586119100458
 30
0.0
 10
325.8962790028314
 20
239.5436607834971
 30
0.0
 10
325.8599264790128
 20
239.5172434194249
 30
0.0
 10
325.7852845459078
 20
239.4674050320391
 30
0.0
 10
325.7469912086726
 20
239.4439899933424
 30
0.0
 10
325.6687768441338
 20
239.3996891110903
 30
0.0
 10
325.6287400043169
 20
239.378757179341
 30
0.0
 10
325.5482385845443
 20
239.3395842048027
 30
0.0
 10
325.5076792611654
 20
239.3212827463732
 30
0.0
 10
325.3852196481474
 20
239.2697207163253
 30
0.0
 10
325.3025469642109
 20
239.239768249665
 30
0.0
 10
325.1355539772833
 20
239.1872654322071
 30
0.0
 10
325.0512287998923
 20
239.1647326552993
 30
0.0
 10
324.9236152980151
 20
239.1361606062822
 30
0.0
 10
324.8808173827624
 20
239.1275039823474
 30
0.0
 10
324.7955666398404
 20
239.1120692220076
 30
0.0
 10
324.7530404848364
 20
239.105271814765
 30
0.0
 10
324.625759959266
 20
239.0875998060986
 30
0.0
 10
324.541302890451
 20
239.0794277178273
 30
0.0
 10
324.3731990726745
 20
239.0705341689723
 30
0.0
 10
324.2895521287745
 20
239.069808303512
 30
0.0
 10
324.1855247205017
 20
239.0740894919012
 30
0.0
 10
324.1647458690618
 20
239.0752069364084
 30
0.0
 10
324.1232423484107
 20
239.0779855249376
 30
0.0
 10
324.1024922077858
 20
239.0796491800001
 30
0.0
 10
324.0405217494404
 20
239.08547419091
 30
0.0
 10
323.9996473470084
 20
239.0904585529447
 30
0.0
 10
323.8783933106574
 20
239.1089130542105
 30
0.0
 10
323.7993705708269
 20
239.1258439522086
 30
0.0
 10
323.6839391859513
 20
239.1595584903425
 30
0.0
 10
323.6459817730542
 20
239.172191608153
 30
0.0
 10
323.5899080846701
 20
239.1935218692217
 30
0.0
 10
323.5713245282618
 20
239.2010460309046
 30
0.0
 10
323.534676500624
 20
239.2168591724355
 30
0.0
 10
323.5166148970065
 20
239.2251445390149
 30
0.0
 10
323.4632477867953
 20
239.2511937900663
 30
0.0
 10
323.4287568536186
 20
239.2701456613161
 30
0.0
 10
323.3621748757934
 20
239.3116275595694
 30
0.0
 10
323.3300817460948
 20
239.3341541263696
 30
0.0
 10
323.2686423007852
 20
239.3833926836863
 30
0.0
 10
323.2391787135817
 20
239.4102599127449
 30
0.0
 10
323.184849170632
 20
239.467606941198
 30
0.0
 10
323.1598206698527
 20
239.4981816418041
 30
0.0
 10
323.1259077924106
 20
239.5473314837772
 30
0.0
 10
323.1152106651054
 20
239.5642647664079
 30
0.0
 10
323.0951374410054
 20
239.5993374304865
 30
0.0
 10
323.0857379220255
 20
239.6175425380457
 30
0.0
 10
323.0601498067656
 20
239.6731742138952
 30
0.0
 10
323.0463986136139
 20
239.7118407592727
 30
0.0
 10
323.0311784905482
 20
239.7724555851342
 30
0.0
 10
323.0270096112108
 20
239.7930979265967
 30
0.0
 10
323.0222080234751
 20
239.8247667441044
 30
0.0
 10
323.0208522462149
 20
239.8354361004045
 30
0.0
 10
323.0186608548756
 20
239.8567930912333
 30
0.0
 10
323.017820761023
 20
239.8675078188294
 30
0.0
 10
323.0148956825031
 20
239.9212628191374
 30
0.0
 10
323.0166158237574
 20
239.9648447978566
 30
0.0
 10
323.0225277544615
 20
240.0090259158868
 30
0.0
  0
SPLINE
  5
199
330
1F
100
AcDbEntity
  8
1
100
AcDbSpline
210
0.0
220
0.0
230
1.0
 70
     8
 71
     3
 72
     8
 73
     4
 74
     0
 42
0.000000001
 43
0.0000000001
 40
0.0
 40
0.0
 40
0.0
 40
0.0
 40
1.0
 40
1.0
 40
1.0
 40
1.0
 10
326.4788031107991
 20
232.9250546150876
 30
0.0
 10
326.5224189134603
 20
232.9239308995447
 30
0.0
 10
326.5660509224303
 20
232.9225533509201
 30
0.0
 10
326.6096990665127
 20
232.9209208329531
 30
0.0
  0
SPLINE
  5
19A
330
1F
100
AcDbEntity
  8
1
100
AcDbSpline
210
0.0
220
0.0
230
1.0
 70
     8
 71
     3
 72
    10
 73
     6
 74
     0
 42
0.000000001
 43
0.0000000001
 40
0.0
 40
0.0
 40
0.0
 40
0.0
 40
0.5
 40
0.5
 40
1.0
 40
1.0
 40
1.0
 40
1.0
 10
326.6096990665127
 20
232.9209208329532
 30
0.0
 10
327.0047990814708
 20
232.9061433919709
 30
0.0
 10
327.4015283473176
 20
232.8957965922058
 30
0.0
 10
328.1981260878127
 20
232.8821675598804
 30
0.0
 10
328.5979948954117
 20
232.8788902804795
 30
0.0
 10
328.9994281589669
 20
232.8788902804795
 30
0.0
  0
SPLINE
  5
19B
330
1F
100
AcDbEntity
  8
1
100
AcDbSpline
210
0.0
220
0.0
230
1.0
 70
     8
 71
     3
 72
   130
 73
   126
 74
     0
 42
0.000000001
 43
0.0000000001
 40
0.0
 40
0.0
 40
0.0
 40
0.0
 40
0.0156250000000201
 40
0.0156250000000201
 40
0.0312500000000402
 40
0.0312500000000402
 40
0.0468750000000602
 40
0.0468750000000602
 40
0.0546875000000684
 40
0.0546875000000684
 40
0.0625000000000766
 40
0.0625000000000766
 40
0.078125000000093
 40
0.078125000000093
 40
0.0859375000001038
 40
0.0859375000001038
 40
0.0937500000001146
 40
0.0937500000001146
 40
0.1093750000001307
 40
0.1093750000001307
 40
0.1171875000001387
 40
0.1171875000001387
 40
0.1250000000001468
 40
0.1250000000001468
 40
0.1406250000001565
 40
0.1406250000001565
 40
0.1484375000001583
 40
0.1484375000001583
 40
0.15625000000016
 40
0.15625000000016
 40
0.1718750000001572
 40
0.1718750000001572
 40
0.1875000000001545
 40
0.1875000000001545
 40
0.2031250000001518
 40
0.2031250000001518
 40
0.2187500000001489
 40
0.2187500000001489
 40
0.2500000000001384
 40
0.2500000000001384
 40
0.2656250000001332
 40
0.2656250000001332
 40
0.281250000000128
 40
0.281250000000128
 40
0.3125000000001178
 40
0.3125000000001178
 40
0.3281250000001126
 40
0.3281250000001126
 40
0.33593750000011
 40
0.33593750000011
 40
0.3437500000001074
 40
0.3437500000001074
 40
0.3750000000000922
 40
0.3750000000000922
 40
0.4062500000000771
 40
0.4375000000000619
 40
0.4375000000000619
 40
0.4531250000000539
 40
0.4531250000000539
 40
0.4687500000000457
 40
0.4687500000000457
 40
0.5000000000000301
 40
0.5000000000000301
 40
0.5312500000000143
 40
0.5312500000000143
 40
0.5468750000000071
 40
0.5468750000000071
 40
0.5624999999999999
 40
0.5624999999999999
 40
0.5937499999999854
 40
0.5937499999999854
 40
0.601562499999983
 40
0.601562499999983
 40
0.6093749999999806
 40
0.6093749999999806
 40
0.6249999999999729
 40
0.6249999999999729
 40
0.640624999999965
 40
0.640624999999965
 40
0.6484374999999632
 40
0.6484374999999632
 40
0.6562499999999614
 40
0.6562499999999614
 40
0.6718749999999624
 40
0.6718749999999624
 40
0.6796874999999629
 40
0.6796874999999629
 40
0.6874999999999635
 40
0.6914062499999638
 40
0.6914062499999638
 40
0.695312499999964
 40
0.695312499999964
 40
0.7031249999999645
 40
0.710937499999965
 40
0.7148437499999653
 40
0.7148437499999653
 40
0.7187499999999655
 40
0.7187499999999655
 40
0.7343749999999667
 40
0.7343749999999667
 40
0.7421874999999703
 40
0.7421874999999703
 40
0.7499999999999737
 40
0.7499999999999737
 40
0.7656249999999752
 40
0.7656249999999752
 40
0.7812499999999766
 40
0.7812499999999766
 40
0.7968749999999782
 40
0.7968749999999782
 40
0.8124999999999793
 40
0.8124999999999793
 40
0.8437499999999864
 40
0.8437499999999864
 40
0.8749999999999937
 40
0.8749999999999937
 40
0.8906249999999957
 40
0.8906249999999957
 40
0.9062499999999975
 40
0.9062499999999975
 40
0.9374999999999984
 40
0.9374999999999984
 40
0.9687499999999992
 40
0.9687499999999992
 40
1.0
 40
1.0
 40
1.0
 40
1.0
 10
335.5567010818569
 20
247.5106793004698
 30
0.0
 10
335.5463666637211
 20
247.541002521599
 30
0.0
 10
335.5345603939752
 20
247.5708637032122
 30
0.0
 10
335.5074956589087
 20
247.6295264405962
 30
0.0
 10
335.492427927084
 20
247.6578991582606
 30
0.0
 10
335.4589909896644
 20
247.7123928831808
 30
0.0
 10
335.4406120617871
 20
247.7385419223926
 30
0.0
 10
335.4102037005699
 20
247.7759139785837
 30
0.0
 10
335.3995928040508
 20
247.7880618468185
 30
0.0
 10
335.3773403441547
 20
247.8116902647693
 30
0.0
 10
335.3657237457784
 20
247.8231362015939
 30
0.0
 10
335.3297929036972
 20
247.8558896557245
 30
0.0
 10
335.3042456274559
 20
247.8757899154848
 30
0.0
 10
335.2633471533161
 20
247.9025412695017
 30
0.0
 10
335.2492836068263
 20
247.9109405166416
 30
0.0
 10
335.2202471213373
 20
247.9266505210274
 30
0.0
 10
335.2052166510721
 20
247.9339802614946
 30
0.0
 10
335.1595693896298
 20
247.95387578365
 30
0.0
 10
335.1281771084205
 20
247.9644982017814
 30
0.0
 10
335.0796657191068
 20
247.9765486386464
 30
0.0
 10
335.063257455265
 20
247.9799163755
 30
0.0
 10
335.0299605912869
 20
247.9853441436453
 30
0.0
 10
335.0129957509673
 20
247.9874092635197
 30
0.0
 10
334.9619531125729
 20
247.9915641230869
 30
0.0
 10
334.9279342350794
 20
247.9916361643089
 30
0.0
 10
334.8769182568392
 20
247.9880652996464
 30
0.0
 10
334.8599150195666
 20
247.9862593525994
 30
0.0
 10
334.825912737416
 20
247.9814516002114
 30
0.0
 10
334.8088488201585
 20
247.9784348746718
 30
0.0
 10
334.758204954796
 20
247.9677441037999
 30
0.0
 10
334.7252305128443
 20
247.9584753889589
 30
0.0
 10
334.6606552584594
 20
247.9362045086322
 30
0.0
 10
334.6290557711313
 20
247.9231987402327
 30
0.0
 10
334.5671122879951
 20
247.8937734644254
 30
0.0
 10
334.5366623926815
 20
247.8772690410932
 30
0.0
 10
334.4782199288677
 20
247.8418680829228
 30
0.0
 10
334.4500626224216
 20
247.8229066840388
 30
0.0
 10
334.3684120302703
 20
247.7626637667433
 30
0.0
 10
334.3177167394421
 20
247.7180510647633
 30
0.0
 10
334.2464693050035
 20
247.6453638799244
 30
0.0
 10
334.2237301634564
 20
247.6203687211311
 30
0.0
 10
334.1803004105421
 20
247.5692515853636
 30
0.0
 10
334.1595681777786
 20
247.5430859827159
 30
0.0
 10
334.1000645956922
 20
247.4629094755814
 30
0.0
 10
334.0639707236257
 20
247.40722808489
 30
0.0
 10
334.01456639581
 20
247.3206953913112
 30
0.0
 10
333.9988921794106
 20
247.2913467584598
 30
0.0
 10
333.976526534243
 20
247.2465895143774
 30
0.0
 10
333.9692530326322
 20
247.2315270792123
 30
0.0
 10
333.9551472042331
 20
247.2012999703054
 30
0.0
 10
333.9483110702914
 20
247.1861292916705
 30
0.0
 10
333.9151764466204
 20
247.1099979465574
 30
0.0
 10
333.8919989669911
 20
247.0482072101304
 30
0.0
 10
333.8516389754382
 20
246.9229837907683
 30
0.0
 10
333.8172809283645
 20
246.7961169105018
 30
0.0
 10
333.7943232612048
 20
246.6660599404643
 30
0.0
 10
333.781382879606
 20
246.5673048857951
 30
0.0
 10
333.7777812994957
 20
246.5341172570538
 30
0.0
 10
333.7720803572188
 20
246.4679036305112
 30
0.0
 10
333.7699714035762
 20
246.434827577601
 30
0.0
 10
333.7658561117298
 20
246.3356913972617
 30
0.0
 10
333.7660479300661
 20
246.2697220518485
 30
0.0
 10
333.7725293023571
 20
246.1380509070842
 30
0.0
 10
333.7788111788915
 20
246.0723484036589
 30
0.0
 10
333.7933590221219
 20
245.9740479716164
 30
0.0
 10
333.7990670544485
 20
245.9413237932479
 30
0.0
 10
333.8123724254849
 20
245.8759766854281
 30
0.0
 10
333.819981712977
 20
245.8433050655767
 30
0.0
 10
333.8459376774431
 20
245.7457944998939
 30
0.0
 10
333.8671515472166
 20
245.6821501641943
 30
0.0
 10
333.8999856987404
 20
245.6048670004979
 30
0.0
 10
333.9068733561601
 20
245.5895259132925
 30
0.0
 10
333.9213510759181
 20
245.5590987506666
 30
0.0
 10
333.9289562939213
 20
245.543986358493
 30
0.0
 10
333.9527483634347
 20
245.499422482221
 30
0.0
 10
333.9699374030502
 20
245.4706575601747
 30
0.0
 10
334.0074557417526
 20
245.4153838634215
 30
0.0
 10
334.0277790420121
 20
245.3888706391514
 30
0.0
 10
334.0612015027618
 20
245.3512307316532
 30
0.0
 10
334.0728347034515
 20
245.3390411582342
 30
0.0
 10
334.0972333574967
 20
245.3154865128154
 30
0.0
 10
334.1100136721149
 20
245.3041212796442
 30
0.0
 10
334.149486845542
 20
245.2721080604098
 30
0.0
 10
334.177527596933
 20
245.25329419289
 30
0.0
 10
334.2226973649431
 20
245.2296555814489
 30
0.0
 10
334.2383566981416
 20
245.2225182123653
 30
0.0
 10
334.2702105442519
 20
245.2101852963799
 30
0.0
 10
334.2945585193983
 20
245.2023465556691
 30
0.0
 10
334.3196109615903
 20
245.1966849093025
 30
0.0
 10
334.3364718633111
 20
245.1934030782466
 30
0.0
 10
334.3449799214092
 20
245.1920108128252
 30
0.0
 10
334.3704363869833
 20
245.1886154382038
 30
0.0
 10
334.4044049038869
 20
245.1861262102792
 30
0.0
 10
334.4469272807217
 20
245.1878043921293
 30
0.0
 10
334.4724671472123
 20
245.1908564282667
 30
0.0
 10
334.4894995208303
 20
245.1933357599231
 30
0.0
 10
334.4980382246837
 20
245.1948023349994
 30
0.0
 10
334.5403030668227
 20
245.2031275405707
 30
0.0
 10
334.5730275900845
 20
245.2129564815021
 30
0.0
 10
334.6208438610513
 20
245.2314094028738
 30
0.0
 10
334.6365688766496
 20
245.2381844465357
 30
0.0
 10
334.6676330334777
 20
245.2528627567724
 30
0.0
 10
334.6830213763092
 20
245.2607945441332
 30
0.0
 10
334.728257817413
 20
245.285911687294
 30
0.0
 10
334.757124110336
 20
245.3043490827961
 30
0.0
 10
334.8128511693484
 20
245.3438536620191
 30
0.0
 10
334.8397074158937
 20
245.3649267663076
 30
0.0
 10
334.891764182386
 20
245.4092450731875
 30
0.0
 10
334.9169625934491
 20
245.4324930380669
 30
0.0
 10
334.9659351796278
 20
245.480858338642
 30
0.0
 10
334.989544255588
 20
245.5058179968499
 30
0.0
 10
335.0577767162968
 20
245.582267421303
 30
0.0
 10
335.1000149232883
 20
245.6354868298734
 30
0.0
 10
335.1794001940071
 20
245.7454280130684
 30
0.0
 10
335.2165299429677
 20
245.8021620244812
 30
0.0
 10
335.2688703211248
 20
245.8895545517879
 30
0.0
 10
335.285753795596
 20
245.9190703229739
 30
0.0
 10
335.3184333648151
 20
245.9788425909251
 30
0.0
 10
335.3341872920264
 20
246.0090268556376
 30
0.0
 10
335.3795161136499
 20
246.0999410984035
 30
0.0
 10
335.4072775014235
 20
246.1612270755683
 30
0.0
 10
335.4581225348447
 20
246.2850629170126
 30
0.0
 10
335.4812044781256
 20
246.3476133685614
 30
0.0
 10
335.522612792602
 20
246.4739871803431
 30
0.0
 10
335.5409404523035
 20
246.5378102021294
 30
0.0
 10
335.5567010818569
 20
246.6023199613297
 30
0.0
  0
SPLINE
  5
19C
330
1F
100
AcDbEntity
  8
1
100
AcDbSpline
210
0.0
220
0.0
230
1.0
 70
     8
 71
     3
 72
    31
 73
    27
 74
     0
 42
0.000000001
 43
0.0000000001
 40
0.0
 40
0.0
 40
0.0
 40
0.0
 40
0.0625000000000265
 40
0.0625000000000265
 40
0.125000000000053
 40
0.125000000000053
 40
0.250000000000016
 40
0.250000000000016
 40
0.3124999999999989
 40
0.3124999999999989
 40
0.3749999999999818
 40
0.4374999999999649
 40
0.4374999999999649
 40
0.4999999999999478
 40
0.4999999999999478
 40
0.6249999999999206
 40
0.6249999999999206
 40
0.687499999999937
 40
0.687499999999937
 40
0.7499999999999531
 40
0.7499999999999531
 40
0.8749999999999765
 40
0.8749999999999765
 40
0.9374999999999884
 40
0.9374999999999884
 40
1.0
 40
1.0
 40
1.0
 40
1.0
 10
335.556701081857
 20
241.0741465270976
 30
0.0
 10
335.5661369820263
 20
241.0723613260134
 30
0.0
 10
335.5757194569171
 20
241.0707382274768
 30
0.0
 10
335.5949222360558
 20
241.0678710307285
 30
0.0
 10
335.6044755326764
 20
241.0666352199566
 30
0.0
 10
335.6329945543144
 20
241.0635071238854
 30
0.0
 10
335.6518207132976
 20
241.0621888194295
 30
0.0
 10
335.679770278987
 20
241.0614026743057
 30
0.0
 10
335.689050583503
 20
241.0613434275292
 30
0.0
 10
335.7070964029258
 20
241.0616318866033
 30
0.0
 10
335.7247340245125
 20
241.0623223913438
 30
0.0
 10
335.7415669367107
 20
241.0638054772634
 30
0.0
 10
335.7579921048109
 20
241.0656901619496
 30
0.0
 10
335.7660302603319
 20
241.0668385137918
 30
0.0
 10
335.7893073297053
 20
241.0708758536078
 30
0.0
 10
335.8034608494172
 20
241.0742993120016
 30
0.0
 10
335.8227173510101
 20
241.0804931856144
 30
0.0
 10
335.8288048864624
 20
241.0827355104821
 30
0.0
 10
335.8403014620706
 20
241.0875840884283
 30
0.0
 10
335.8456939456848
 20
241.0901877107574
 30
0.0
 10
335.8605058866432
 20
241.0983718735212
 30
0.0
 10
335.8687009245031
 20
241.1043736028227
 30
0.0
 10
335.8785036716208
 20
241.1141850205798
 30
0.0
 10
335.8813650303174
 20
241.1176104907211
 30
0.0
 10
335.8861534281364
 20
241.1246326749496
 30
0.0
 10
335.8880848156718
 20
241.1282252011322
 30
0.0
 10
335.889568387057
 20
241.1318965228955
 30
0.0
  0
SPLINE
  5
19D
330
1F
100
AcDbEntity
  8
1
100
AcDbSpline
210
0.0
220
0.0
230
1.0
 70
     8
 71
     3
 72
    60
 73
    56
 74
     0
 42
0.000000001
 43
0.0000000001
 40
0.0
 40
0.0
 40
0.0
 40
0.0
 40
0.0625000000000085
 40
0.0625000000000085
 40
0.1250000000000171
 40
0.1250000000000171
 40
0.1328125000000181
 40
0.1328125000000181
 40
0.1406250000000191
 40
0.1406250000000191
 40
0.1562500000000211
 40
0.1875000000000246
 40
0.1875000000000246
 40
0.250000000000032
 40
0.250000000000032
 40
0.3125000000000395
 40
0.3125000000000395
 40
0.3203125000000402
 40
0.3203125000000402
 40
0.3281250000000409
 40
0.3281250000000409
 40
0.3437500000000416
 40
0.3750000000000432
 40
0.3750000000000432
 40
0.4375000000000479
 40
0.4375000000000479
 40
0.5000000000000525
 40
0.5000000000000525
 40
0.5078125000000516
 40
0.5078125000000516
 40
0.5156250000000507
 40
0.5312500000000489
 40
0.5625000000000453
 40
0.5625000000000453
 40
0.6250000000000361
 40
0.6250000000000361
 40
0.6562500000000315
 40
0.6562500000000315
 40
0.6718750000000292
 40
0.6718750000000292
 40
0.6875000000000269
 40
0.6875000000000269
 40
0.7500000000000224
 40
0.7500000000000224
 40
0.8125000000000181
 40
0.8125000000000181
 40
0.8750000000000138
 40
0.8750000000000138
 40
0.8906250000000126
 40
0.8906250000000126
 40
0.9062500000000115
 40
0.9062500000000115
 40
0.9375000000000067
 40
0.9375000000000067
 40
1.0
 40
1.0
 40
1.0
 40
1.0
 10
317.4660665654227
 20
239.326281565468
 30
0.0
 10
317.4721913479383
 20
239.0355168544679
 30
0.0
 10
317.4884117622968
 20
238.7514711961642
 30
0.0
 10
317.5425864054159
 20
238.1967081825478
 30
0.0
 10
317.580533643083
 20
237.9259910349198
 30
0.0
 10
317.6370672111292
 20
237.6290543467479
 30
0.0
 10
317.6435419432648
 20
237.5961674270326
 30
0.0
 10
317.6568852100725
 20
237.5306064696549
 30
0.0
 10
317.6637591354379
 20
237.4979085599626
 30
0.0
 10
317.684921155621
 20
237.4004158514813
 30
0.0
 10
317.729437555582
 20
237.2076632760317
 30
0.0
 10
317.7806123825308
 20
237.0215087012679
 30
0.0
 10
317.8921396688391
 20
236.6577822933407
 30
0.0
 10
317.9786999238283
 20
236.4267283949918
 30
0.0
 10
318.1785236026174
 20
235.9867169946501
 30
0.0
 10
318.2917847018606
 20
235.7777636262838
 30
0.0
 10
318.4360318061447
 20
235.5549085004773
 30
0.0
 10
318.4522936231036
 20
235.5303167057923
 30
0.0
 10
318.4852933753306
 20
235.4814724636254
 30
0.0
 10
318.5020455475083
 20
235.4572002678505
 30
0.0
 10
318.5528759475537
 20
235.3851047711447
 30
0.0
 10
318.6568962680738
 20
235.2436925401936
 30
0.0
 10
318.7680279353442
 20
235.1103822127211
 30
0.0
 10
318.9998952528569
 20
234.8539988215991
 30
0.0
 10
319.1672688872168
 20
234.6967134054512
 30
0.0
 10
319.5285211681016
 20
234.4067985725211
 30
0.0
 10
319.7224003551023
 20
234.2741749364794
 30
0.0
 10
319.9561146087337
 20
234.137572056889
 30
0.0
 10
319.9823191348185
 20
234.1225583233431
 30
0.0
 10
320.0350550192323
 20
234.0929380812767
 30
0.0
 10
320.1146366417579
 20
234.0491239406905
 30
0.0
 10
320.3036556835261
 20
233.951105653142
 30
0.0
 10
320.4713259681668
 20
233.8739860951939
 30
0.0
 10
320.8140899935338
 20
233.7281448035668
 30
0.0
 10
321.052489514265
 20
233.6420932763278
 30
0.0
 10
321.4246119958279
 20
233.5270417645
 30
0.0
 10
321.5510753292928
 20
233.4910345278686
 30
0.0
 10
321.7443826627941
 20
233.4402410847574
 30
0.0
 10
321.8094206175861
 20
233.4238464521194
 30
0.0
 10
321.9406987851585
 20
233.3920838104739
 30
0.0
 10
322.0069649292047
 20
233.3767100506377
 30
0.0
 10
322.3410254537005
 20
233.3023573166856
 30
0.0
 10
322.6142902513882
 20
233.2514796626374
 30
0.0
 10
323.1721656187826
 20
233.1632578630658
 30
0.0
 10
323.456777397197
 20
233.125922356643
 30
0.0
 10
324.0369018525836
 20
233.0619832763133
 30
0.0
 10
324.3324149554411
 20
233.0353847882435
 30
0.0
 10
324.708475118255
 20
233.007497466836
 30
0.0
 10
324.7840211039955
 20
233.002189448732
 30
0.0
 10
324.9357794217909
 20
232.9920839095254
 30
0.0
 10
325.0119010386376
 20
232.9872926474907
 30
0.0
 10
325.240678787417
 20
232.9736747503702
 30
0.0
 10
325.3938752485305
 20
232.9655941601482
 30
0.0
 10
325.8554583487502
 20
232.9440004059308
 30
0.0
 10
326.1658352829068
 20
232.9331179038766
 30
0.0
 10
326.4788031107991
 20
232.9250546150876
 30
0.0
  0
SPLINE
  5
19E
330
1F
100
AcDbEntity
  8
1
100
AcDbSpline
210
0.0
220
0.0
230
1.0
 70
     8
 71
     3
 72
     8
 73
     4
 74
     0
 42
0.000000001
 43
0.0000000001
 40
0.0
 40
0.0
 40
0.0
 40
0.0
 40
1.0
 40
1.0
 40
1.0
 40
1.0
 10
337.1423693520259
 20
239.6737769136958
 30
0.0
 10
337.1476513298865
 20
239.6348513145921
 30
0.0
 10
337.1502942095997
 20
239.5962071909305
 30
0.0
 10
337.1502942095997
 20
239.557889764012
 30
0.0
  0
SPLINE
  5
19F
330
1F
100
AcDbEntity
  8
1
100
AcDbSpline
210
0.0
220
0.0
230
1.0
 70
     8
 71
     3
 72
     8
 73
     4
 74
     0
 42
0.000000001
 43
0.0000000001
 40
0.0
 40
0.0
 40
0.0
 40
0.0
 40
1.0
 40
1.0
 40
1.0
 40
1.0
 10
337.1502942095997
 20
239.557889764012
 30
0.0
 10
337.1502942095997
 20
239.4220470281934
 30
0.0
 10
337.1265599093632
 20
239.2893131341599
 30
0.0
 10
337.0793075156315
 20
239.1608972156342
 30
0.0
  0
SPLINE
  5
1A0
330
1F
100
AcDbEntity
  8
1
100
AcDbSpline
210
0.0
220
0.0
230
1.0
 70
     8
 71
     3
 72
    10
 73
     6
 74
     0
 42
0.000000001
 43
0.0000000001
 40
0.0
 40
0.0
 40
0.0
 40
0.0
 40
0.7378712907278369
 40
0.7378712907278369
 40
1.0
 40
1.0
 40
1.0
 40
1.0
 10
330.212814311548
 20
239.6295631919828
 30
0.0
 10
330.2356077134581
 20
239.6915078980911
 30
0.0
 10
330.2605164447868
 20
239.7530404587473
 30
0.0
 10
330.2971398523488
 20
239.8358744608824
 30
0.0
 10
330.3070070704884
 20
239.8575359050015
 30
0.0
 10
330.3171400395817
 20
239.8791428914621
 30
0.0
  0
SPLINE
  5
1A1
330
1F
100
AcDbEntity
  8
1
100
AcDbSpline
210
0.0
220
0.0
230
1.0
 70
     8
 71
     3
 72
     8
 73
     4
 74
     0
 42
0.000000001
 43
0.0000000001
 40
0.0
 40
0.0
 40
0.0
 40
0.0
 40
1.0
 40
1.0
 40
1.0
 40
1.0
 10
330.1418276175798
 20
239.232570643605
 30
0.0
 10
330.1418276175798
 20
239.3684133794236
 30
0.0
 10
330.1655619178164
 20
239.5011472734571
 30
0.0
 10
330.212814311548
 20
239.6295631919828
 30
0.0
  0
SPLINE
  5
1A2
330
1F
100
AcDbEntity
  8
1
100
AcDbSpline
210
0.0
220
0.0
230
1.0
 70
     8
 71
     3
 72
    10
 73
     6
 74
     0
 42
0.000000001
 43
0.0000000001
 40
0.0
 40
0.0
 40
0.0
 40
0.0
 40
0.5
 40
0.5
 40
1.0
 40
1.0
 40
1.0
 40
1.0
 10
330.1893715075785
 20
238.9456813839612
 30
0.0
 10
330.1735460086504
 20
238.9942152116668
 30
0.0
 10
330.1616644457681
 20
239.0424158798165
 30
0.0
 10
330.145797338187
 20
239.1381456408204
 30
0.0
 10
330.1418276175798
 20
239.1856057013378
 30
0.0
 10
330.1418276175798
 20
239.232570643605
 30
0.0
  0
SPLINE
  5
1A3
330
1F
100
AcDbEntity
  8
1
100
AcDbSpline
210
0.0
220
0.0
230
1.0
 70
     8
 71
     3
 72
     8
 73
     4
 74
     0
 42
0.000000001
 43
0.0000000001
 40
0.0
 40
0.0
 40
0.0
 40
0.0
 40
1.0
 40
1.0
 40
1.0
 40
1.0
 10
330.4428215799279
 20
238.7834745747565
 30
0.0
 10
330.4406343484652
 20
238.7840900877294
 30
0.0
 10
330.4384527132095
 20
238.7847059146329
 30
0.0
 10
330.4362771377057
 20
238.785321919867
 30
0.0
  0
SPLINE
  5
1A4
330
1F
100
AcDbEntity
  8
1
100
AcDbSpline
210
0.0
220
0.0
230
1.0
 70
     8
 71
     3
 72
    14
 73
    10
 74
     0
 42
0.000000001
 43
0.0000000001
 40
0.0
 40
0.0
 40
0.0
 40
0.0
 40
0.1235567623974363
 40
0.1235567623974363
 40
0.2988454099179581
 40
0.2988454099179581
 40
0.6494227049589792
 40
0.6494227049589792
 40
1.0
 40
1.0
 40
1.0
 40
1.0
 10
331.0706529036547
 20
241.0002343017694
 30
0.0
 10
331.0897664984889
 20
241.0326169403504
 30
0.0
 10
331.1089727040363
 20
241.0652434204951
 30
0.0
 10
331.1555818106842
 20
241.1445655431097
 30
0.0
 10
331.1830526552978
 20
241.1914400790588
 30
0.0
 10
331.2657455636108
 20
241.3328019054834
 30
0.0
 10
331.3212431552731
 20
241.4280146538181
 30
0.0
 10
331.4326923103195
 20
241.6196354460532
 30
0.0
 10
331.4886510266903
 20
241.7160610203072
 30
0.0
 10
331.5447087689125
 20
241.8128088126594
 30
0.0
  0
SPLINE
  5
1A5
330
1F
100
AcDbEntity
  8
1
100
AcDbSpline
210
0.0
220
0.0
230
1.0
 70
     8
 71
     3
 72
    16
 73
    12
 74
     0
 42
0.000000001
 43
0.0000000001
 40
0.0
 40
0.0
 40
0.0
 40
0.0
 40
0.1164001393955828
 40
0.231477914091038
 40
0.3452333439945836
 40
0.4576664655241432
 40
0.5687773325511943
 40
0.6785660173813046
 40
0.7870326117747183
 40
0.894177228010753
 40
1.0
 40
1.0
 40
1.0
 40
1.0
 10
330.1893715070833
 20
238.9456813827028
 30
0.0
 10
330.2162791388052
 20
239.0139871250135
 30
0.0
 10
330.2697887178874
 20
239.1498226217116
 30
0.0
 10
330.3499054018776
 20
239.3523087818921
 30
0.0
 10
330.4293344360487
 20
239.5523899910234
 30
0.0
 10
330.5080973456406
 20
239.7500585588004
 30
0.0
 10
330.586188959118
 20
239.9453156570332
 30
0.0
 10
330.6636086961806
 20
240.1381610841713
 30
0.0
 10
330.7403628421908
 20
240.3285922883282
 30
0.0
 10
330.8164254611737
 20
240.5166180816188
 30
0.0
 10
330.8670491657715
 20
240.6411158479097
 30
0.0
 10
330.8922039126722
 20
240.7029783651954
 30
0.0
  0
SPLINE
  5
1A6
330
1F
100
AcDbEntity
  8
1
100
AcDbSpline
210
0.0
220
0.0
230
1.0
 70
     8
 71
     3
 72
     8
 73
     4
 74
     0
 42
0.000000001
 43
0.0000000001
 40
0.0
 40
0.0
 40
0.0
 40
0.0
 40
1.0
 40
1.0
 40
1.0
 40
1.0
 10
330.1904421358857
 20
238.9425059249826
 30
0.0
 10
330.1900580927267
 20
238.9435752871738
 30
0.0
 10
330.1896941385934
 20
238.9446368988495
 30
0.0
 10
330.1893504177105
 20
238.9456904746982
 30
0.0
  0
SPLINE
  5
1A7
330
1F
100
AcDbEntity
  8
1
100
AcDbSpline
210
0.0
220
0.0
230
1.0
 70
     8
 71
     3
 72
    19
 73
    15
 74
     0
 42
0.000000001
 43
0.0000000001
 40
0.0
 40
0.0
 40
0.0
 40
0.0
 40
0.2499999999998984
 40
0.2499999999998984
 40
0.3749999999998897
 40
0.3749999999998897
 40
0.4999999999998811
 40
0.6249999999998722
 40
0.6249999999998722
 40
0.6874999999998903
 40
0.6874999999998903
 40
0.7499999999999081
 40
0.7499999999999081
 40
1.0
 40
1.0
 40
1.0
 40
1.0
 10
330.4362771377057
 20
238.785321919867
 30
0.0
 10
330.4040611105163
 20
238.7945182668035
 30
0.0
 10
330.374174209742
 20
238.8049864000634
 30
0.0
 10
330.3327525071903
 20
238.8226005858312
 30
0.0
 10
330.3194354366311
 20
238.8288415101812
 30
0.0
 10
330.2946391574553
 20
238.8416885065532
 30
0.0
 10
330.2715798533307
 20
238.8549257907915
 30
0.0
 10
330.2519496100817
 20
238.8689891206245
 30
0.0
 10
330.2385436238737
 20
238.8798334810211
 30
0.0
 10
330.2342920386881
 20
238.8835030543468
 30
0.0
 10
330.2263586134191
 20
238.8908280827367
 30
0.0
 10
330.2226590218929
 20
238.8944970923972
 30
0.0
 10
330.2054665422974
 20
238.9128709657214
 30
0.0
 10
330.1958252573686
 20
238.9276639165038
 30
0.0
 10
330.1904421358857
 20
238.9425059249826
 30
0.0
  0
SPLINE
  5
1A8
330
1F
100
AcDbEntity
  8
1
100
AcDbSpline
210
0.0
220
0.0
230
1.0
 70
     8
 71
     3
 72
     8
 73
     4
 74
     0
 42
0.000000001
 43
0.0000000001
 40
0.0
 40
0.0
 40
0.0
 40
0.0
 40
1.0
 40
1.0
 40
1.0
 40
1.0
 10
335.1316202203855
 20
237.7663884186882
 30
0.0
 10
334.8008534635804
 20
237.808623068257
 30
0.0
 10
334.4702773070402
 20
237.8605808301861
 30
0.0
 10
334.1429031201511
 20
237.9217883974009
 30
0.0
  0
SPLINE
  5
1A9
330
1F
100
AcDbEntity
  8
1
100
AcDbSpline
210
0.0
220
0.0
230
1.0
 70
     8
 71
     3
 72
    24
 73
    20
 74
     0
 42
0.000000001
 43
0.0000000001
 40
0.0
 40
0.0
 40
0.0
 40
0.0
 40
0.0312500000000012
 40
0.0312500000000012
 40
0.0625000000000023
 40
0.0625000000000023
 40
0.1250000000000047
 40
0.1250000000000047
 40
0.187500000000007
 40
0.187500000000007
 40
0.2500000000000094
 40
0.2500000000000094
 40
0.3750000000000079
 40
0.3750000000000079
 40
0.5000000000000066
 40
0.5000000000000066
 40
0.7500000000000032
 40
0.7500000000000032
 40
1.0
 40
1.0
 40
1.0
 40
1.0
 10
336.9076215822477
 20
241.4033347527684
 30
0.0
 10
336.9055600707055
 20
241.4179838824922
 30
0.0
 10
336.9033005412622
 20
241.4323979557904
 30
0.0
 10
336.8985655298437
 20
241.4609697719852
 30
0.0
 10
336.896086012876
 20
241.475122720321
 30
0.0
 10
336.8884270079585
 20
241.5173198816942
 30
0.0
 10
336.8830313244517
 20
241.5451074659778
 30
0.0
 10
336.8719203717815
 20
241.6003032795288
 30
0.0
 10
336.8662005347408
 20
241.6276955216427
 30
0.0
 10
336.8546216677344
 20
241.6818543553264
 30
0.0
 10
336.8487489451259
 20
241.7086793223154
 30
0.0
 10
336.8309514994174
 20
241.7886065258731
 30
0.0
 10
336.8188506906865
 20
241.8411708173937
 30
0.0
 10
336.7943593418437
 20
241.9454142653979
 30
0.0
 10
336.7819655097046
 20
241.9970833646742
 30
0.0
 10
336.7444696454425
 20
242.151130262605
 30
0.0
 10
336.7190586795871
 20
242.2525642626685
 30
0.0
 10
336.667727735373
 20
242.4538772196505
 30
0.0
 10
336.6418006792164
 20
242.5537391376542
 30
0.0
 10
336.6157181288375
 20
242.6529097592312
 30
0.0
  0
SPLINE
  5
1AA
330
1F
100
AcDbEntity
  8
1
100
AcDbSpline
210
0.0
220
0.0
230
1.0
 70
     8
 71
     2
 72
     7
 73
     4
 74
     0
 42
0.000000001
 43
0.0000000001
 40
0.0
 40
0.0
 40
0.0
 40
0.376016849189758
 40
1.0
 40
1.0
 40
1.0
 10
336.6157136463814
 20
242.6528637510212
 30
0.0
 10
336.6040920688491
 20
242.658485005843
 30
0.0
 10
336.5717102593022
 20
242.6725298769465
 30
0.0
 10
336.5497649053085
 20
242.6803592375724
 30
0.0
  0
SPLINE
  5
1AB
330
1F
100
AcDbEntity
  8
1
100
AcDbSpline
210
0.0
220
0.0
230
1.0
 70
     8
 71
     2
 72
     7
 73
     4
 74
     0
 42
0.000000001
 43
0.0000000001
 40
0.0
 40
0.0
 40
0.0
 40
0.3760168491812106
 40
1.0
 40
1.0
 40
1.0
 10
331.5447015225303
 20
241.8127781609641
 30
0.0
 10
331.5563231000623
 20
241.8071569061424
 30
0.0
 10
331.5887049096092
 20
241.7931120350389
 30
0.0
 10
331.6106502636031
 20
241.7852826744129
 30
0.0
  0
SPLINE
  5
1AC
330
1F
100
AcDbEntity
  8
1
100
AcDbSpline
210
0.0
220
0.0
230
1.0
 70
     8
 71
     3
 72
    12
 73
     8
 74
     0
 42
0.000000001
 43
0.0000000001
 40
0.0
 40
0.0
 40
0.0
 40
0.0
 40
0.4999999999999992
 40
0.4999999999999992
 40
0.7499999999999996
 40
0.7499999999999996
 40
1.0
 40
1.0
 40
1.0
 40
1.0
 10
331.6106491490674
 20
241.7853084812695
 30
0.0
 10
331.6088251947789
 20
241.7589819117631
 30
0.0
 10
331.6078893618112
 20
241.7326852786877
 30
0.0
 10
331.6090910805327
 20
241.6933281531319
 30
0.0
 10
331.6099316151406
 20
241.6802239413293
 30
0.0
 10
331.6130605882331
 20
241.6540643230769
 30
0.0
 10
331.6153004665169
 20
241.6410072797797
 30
0.0
 10
331.6190136958724
 20
241.6279998995988
 30
0.0
  0
SPLINE
  5
1AD
330
1F
100
AcDbEntity
  8
1
100
AcDbSpline
210
0.0
220
0.0
230
1.0
 70
     8
 71
     3
 72
    12
 73
     8
 74
     0
 42
0.000000001
 43
0.0000000001
 40
0.0
 40
0.0
 40
0.0
 40
0.0
 40
0.5000000000000034
 40
0.5000000000000034
 40
0.7500000000000017
 40
0.7500000000000017
 40
1.0
 40
1.0
 40
1.0
 40
1.0
 10
335.9377381675296
 20
240.9814248922511
 30
0.0
 10
335.9435786032993
 20
240.9585799175287
 30
0.0
 10
335.9495134947932
 20
240.936248839872
 30
0.0
 10
335.9586928930076
 20
240.9042596049909
 30
0.0
 10
335.9617994772585
 20
240.8938510649489
 30
0.0
 10
335.9681665970668
 20
240.873871574388
 30
0.0
 10
335.9714219725554
 20
240.8642725499287
 30
0.0
 10
335.9748339785117
 20
240.8555256912672
 30
0.0
  0
SPLINE
  5
1AE
330
1F
100
AcDbEntity
  8
1
100
AcDbSpline
210
0.0
220
0.0
230
1.0
 70
     8
 71
     2
 72
     8
 73
     5
 74
     0
 42
0.000000001
 43
0.0000000001
 40
0.0
 40
0.0
 40
0.0
 40
0.3809847559250121
 40
0.9925842274251884
 40
1.0
 40
1.0
 40
1.0
 10
335.8913127882257
 20
240.9602520778606
 30
0.0
 10
335.9011651699701
 20
240.9636668881385
 30
0.0
 10
335.9246228138074
 20
240.9736001396248
 30
0.0
 10
335.9376055651154
 20
240.9813369152463
 30
0.0
 10
335.9377389152954
 20
240.981416790854
 30
0.0
  0
SPLINE
  5
1AF
330
1F
100
AcDbEntity
  8
1
100
AcDbSpline
210
0.0
220
0.0
230
1.0
 70
     8
 71
     3
 72
    24
 73
    20
 74
     0
 42
0.000000001
 43
0.0000000001
 40
0.0
 40
0.0
 40
0.0
 40
0.0
 40
0.0312500000000003
 40
0.0312500000000003
 40
0.0625000000000006
 40
0.0625000000000006
 40
0.1250000000000013
 40
0.1250000000000013
 40
0.1875000000000019
 40
0.1875000000000019
 40
0.2500000000000017
 40
0.2500000000000017
 40
0.3750000000000012
 40
0.3750000000000012
 40
0.5000000000000007
 40
0.5000000000000007
 40
0.7500000000000004
 40
0.7500000000000004
 40
1.0
 40
1.0
 40
1.0
 40
1.0
 10
335.6881843991072
 20
239.5907173196059
 30
0.0
 10
335.6956911006275
 20
239.6033764760804
 30
0.0
 10
335.7022026010568
 20
239.6164113895842
 30
0.0
 10
335.714143704532
 20
239.6428897072168
 30
0.0
 10
335.7195528302542
 20
239.6563408430208
 30
0.0
 10
335.7346769611423
 20
239.6971108018863
 30
0.0
 10
335.7433100182686
 20
239.7248381348495
 30
0.0
 10
335.7589793795865
 20
239.7808956849813
 30
0.0
 10
335.7659815121934
 20
239.809228654368
 30
0.0
 10
335.7788113125222
 20
239.8659186594882
 30
0.0
 10
335.784648297886
 20
239.8943401845029
 30
0.0
 10
335.8009160136186
 20
239.9797693786336
 30
0.0
 10
335.8101256630604
 20
240.0369387326737
 30
0.0
 10
335.8265371431526
 20
240.1515432986683
 30
0.0
 10
335.8337160830398
 20
240.2089815416188
 30
0.0
 10
335.8530749747489
 20
240.3815846527636
 30
0.0
 10
335.863114678261
 20
240.4970329140389
 30
0.0
 10
335.8796685993866
 20
240.7283962507936
 30
0.0
 10
335.8861381867343
 20
240.8443158530597
 30
0.0
 10
335.8913059498945
 20
240.9602656331573
 30
0.0
  0
SPLINE
  5
1B0
330
1F
100
AcDbEntity
  8
1
100
AcDbSpline
210
0.0
220
0.0
230
1.0
 70
     8
 71
     3
 72
     8
 73
     4
 74
     0
 42
0.000000001
 43
0.0000000001
 40
0.0
 40
0.0
 40
0.0
 40
0.0
 40
1.0
 40
1.0
 40
1.0
 40
1.0
 10
335.8227408062207
 20
237.6980963562114
 30
0.0
 10
335.8202907687357
 20
237.698263959242
 30
0.0
 10
335.8178362759477
 20
237.6984341816108
 30
0.0
 10
335.8153779237726
 20
237.6986069867854
 30
0.0
  0
SPLINE
  5
1B1
330
1F
100
AcDbEntity
  8
1
100
AcDbSpline
210
0.0
220
0.0
230
1.0
 70
     8
 71
     3
 72
    19
 73
    15
 74
     0
 42
0.000000001
 43
0.0000000001
 40
0.0
 40
0.0
 40
0.0
 40
0.0
 40
0.2500000000000482
 40
0.2500000000000482
 40
0.3750000000000683
 40
0.3750000000000683
 40
0.5000000000000884
 40
0.6250000000001085
 40
0.6250000000001085
 40
0.6875000000001182
 40
0.6875000000001182
 40
0.7500000000001279
 40
0.7500000000001279
 40
1.0
 40
1.0
 40
1.0
 40
1.0
 10
336.129046375047
 20
237.7599455909475
 30
0.0
 10
336.1163606224454
 20
237.7482231863169
 30
0.0
 10
336.0998208013852
 20
237.7378537211266
 30
0.0
 10
336.0693648273559
 20
237.72456783035
 30
0.0
 10
336.0581678081979
 20
237.7204960717749
 30
0.0
 10
336.0343808484381
 20
237.7133158301654
 30
0.0
 10
336.0091678647579
 20
237.7070595014505
 30
0.0
 10
335.9811597139957
 20
237.7026061050804
 30
0.0
 10
335.9590730313724
 20
237.6999596647851
 30
0.0
 10
335.9515203604403
 20
237.699193925036
 30
0.0
 10
335.9362832222903
 20
237.6979188038088
 30
0.0
 10
335.9285711272055
 20
237.6974056498216
 30
0.0
 10
335.8895532184573
 20
237.6954513237168
 30
0.0
 10
335.856899407793
 20
237.6958330715061
 30
0.0
 10
335.8227408062207
 20
237.6980963562114
 30
0.0
  0
SPLINE
  5
1B2
330
1F
100
AcDbEntity
  8
1
100
AcDbSpline
210
0.0
220
0.0
230
1.0
 70
     8
 71
     3
 72
     8
 73
     4
 74
     0
 42
0.000000001
 43
0.0000000001
 40
0.0
 40
0.0
 40
0.0
 40
0.0
 40
1.0
 40
1.0
 40
1.0
 40
1.0
 10
336.131559322198
 20
237.7623313018634
 30
0.0
 10
336.1307402414222
 20
237.7615371833588
 30
0.0
 10
336.129902514222
 20
237.7607418869923
 30
0.0
 10
336.129046375047
 20
237.7599455909475
 30
0.0
  0
SPLINE
  5
1B3
330
1F
100
AcDbEntity
  8
1
100
AcDbSpline
210
0.0
220
0.0
230
1.0
 70
     8
 71
     3
 72
    10
 73
     6
 74
     0
 42
0.000000001
 43
0.0000000001
 40
0.0
 40
0.0
 40
0.0
 40
0.0
 40
0.5
 40
0.5
 40
1.0
 40
1.0
 40
1.0
 40
1.0
 10
335.8153771236552
 20
237.6986073047718
 30
0.0
 10
335.7021275715797
 20
237.7065680784183
 30
0.0
 10
335.5884551621114
 20
237.7162010370623
 30
0.0
 10
335.3602978978645
 20
237.7388174818419
 30
0.0
 10
335.2459762291492
 20
237.7517866310029
 30
0.0
 10
335.1316202203855
 20
237.7663884186882
 30
0.0
  0
SPLINE
  5
1B4
330
1F
100
AcDbEntity
  8
1
100
AcDbSpline
210
0.0
220
0.0
230
1.0
 70
     8
 71
     3
 72
    16
 73
    12
 74
     0
 42
0.000000001
 43
0.0000000001
 40
0.0
 40
0.0
 40
0.0
 40
0.0
 40
0.1163944876925923
 40
0.231468028030326
 40
0.3452206391271643
 40
0.4576523555409024
 40
0.5687632292165228
 40
0.6785533304659582
 40
0.7870227489876497
 40
0.894171594929613
 40
1.0
 40
1.0
 40
1.0
 40
1.0
 10
335.8153771236568
 20
237.6986073047452
 30
0.0
 10
335.810500720219
 20
237.7719494201125
 30
0.0
 10
335.8008032550726
 20
237.9178012998034
 30
0.0
 10
335.7862834356806
 20
238.1353889767122
 30
0.0
 10
335.7718903677056
 20
238.3505224814542
 30
0.0
 10
335.757621587848
 20
238.5632057065056
 30
0.0
 10
335.7434793985246
 20
238.7734375120667
 30
0.0
 10
335.7294648304577
 20
238.9812176508023
 30
0.0
 10
335.7155776126671
 20
239.1865470864858
 30
0.0
 10
335.7018221036237
 20
239.3894210421497
 30
0.0
 10
335.6926733274732
 20
239.5238779111035
 30
0.0
 10
335.6881273002156
 20
239.5906895349952
 30
0.0
  0
SPLINE
  5
1B5
330
1F
100
AcDbEntity
  8
1
100
AcDbSpline
210
0.0
220
0.0
230
1.0
 70
     8
 71
     3
 72
    24
 73
    20
 74
     0
 42
0.000000001
 43
0.0000000001
 40
0.0
 40
0.0
 40
0.0
 40
0.0
 40
0.0549546209746051
 40
0.1103919402387074
 40
0.1663121591638607
 40
0.2227154734200511
 40
0.2796020731704864
 40
0.336972143258368
 40
0.3948258633860069
 40
0.4531634082867135
 40
0.5119849478897174
 40
0.571290647478535
 40
0.6310806678430389
 40
0.6913551654255464
 40
0.7521142924612036
 40
0.8133581971129105
 40
0.8750870236010849
 40
0.9373009123284308
 40
1.0
 40
1.0
 40
1.0
 40
1.0
 10
331.6190311034175
 20
241.6280285527832
 30
0.0
 10
331.5968930520005
 20
241.5761683822417
 30
0.0
 10
331.552422497829
 20
241.4719925232211
 30
0.0
 10
331.4857247337177
 20
241.3149179691536
 30
0.0
 10
331.4186606901182
 20
241.156384522867
 30
0.0
 10
331.3512514363023
 20
240.9963829244086
 30
0.0
 10
331.2834898782384
 20
240.8349159128229
 30
0.0
 10
331.2153765876342
 20
240.6719829662556
 30
0.0
 10
331.1469100768829
 20
240.5075844438703
 30
0.0
 10
331.0780894378396
 20
240.3417204619025
 30
0.0
 10
331.0089136280176
 20
240.1743911976797
 30
0.0
 10
330.9393816554527
 20
240.0055968106022
 30
0.0
 10
330.8694925617405
 20
239.8353374501767
 30
0.0
 10
330.7992453010883
 20
239.6636133042152
 30
0.0
 10
330.7286392472305
 20
239.4904243951918
 30
0.0
 10
330.6576722650407
 20
239.3157713550141
 30
0.0
 10
330.5863479971422
 20
239.1396524971287
 30
0.0
 10
330.5146483455524
 20
238.9620748736776
 30
0.0
 10
330.4668268242297
 20
238.8431619503658
 30
0.0
 10
330.4428231871022
 20
238.7834745422282
 30
0.0
  0
SPLINE
  5
1B6
330
1F
100
AcDbEntity
  8
1
100
AcDbSpline
210
0.0
220
0.0
230
1.0
 70
     8
 71
     3
 72
    19
 73
    15
 74
     0
 42
0.000000001
 43
0.0000000001
 40
0.0
 40
0.0
 40
0.0
 40
0.0
 40
0.2499999999999281
 40
0.2499999999999281
 40
0.3749999999999284
 40
0.3749999999999284
 40
0.4999999999999288
 40
0.6249999999999291
 40
0.6249999999999291
 40
0.6874999999999495
 40
0.6874999999999495
 40
0.7499999999999699
 40
0.7499999999999699
 40
1.0
 40
1.0
 40
1.0
 40
1.0
 10
330.4362771377057
 20
255.1324838058682
 30
0.0
 10
330.4040611105163
 20
255.1193053912062
 30
0.0
 10
330.374174209742
 20
255.102285967808
 30
0.0
 10
330.3327525071903
 20
255.071142726306
 30
0.0
 10
330.3194354366311
 20
255.0597210287542
 30
0.0
 10
330.2946391574551
 20
255.0354978524493
 30
0.0
 10
330.2715798533307
 20
255.0098625649837
 30
0.0
 10
330.2519496100817
 20
254.9814400990601
 30
0.0
 10
330.2385436238737
 20
254.9590528231442
 30
0.0
 10
330.2342920386881
 20
254.9514000865477
 30
0.0
 10
330.2263586134192
 20
254.9359689633278
 30
0.0
 10
330.2226590218929
 20
254.9281628724543
 30
0.0
 10
330.2054665422975
 20
254.8886901530194
 30
0.0
 10
330.1958252573687
 20
254.8557185143862
 30
0.0
 10
330.1904421358857
 20
254.8213069413226
 30
0.0
  0
SPLINE
  5
1B7
330
1F
100
AcDbEntity
  8
1
100
AcDbSpline
210
0.0
220
0.0
230
1.0
 70
     8
 71
     3
 72
     8
 73
     4
 74
     0
 42
0.000000001
 43
0.0000000001
 40
0.0
 40
0.0
 40
0.0
 40
0.0
 40
1.0
 40
1.0
 40
1.0
 40
1.0
 10
330.1904421358857
 20
254.8213069413226
 30
0.0
 10
330.1900580927267
 20
254.8188376659338
 30
0.0
 10
330.1896941385934
 20
254.8163659610601
 30
0.0
 10
330.1893504177105
 20
254.8138924325325
 30
0.0
  0
SPLINE
  5
1B8
330
1F
100
AcDbEntity
  8
1
100
AcDbSpline
210
0.0
220
0.0
230
1.0
 70
     8
 71
     3
 72
    10
 73
     6
 74
     0
 42
0.000000001
 43
0.0000000001
 40
0.0
 40
0.0
 40
0.0
 40
0.0
 40
0.5
 40
0.5
 40
1.0
 40
1.0
 40
1.0
 40
1.0
 10
330.1893715075785
 20
254.8138906681912
 30
0.0
 10
330.1735460086503
 20
254.6999350002382
 30
0.0
 10
330.1616644457681
 20
254.5856130142078
 30
0.0
 10
330.1457973381872
 20
254.3562676982258
 30
0.0
 10
330.1418276175798
 20
254.2414084517385
 30
0.0
 10
330.1418276175798
 20
254.1265733017844
 30
0.0
  0
SPLINE
  5
1B9
330
1F
100
AcDbEntity
  8
1
100
AcDbSpline
210
0.0
220
0.0
230
1.0
 70
     8
 71
     3
 72
     8
 73
     4
 74
     0
 42
0.000000001
 43
0.0000000001
 40
0.0
 40
0.0
 40
0.0
 40
0.0
 40
1.0
 40
1.0
 40
1.0
 40
1.0
 10
330.1418276175798
 20
254.1265733017844
 30
0.0
 10
330.1418276175798
 20
253.794420845402
 30
0.0
 10
330.1655619178164
 20
253.4628065468831
 30
0.0
 10
330.212814311548
 20
253.134751232522
 30
0.0
  0
SPLINE
  5
1BA
330
1F
100
AcDbEntity
  8
1
100
AcDbSpline
210
0.0
220
0.0
230
1.0
 70
     8
 71
     3
 72
    14
 73
    10
 74
     0
 42
0.000000001
 43
0.0000000001
 40
0.0
 40
0.0
 40
0.0
 40
0.0
 40
0.2154707839084928
 40
0.2154707839084928
 40
0.4309415678169858
 40
0.4309415678169858
 40
0.8618831356339736
 40
0.8618831356339736
 40
1.0
 40
1.0
 40
1.0
 40
1.0
 10
330.212814311548
 20
253.134751232522
 30
0.0
 10
330.2356077134581
 20
252.9765053525043
 30
0.0
 10
330.2605164447868
 20
252.818636707284
 30
0.0
 10
330.3145631668041
 20
252.5036535596579
 30
0.0
 10
330.3437035349235
 20
252.3465337919967
 30
0.0
 10
330.437380599918
 20
251.8767665528325
 30
0.0
 10
330.5081935621711
 20
251.565556008509
 30
0.0
 10
330.6127574470258
 20
251.1572037892698
 30
0.0
 10
330.6389799694024
 20
251.0583593679337
 30
0.0
 10
330.6660435681556
 20
250.9597872527426
 30
0.0
  0
SPLINE
  5
1BB
330
1F
100
AcDbEntity
  8
1
100
AcDbSpline
210
0.0
220
0.0
230
1.0
 70
     8
 71
     3
 72
     8
 73
     4
 74
     0
 42
0.000000001
 43
0.0000000001
 40
0.0
 40
0.0
 40
0.0
 40
0.0
 40
1.0
 40
1.0
 40
1.0
 40
1.0
 10
330.4428215799279
 20
255.1350968230093
 30
0.0
 10
330.4406343484652
 20
255.1342427112576
 30
0.0
 10
330.4384527132095
 20
255.1333716264983
 30
0.0
 10
330.4362771377057
 20
255.1324838058682
 30
0.0
  0
SPLINE
  5
1BC
330
1F
100
AcDbEntity
  8
1
100
AcDbSpline
210
0.0
220
0.0
230
1.0
 70
     8
 71
     3
 72
    16
 73
    12
 74
     0
 42
0.000000001
 43
0.0000000001
 40
0.0
 40
0.0
 40
0.0
 40
0.0
 40
0.1249999999999962
 40
0.1249999999999962
 40
0.2499999999999923
 40
0.2499999999999923
 40
0.4999999999999949
 40
0.4999999999999949
 40
0.7499999999999975
 40
0.7499999999999975
 40
1.0
 40
1.0
 40
1.0
 40
1.0
 10
334.1429031201511
 20
256.1408760300617
 30
0.0
 10
333.9849857994084
 20
256.1156799599089
 30
0.0
 10
333.8274132516047
 20
256.0883647202338
 30
0.0
 10
333.5129575435465
 20
256.0294973250254
 30
0.0
 10
333.3560691053892
 20
255.9979427049879
 30
0.0
 10
332.8868982380033
 20
255.8970185157329
 30
0.0
 10
332.5759554914836
 20
255.8213659692653
 30
0.0
 10
331.9577504390232
 20
255.6533003809563
 30
0.0
 10
331.6511194670359
 20
255.5610558146237
 30
0.0
 10
331.0431089601406
 20
255.360307326867
 30
0.0
 10
330.7416752186143
 20
255.251788727121
 30
0.0
 10
330.4428231871236
 20
255.1350928068631
 30
0.0
  0
SPLINE
  5
1BD
330
1F
100
AcDbEntity
  8
1
100
AcDbSpline
210
0.0
220
0.0
230
1.0
 70
     8
 71
     3
 72
     8
 73
     4
 74
     0
 42
0.000000001
 43
0.0000000001
 40
0.0
 40
0.0
 40
0.0
 40
0.0
 40
1.0
 40
1.0
 40
1.0
 40
1.0
 10
335.1316202203855
 20
256.226605310191
 30
0.0
 10
334.8008534635804
 20
256.221772794218
 30
0.0
 10
334.4702773070402
 20
256.1931093312617
 30
0.0
 10
334.1429031201511
 20
256.1408760300617
 30
0.0
  0
SPLINE
  5
1BE
330
1F
100
AcDbEntity
  8
1
100
AcDbSpline
210
0.0
220
0.0
230
1.0
 70
     8
 71
     3
 72
     8
 73
     4
 74
     0
 42
0.000000001
 43
0.0000000001
 40
0.0
 40
0.0
 40
0.0
 40
0.0
 40
1.0
 40
1.0
 40
1.0
 40
1.0
 10
335.8227408062207
 20
256.1878639532487
 30
0.0
 10
335.8202907687357
 20
256.188214160942
 30
0.0
 10
335.8178362759477
 20
256.1885438861444
 30
0.0
 10
335.8153779237726
 20
256.1888529921531
 30
0.0
  0
SPLINE
  5
1BF
330
1F
100
AcDbEntity
  8
1
100
AcDbSpline
210
0.0
220
0.0
230
1.0
 70
     8
 71
     3
 72
    10
 73
     6
 74
     0
 42
0.000000001
 43
0.0000000001
 40
0.0
 40
0.0
 40
0.0
 40
0.0
 40
0.5
 40
0.5
 40
1.0
 40
1.0
 40
1.0
 40
1.0
 10
335.8153771236552
 20
256.1888498216341
 30
0.0
 10
335.7021275715797
 20
256.2030880979451
 30
0.0
 10
335.5884551621114
 20
256.2133591414444
 30
0.0
 10
335.3602978978645
 20
256.2259598745517
 30
0.0
 10
335.2459762291492
 20
256.2282760562003
 30
0.0
 10
335.1316202203855
 20
256.226605310191
 30
0.0
  0
SPLINE
  5
1C0
330
1F
100
AcDbEntity
  8
1
100
AcDbSpline
210
0.0
220
0.0
230
1.0
 70
     8
 71
     3
 72
    19
 73
    15
 74
     0
 42
0.000000001
 43
0.0000000001
 40
0.0
 40
0.0
 40
0.0
 40
0.0
 40
0.2500000000000578
 40
0.2500000000000578
 40
0.3750000000000817
 40
0.3750000000000817
 40
0.5000000000001056
 40
0.6250000000001295
 40
0.6250000000001295
 40
0.6875000000001382
 40
0.6875000000001382
 40
0.7500000000001469
 40
0.7500000000001469
 40
1.0
 40
1.0
 40
1.0
 40
1.0
 10
336.129046375047
 20
255.9454808492595
 30
0.0
 10
336.1163606224454
 20
255.9776410442084
 30
0.0
 10
336.0998208013852
 20
256.0074276033154
 30
0.0
 10
336.069364827356
 20
256.0485747323435
 30
0.0
 10
336.058167808198
 20
256.0617781939984
 30
0.0
 10
336.0343808484381
 20
256.086315575639
 30
0.0
 10
336.0091678647579
 20
256.1090872049642
 30
0.0
 10
335.9811597139957
 20
256.1283999860947
 30
0.0
 10
335.9590730313724
 20
256.1415483683106
 30
0.0
 10
335.9515203604403
 20
256.1457098753755
 30
0.0
 10
335.9362832222903
 20
256.1534581141988
 30
0.0
 10
335.9285711272055
 20
256.157062408492
 30
0.0
 10
335.8895532184573
 20
256.1737627735615
 30
0.0
 10
335.856899407793
 20
256.182955804165
 30
0.0
 10
335.8227408062207
 20
256.1878639532487
 30
0.0
  0
SPLINE
  5
1C1
330
1F
100
AcDbEntity
  8
1
100
AcDbSpline
210
0.0
220
0.0
230
1.0
 70
     8
 71
     3
 72
     8
 73
     4
 74
     0
 42
0.000000001
 43
0.0000000001
 40
0.0
 40
0.0
 40
0.0
 40
0.0
 40
1.0
 40
1.0
 40
1.0
 40
1.0
 10
337.1502942095997
 20
251.2454016019402
 30
0.0
 10
337.1502942095997
 20
251.5775540583226
 30
0.0
 10
337.1265599093632
 20
251.9091683568415
 30
0.0
 10
337.0793075156315
 20
252.2372236712026
 30
0.0
  0
SPLINE
  5
1C2
330
1F
100
AcDbEntity
  8
1
100
AcDbSpline
210
0.0
220
0.0
230
1.0
 70
     8
 71
     3
 72
     8
 73
     4
 74
     0
 42
0.000000001
 43
0.0000000001
 40
0.0
 40
0.0
 40
0.0
 40
0.0
 40
1.0
 40
1.0
 40
1.0
 40
1.0
 10
336.131559322198
 20
255.9389432474567
 30
0.0
 10
336.1307402414222
 20
255.9411287250115
 30
0.0
 10
336.129902514222
 20
255.9433080796144
 30
0.0
 10
336.129046375047
 20
255.9454808492595
 30
0.0
  0
SPLINE
  5
1C3
330
1F
100
AcDbEntity
  8
1
100
AcDbSpline
210
0.0
220
0.0
230
1.0
 70
     8
 71
     3
 72
    16
 73
    12
 74
     0
 42
0.000000001
 43
0.0000000001
 40
0.0
 40
0.0
 40
0.0
 40
0.0
 40
0.125
 40
0.125
 40
0.25
 40
0.25
 40
0.5
 40
0.5
 40
0.75
 40
0.75
 40
1.0
 40
1.0
 40
1.0
 40
1.0
 10
337.0793075156315
 20
252.2372236712026
 30
0.0
 10
337.056514208669
 20
252.3954688920353
 30
0.0
 10
337.0316054626272
 20
252.5533369764014
 30
0.0
 10
336.9775586586734
 20
252.8683190742486
 30
0.0
 10
336.9484182231122
 20
253.0254383541719
 30
0.0
 10
336.85474105742
 20
253.4952041065338
 30
0.0
 10
336.7839281870678
 20
253.8064136091258
 30
0.0
 10
336.6255589792577
 20
254.4248922336822
 30
0.0
 10
336.5381612202395
 20
254.7315297250417
 30
0.0
 10
336.3470981132792
 20
255.3392936551963
 30
0.0
 10
336.2434189342587
 20
255.6404743361419
 30
0.0
 10
336.1315586713695
 20
255.9389429369548
 30
0.0
  0
SPLINE
  5
1C4
330
1F
100
AcDbEntity
  8
1
100
AcDbSpline
210
0.0
220
0.0
230
1.0
 70
     8
 71
     3
 72
     8
 73
     4
 74
     0
 42
0.000000001
 43
0.0000000001
 40
0.0
 40
0.0
 40
0.0
 40
0.0
 40
1.0
 40
1.0
 40
1.0
 40
1.0
 10
337.1016741405857
 20
250.5506721135297
 30
0.0
 10
337.1020621959655
 20
250.5531383883573
 30
0.0
 10
337.1024281789537
 20
250.5556085759405
 30
0.0
 10
337.1027719390328
 20
250.558082075155
 30
0.0
  0
SPLINE
  5
1C5
330
1F
100
AcDbEntity
  8
1
100
AcDbSpline
210
0.0
220
0.0
230
1.0
 70
     8
 71
     3
 72
    10
 73
     6
 74
     0
 42
0.000000001
 43
0.0000000001
 40
0.0
 40
0.0
 40
0.0
 40
0.0
 40
0.5
 40
0.5
 40
1.0
 40
1.0
 40
1.0
 40
1.0
 10
337.1027485678151
 20
250.5580855456142
 30
0.0
 10
337.1185748291438
 20
250.6720406434021
 30
0.0
 10
337.1304562251996
 20
250.7863627541949
 30
0.0
 10
337.1463238274707
 20
251.0157077002208
 30
0.0
 10
337.1502942095997
 20
251.1305664519858
 30
0.0
 10
337.1502942095997
 20
251.2454016019402
 30
0.0
  0
SPLINE
  5
1C6
330
1F
100
AcDbEntity
  8
1
100
AcDbSpline
210
0.0
220
0.0
230
1.0
 70
     8
 71
     3
 72
    19
 73
    15
 74
     0
 42
0.000000001
 43
0.0000000001
 40
0.0
 40
0.0
 40
0.0
 40
0.0
 40
0.2500000000000298
 40
0.2500000000000298
 40
0.3750000000000447
 40
0.3750000000000447
 40
0.5000000000000596
 40
0.6250000000000746
 40
0.6250000000000746
 40
0.6875000000000563
 40
0.6875000000000563
 40
0.7500000000000381
 40
0.7500000000000381
 40
1.0
 40
1.0
 40
1.0
 40
1.0
 10
336.8558395317465
 20
250.2394949550935
 30
0.0
 10
336.8880195389177
 20
250.2527003075238
 30
0.0
 10
336.9178655028053
 20
250.2697503457975
 30
0.0
 10
336.9592355037273
 20
250.3009322526471
 30
0.0
 10
336.9725364737295
 20
250.3123659910888
 30
0.0
 10
336.9973082781838
 20
250.3366074709484
 30
0.0
 10
337.0203507202632
 20
250.362255368787
 30
0.0
 10
337.0399966937857
 20
250.3906660707389
 30
0.0
 10
337.0534205674885
 20
250.4130399693934
 30
0.0
 10
337.0576791776684
 20
250.4206874523092
 30
0.0
 10
337.0656278615575
 20
250.4361071642861
 30
0.0
 10
337.0693357067448
 20
250.4439070826138
 30
0.0
 10
337.0865716086581
 20
250.4833473284295
 30
0.0
 10
337.0962553526888
 20
250.5162872137899
 30
0.0
 10
337.1016741405857
 20
250.5506721135297
 30
0.0
  0
SPLINE
  5
1C7
330
1F
100
AcDbEntity
  8
1
100
AcDbSpline
210
0.0
220
0.0
230
1.0
 70
     8
 71
     3
 72
     8
 73
     4
 74
     0
 42
0.000000001
 43
0.0000000001
 40
0.0
 40
0.0
 40
0.0
 40
0.0
 40
1.0
 40
1.0
 40
1.0
 40
1.0
 10
336.375851292308
 20
250.0596202639149
 30
0.0
 10
336.5343796021639
 20
250.1164509054763
 30
0.0
 10
336.6921959047545
 20
250.1755365672703
 30
0.0
 10
336.849298638698
 20
250.2368820978796
 30
0.0
  0
SPLINE
  5
1C8
330
1F
100
AcDbEntity
  8
1
100
AcDbSpline
210
0.0
220
0.0
230
1.0
 70
     8
 71
     3
 72
     8
 73
     4
 74
     0
 42
0.000000001
 43
0.0000000001
 40
0.0
 40
0.0
 40
0.0
 40
0.0
 40
1.0
 40
1.0
 40
1.0
 40
1.0
 10
336.8493007117002
 20
250.2368777333777
 30
0.0
 10
336.851487939601
 20
250.237731847793
 30
0.0
 10
336.8536676989297
 20
250.2386043354745
 30
0.0
 10
336.8558395317465
 20
250.2394949550935
 30
0.0
  0
SPLINE
  5
1C9
330
1F
100
AcDbEntity
  8
1
100
AcDbSpline
210
0.0
220
0.0
230
1.0
 70
     8
 71
     3
 72
    11
 73
     7
 74
     0
 42
0.000000001
 43
0.0000000001
 40
0.0
 40
0.0
 40
0.0
 40
0.0
 40
0.25
 40
0.5
 40
0.7499999999999999
 40
1.0
 40
1.0
 40
1.0
 40
1.0
 10
336.8077716588986
 20
250.3549790017942
 30
0.0
 10
336.8325648234686
 20
250.3648440258204
 30
0.0
 10
336.872885433107
 20
250.3872440166763
 30
0.0
 10
336.9250641673705
 20
250.437343177966
 30
0.0
 10
336.9617215947188
 20
250.4996405699802
 30
0.0
 10
336.9741802419808
 20
250.5440838379907
 30
0.0
 10
336.9780602284015
 20
250.5705262826611
 30
0.0
  0
SPLINE
  5
1CA
330
1F
100
AcDbEntity
  8
1
100
AcDbSpline
210
0.0
220
0.0
230
1.0
 70
    12
 71
     3
 72
     8
 73
     4
 74
     0
 42
0.000000001
 43
0.0000000001
 40
0.0
 40
0.0
 40
0.0
 40
0.0
 40
1.0
 40
1.0
 40
1.0
 40
1.0
 10
336.9780602284015
 20
250.5705262826611
 30
0.0
 41
1.0
 10
337.0097848279278
 20
250.7965959106568
 30
0.0
 41
0.9983588147778226
 10
337.0254035404486
 20
251.0199337803901
 30
0.0
 41
0.9983588147778226
 10
337.0254035404486
 20
251.2481867532456
 30
0.0
 41
1.0
  0
SPLINE
  5
1CB
330
1F
100
AcDbEntity
  8
1
100
AcDbSpline
210
0.0
220
0.0
230
1.0
 70
    12
 71
     3
 72
     8
 73
     4
 74
     0
 42
0.000000001
 43
0.0000000001
 40
0.0
 40
0.0
 40
0.0
 40
0.0
 40
1.0
 40
1.0
 40
1.0
 40
1.0
 10
337.0254035404487
 20
251.2481867532456
 30
0.0
 41
1.0
 10
337.0254035404486
 20
251.5764212516439
 30
0.0
 41
0.9982883558074163
 10
337.0023308197407
 20
251.8987919991305
 30
0.0
 41
0.9982883558074158
 10
336.95563579916
 20
252.2229776846792
 30
0.0
 41
1.0
  0
SPLINE
  5
1CC
330
1F
100
AcDbEntity
  8
1
100
AcDbSpline
210
0.0
220
0.0
230
1.0
 70
    12
 71
     3
 72
     8
 73
     4
 74
     0
 42
0.000000001
 43
0.0000000001
 40
0.0
 40
0.0
 40
0.0
 40
0.0
 40
1.0
 40
1.0
 40
1.0
 40
1.0
 10
336.9556357991601
 20
252.2229776846792
 30
0.0
 41
1.0
 10
336.7735996776902
 20
253.4867849193594
 30
0.0
 41
0.9961442649237252
 10
336.4589155261888
 20
254.7148648357995
 30
0.0
 41
0.9961442649237252
 10
336.0118951535355
 20
255.9061741674061
 30
0.0
 41
1.0
  0
SPLINE
  5
1CD
330
1F
100
AcDbEntity
  8
1
100
AcDbSpline
210
0.0
220
0.0
230
1.0
 70
     8
 71
     3
 72
    13
 73
     9
 74
     0
 42
0.000000001
 43
0.0000000001
 40
0.0
 40
0.0
 40
0.0
 40
0.0
 40
0.1249999999999969
 40
0.2500000000000001
 40
0.5
 40
0.75
 40
0.8750000000000031
 40
1.0
 40
1.0
 40
1.0
 40
1.0
 10
336.0118951535355
 20
255.9061741674061
 30
0.0
 10
336.0071271505142
 20
255.9186464298598
 30
0.0
 10
335.997655962822
 20
255.9395327245316
 30
0.0
 10
335.9718724394635
 20
255.9808252392653
 30
0.0
 10
335.9316187093241
 20
256.0225785778507
 30
0.0
 10
335.8814448370322
 20
256.0521550708032
 30
0.0
 10
335.8351947481256
 20
256.0679140042365
 30
0.0
 10
335.8128609773703
 20
256.0723192224916
 30
0.0
 10
335.7997166280581
 20
256.0740753953511
 30
0.0
  0
SPLINE
  5
1CE
330
1F
100
AcDbEntity
  8
1
100
AcDbSpline
210
0.0
220
0.0
230
1.0
 70
    12
 71
     3
 72
     8
 73
     4
 74
     0
 42
0.000000001
 43
0.0000000001
 40
0.0
 40
0.0
 40
0.0
 40
0.0
 40
1.0
 40
1.0
 40
1.0
 40
1.0
 10
335.7997166280581
 20
256.0740753953511
 30
0.0
 41
1.0
 10
335.5750496128564
 20
256.1026671729301
 30
0.0
 41
0.9983588124248205
 10
335.3528751883225
 20
256.1151050361009
 30
0.0
 41
0.9983588124248207
 10
335.125574295778
 20
256.1117841606765
 30
0.0
 41
1.0
  0
SPLINE
  5
1CF
330
1F
100
AcDbEntity
  8
1
100
AcDbSpline
210
0.0
220
0.0
230
1.0
 70
    12
 71
     3
 72
     8
 73
     4
 74
     0
 42
0.000000001
 43
0.0000000001
 40
0.0
 40
0.0
 40
0.0
 40
0.0
 40
1.0
 40
1.0
 40
1.0
 40
1.0
 10
335.125574295778
 20
256.1117841606765
 30
0.0
 41
1.0
 10
334.7987091517136
 20
256.1070086474268
 30
0.0
 41
0.9982883558074162
 10
334.4773476086173
 20
256.0791441614739
 30
0.0
 41
0.9982883558074162
 10
334.1538350161928
 20
256.0275269865137
 30
0.0
 41
1.0
  0
SPLINE
  5
1D0
330
1F
100
AcDbEntity
  8
1
100
AcDbSpline
210
0.0
220
0.0
230
1.0
 70
    12
 71
     3
 72
     8
 73
     4
 74
     0
 42
0.000000001
 43
0.0000000001
 40
0.0
 40
0.0
 40
0.0
 40
0.0
 40
1.0
 40
1.0
 40
1.0
 40
1.0
 10
334.1538350161928
 20
256.0275269865137
 30
0.0
 41
1.0
 10
332.8926476866642
 20
255.8263016599878
 30
0.0
 41
0.996144240068283
 10
331.6651089354168
 20
255.4923633414083
 30
0.0
 41
0.996144240068283
 10
330.4722583190679
 20
255.0260388577907
 30
0.0
 41
1.0
  0
SPLINE
  5
1D1
330
1F
100
AcDbEntity
  8
1
100
AcDbSpline
210
0.0
220
0.0
230
1.0
 70
     8
 71
     3
 72
    11
 73
     7
 74
     0
 42
0.000000001
 43
0.0000000001
 40
0.0
 40
0.0
 40
0.0
 40
0.0
 40
0.2499999999999969
 40
0.5
 40
0.7500000000000031
 40
1.0
 40
1.0
 40
1.0
 40
1.0
 10
330.4722583190679
 20
255.0260388577907
 30
0.0
 10
330.4474651544975
 20
255.0161738337643
 30
0.0
 10
330.4071445448585
 20
254.9937738429084
 30
0.0
 10
330.3549658105944
 20
254.9436746816187
 30
0.0
 10
330.3183083832458
 20
254.8813772896045
 30
0.0
 10
330.3058497359838
 20
254.8369340215942
 30
0.0
 10
330.3019697495633
 20
254.8104915769234
 30
0.0
  0
SPLINE
  5
1D2
330
1F
100
AcDbEntity
  8
1
100
AcDbSpline
210
0.0
220
0.0
230
1.0
 70
    12
 71
     3
 72
     8
 73
     4
 74
     0
 42
0.000000001
 43
0.0000000001
 40
0.0
 40
0.0
 40
0.0
 40
0.0
 40
1.0
 40
1.0
 40
1.0
 40
1.0
 10
330.3019697495633
 20
254.8104915769234
 30
0.0
 41
1.0
 10
330.2702451500368
 20
254.5844219489274
 30
0.0
 41
0.9983588147778219
 10
330.254626437516
 20
254.3610840791941
 30
0.0
 41
0.9983588147778219
 10
330.254626437516
 20
254.1328311063386
 30
0.0
 41
1.0
  0
SPLINE
  5
1D3
330
1F
100
AcDbEntity
  8
1
100
AcDbSpline
210
0.0
220
0.0
230
1.0
 70
    12
 71
     3
 72
     8
 73
     4
 74
     0
 42
0.000000001
 43
0.0000000001
 40
0.0
 40
0.0
 40
0.0
 40
0.0
 40
1.0
 40
1.0
 40
1.0
 40
1.0
 10
330.254626437516
 20
254.1328311063386
 30
0.0
 41
1.0
 10
330.254626437516
 20
253.8045966079402
 30
0.0
 41
0.9982883558074163
 10
330.277699158224
 20
253.4822258604537
 30
0.0
 41
0.9982883558074162
 10
330.3243941788047
 20
253.1580401749049
 30
0.0
 41
1.0
  0
SPLINE
  5
1D4
330
1F
100
AcDbEntity
  8
1
100
AcDbSpline
210
0.0
220
0.0
230
1.0
 70
    12
 71
     3
 72
     8
 73
     4
 74
     0
 42
0.000000001
 43
0.0000000001
 40
0.0
 40
0.0
 40
0.0
 40
0.0
 40
1.0
 40
1.0
 40
1.0
 40
1.0
 10
330.3243941788047
 20
253.1580401749049
 30
0.0
 41
1.0
 10
330.4315402720112
 20
252.4141657906954
 30
0.0
 41
0.9977269091002572
 10
330.5849586362189
 20
251.6813077361334
 30
0.0
 41
0.9967938762772606
 10
330.7848447961228
 20
250.9597462253689
 30
0.0
 41
0.9972009015310103
  0
SPLINE
  5
1D5
330
1F
100
AcDbEntity
  8
1
100
AcDbSpline
210
0.0
220
0.0
230
1.0
 70
    12
 71
     3
 72
     8
 73
     4
 74
     0
 42
0.000000001
 43
0.0000000001
 40
0.0
 40
0.0
 40
0.0
 40
0.0
 40
1.0
 40
1.0
 40
1.0
 40
1.0
 10
336.3210841994223
 20
250.172774845551
 30
0.0
 41
0.9986425098760467
 10
336.4840970431654
 20
250.2311275797379
 30
0.0
 41
0.9990239033861447
 10
336.6463263919648
 20
250.2918647444818
 30
0.0
 41
0.9994764000941291
 10
336.8077716588986
 20
250.3549790017942
 30
0.0
 41
1.0
  0
LINE
  5
1D6
330
1F
100
AcDbEntity
  8
4
100
AcDbLine
 10
340.144248
 20
243.731161
 30
0.0
 11
228.244248
 21
243.731161
 31
0.0
  0
LINE
  5
1D7
330
1F
100
AcDbEntity
  8
SK4
100
AcDbLine
 10
142.644248
 20
243.731161
 30
0.0
 11
240.144248
 21
243.731161
 31
0.0
  0
MTEXT
  5
1D8
330
1F
100
AcDbEntity
  8
SK6
100
AcDbMText
 10
192.513213
 20
212.002455
 30
0.0
 40
3.5
 41
0.0
 71
     7
 72
     5
  1
\W0.7405;25E3R100A25-SZD07
  7
cesky
 73
     2
 44
0.8433729999999998
  0
MTEXT
  5
2D1
330
1F
100
AcDbEntity
  8
2
100
AcDbMText
 10
353.975883
 20
240.329284
 30
0.0
 40
3.5
 41
0.0
 71
     7
 72
     5
  1
\W0.7045;25
  7
cesky
 11
0.0000000000000001
 21
1.0
 31
0.0
 73
     2
 44
0.8433729999999998
  0
MTEXT
  5
2D2
330
1F
100
AcDbEntity
  8
2
100
AcDbMText
 10
353.975883
 20
233.591784
 30
0.0
 40
3.5
 41
0.0
 71
     7
 72
     5
  1
\W3.0115;\H2.63;%%c\H3.50;
  7
cesky
 11
0.0000000000000001
 21
1.0
 31
0.0
 73
     2
 44
0.8433729999999998
  0
LINE
  5
2D3
330
1F
100
AcDbEntity
  8
2
100
AcDbLine
 10
339.144248
 20
256.231161
 30
0.0
 11
355.163299
 21
256.231161
 31
0.0
  0
LINE
  5
2D4
330
1F
100
AcDbEntity
  8
2
100
AcDbLine
 10
354.163299
 20
256.231161
 30
0.0
 11
354.163299
 21
233.434284
 31
0.0
  0
SOLID
  5
2D5
330
1F
100
AcDbEntity
  8
2
100
AcDbTrace
 10
354.163299
 20
256.231161
 30
0.0
 11
354.780444
 21
252.731164
 31
0.0
 12
353.546155
 22
252.731159
 32
0.0
 13
353.546155
 23
252.731159
 33
0.0
  0
MTEXT
  5
2D6
330
1F
100
AcDbEntity
  8
2
100
AcDbMText
 10
284.067248
 20
276.518751
 30
0.0
 40
3.5
 41
0.0
 71
     7
 72
     5
  1
\W0.7809;100
  7
cesky
 73
     2
 44
0.8433729999999998
  0
LINE
  5
2D7
330
1F
100
AcDbEntity
  8
2
100
AcDbLine
 10
237.144248
 20
243.731161
 30
0.0
 11
237.144248
 21
277.644584
 31
0.0
  0
LINE
  5
2D8
330
1F
100
AcDbEntity
  8
2
100
AcDbLine
 10
337.144248
 20
258.231161
 30
0.0
 11
337.144248
 21
277.644584
 31
0.0
  0
LINE
  5
2D9
330
1F
100
AcDbEntity
  8
2
100
AcDbLine
 10
237.144248
 20
276.644584
 30
0.0
 11
337.144248
 21
276.644584
 31
0.0
  0
SOLID
  5
2DA
330
1F
100
AcDbEntity
  8
2
100
AcDbTrace
 10
237.144248
 20
276.644584
 30
0.0
 11
240.644246
 21
277.261729
 31
0.0
 12
240.644251
 22
276.02744
 32
0.0
 13
240.644251
 23
276.02744
 33
0.0
  0
SOLID
  5
2DB
330
1F
100
AcDbEntity
  8
2
100
AcDbTrace
 10
337.144248
 20
276.644584
 30
0.0
 11
333.644251
 21
276.02744
 31
0.0
 12
333.644246
 22
277.261729
 32
0.0
 13
333.644246
 23
277.261729
 33
0.0
  0
MTEXT
  5
2DC
330
1F
100
AcDbEntity
  8
2
100
AcDbMText
 10
328.339546
 20
260.082815
 30
0.0
 40
3.5
 41
0.0
 71
     7
 72
     5
  1
\W1.7063;1
  7
cesky
 73
     2
 44
0.8433729999999998
  0
LINE
  5
2DD
330
1F
100
AcDbEntity
  8
2
100
AcDbLine
 10
337.144248
 20
258.231161
 30
0.0
 11
337.144248
 21
261.208648
 31
0.0
  0
LINE
  5
2DE
330
1F
100
AcDbEntity
  8
2
100
AcDbLine
 10
336.129046
 20
255.94649
 30
0.0
 11
336.129046
 21
261.208648
 31
0.0
  0
LINE
  5
2DF
330
1F
100
AcDbEntity
  8
2
100
AcDbLine
 10
328.154046
 20
260.208648
 30
0.0
 11
345.894248
 21
260.208648
 31
0.0
  0
SOLID
  5
2E0
330
1F
100
AcDbEntity
  8
2
100
AcDbTrace
 10
337.144248
 20
260.208648
 30
0.0
 11
340.644246
 21
260.825792
 31
0.0
 12
340.644251
 22
259.591504
 32
0.0
 13
340.644251
 23
259.591504
 33
0.0
  0
SOLID
  5
2E1
330
1F
100
AcDbEntity
  8
2
100
AcDbTrace
 10
336.129046
 20
260.208648
 30
0.0
 11
332.629049
 21
259.591504
 31
0.0
 12
332.629044
 22
260.825792
 32
0.0
 13
332.629044
 23
260.825792
 33
0.0
  0
MTEXT
  5
2E2
330
1F
100
AcDbEntity
  8
SK2
100
AcDbMText
 10
135.429278
 20
245.257411
 30
0.0
 40
3.5
 41
0.0
 71
     7
 72
     5
  1
\W0.7045;25
  7
cesky
 11
0.0000000000000001
 21
1.0
 31
0.0
 73
     2
 44
0.8433729999999998
  0
MTEXT
  5
2E3
330
1F
100
AcDbEntity
  8
SK2
100
AcDbMText
 10
135.429278
 20
238.519911
 30
0.0
 40
3.5
 41
0.0
 71
     7
 72
     5
  1
\W3.0115;\H2.63;%%c\H3.50;
  7
cesky
 11
0.0000000000000001
 21
1.0
 31
0.0
 73
     2
 44
0.8433729999999998
  0
LINE
  5
2E4
330
1F
100
AcDbEntity
  8
SK2
100
AcDbLine
 10
148.144248
 20
256.231161
 30
0.0
 11
134.616695
 21
256.231161
 31
0.0
  0
LINE
  5
2E5
330
1F
100
AcDbEntity
  8
SK2
100
AcDbLine
 10
148.144248
 20
231.231161
 30
0.0
 11
134.616695
 21
231.231161
 31
0.0
  0
LINE
  5
2E6
330
1F
100
AcDbEntity
  8
SK2
100
AcDbLine
 10
135.616695
 20
256.231161
 30
0.0
 11
135.616695
 21
231.231161
 31
0.0
  0
SOLID
  5
2E7
330
1F
100
AcDbEntity
  8
SK2
100
AcDbTrace
 10
135.616695
 20
256.231161
 30
0.0
 11
136.233839
 21
252.731164
 31
0.0
 12
134.999551
 22
252.731159
 32
0.0
 13
134.999551
 23
252.731159
 33
0.0
  0
SOLID
  5
2E8
330
1F
100
AcDbEntity
  8
SK2
100
AcDbTrace
 10
135.616695
 20
231.231161
 30
0.0
 11
134.999551
 21
234.731159
 31
0.0
 12
136.233839
 22
234.731164
 32
0.0
 13
136.233839
 23
234.731164
 33
0.0
  0
MTEXT
  5
2E9
330
1F
100
AcDbEntity
  8
SK2
100
AcDbMText
 10
239.067248
 20
299.059456
 30
0.0
 40
3.5
 41
0.0
 71
     7
 72
     5
  1
\W0.7809;190
  7
cesky
 73
     2
 44
0.8433729999999998
  0
LINE
  5
2EA
330
1F
100
AcDbEntity
  8
SK2
100
AcDbLine
 10
147.144248
 20
255.231161
 30
0.0
 11
147.144248
 21
300.185289
 31
0.0
  0
LINE
  5
2EB
330
1F
100
AcDbEntity
  8
SK2
100
AcDbLine
 10
337.144248
 20
258.231161
 30
0.0
 11
337.144248
 21
300.185289
 31
0.0
  0
LINE
  5
2EC
330
1F
100
AcDbEntity
  8
SK2
100
AcDbLine
 10
147.144248
 20
299.185289
 30
0.0
 11
337.144248
 21
299.185289
 31
0.0
  0
SOLID
  5
2ED
330
1F
100
AcDbEntity
  8
SK2
100
AcDbTrace
 10
147.144248
 20
299.185289
 30
0.0
 11
150.644246
 21
299.802434
 31
0.0
 12
150.644251
 22
298.568145
 32
0.0
 13
150.644251
 23
298.568145
 33
0.0
  0
SOLID
  5
2EE
330
1F
100
AcDbEntity
  8
SK2
100
AcDbTrace
 10
337.144248
 20
299.185289
 30
0.0
 11
333.644251
 21
298.568145
 31
0.0
 12
333.644246
 22
299.802434
 32
0.0
 13
333.644246
 23
299.802434
 33
0.0
  0
MTEXT
  5
2EF
330
1F
100
AcDbEntity
  8
SK2
100
AcDbMText
 10
267.067248
 20
285.667092
 30
0.0
 40
3.5
 41
0.0
 71
     7
 72
     5
  1
\W0.7656;134
  7
cesky
 73
     2
 44
0.8433729999999998
  0
LINE
  5
2F0
330
1F
100
AcDbEntity
  8
SK2
100
AcDbLine
 10
337.144248
 20
258.231161
 30
0.0
 11
337.144248
 21
286.792925
 31
0.0
  0
LINE
  5
2F1
330
1F
100
AcDbEntity
  8
SK2
100
AcDbLine
 10
203.144248
 20
244.730735
 30
0.0
 11
203.144248
 21
286.792925
 31
0.0
  0
LINE
  5
2F2
330
1F
100
AcDbEntity
  8
SK2
100
AcDbLine
 10
337.144248
 20
285.792925
 30
0.0
 11
203.144248
 21
285.792925
 31
0.0
  0
SOLID
  5
2F3
330
1F
100
AcDbEntity
  8
SK2
100
AcDbTrace
 10
337.144248
 20
285.792925
 30
0.0
 11
333.644251
 21
285.17578
 31
0.0
 12
333.644246
 22
286.410069
 32
0.0
 13
333.644246
 23
286.410069
 33
0.0
  0
SOLID
  5
2F4
330
1F
100
AcDbEntity
  8
SK2
100
AcDbTrace
 10
203.144248
 20
285.792925
 30
0.0
 11
206.644246
 21
286.410069
 31
0.0
 12
206.644251
 22
285.17578
 32
0.0
 13
206.644251
 23
285.17578
 33
0.0
  0
LINE
  5
30D
330
1F
100
AcDbEntity
  8
CUT
100
AcDbLine
 10
330.1904421358857
 20
254.8556487092417
 30
0.0
 11
330.1904421358857
 21
254.8556487092417
 31
0.0
  0
ARC
  5
30E
330
1F
100
AcDbEntity
  8
CUT
100
AcDbCircle
 10
330.587938315447
 20
254.7930257267851
 30
0.0
 40
0.4023988701495534
100
AcDbArc
 50
112.1413387472821
 51
171.0470032624229
  0
LINE
  5
30F
330
1F
100
AcDbEntity
  8
CUT
100
AcDbLine
 10
331.1630709905583
 20
249.4290131069144
 30
0.0
 11
331.1630709905583
 21
249.4290131069144
 31
0.0
  0
ARC
  5
310
330
1F
100
AcDbEntity
  8
CUT
100
AcDbCircle
 10
331.5828476327971
 20
249.5931700874417
 30
0.0
 40
0.4507326742373068
100
AcDbArc
 50
200.4658147999307
 51
201.3583768195385
  0
LINE
  5
311
330
1F
100
AcDbEntity
  8
CUT
100
AcDbLine
 10
337.0793075156315
 20
252.2451074684125
 30
0.0
 11
337.0793075156315
 21
252.2451074684125
 31
0.0
  0
ARC
  5
312
330
1F
100
AcDbEntity
  8
CUT
100
AcDbCircle
 10
330.286356990607
 20
251.260497202822
 30
0.0
 40
6.863937223673993
100
AcDbArc
 50
0.0021160887189305
 51
8.247350821651691
  0
LINE
  5
313
330
1F
100
AcDbEntity
  8
CUT
100
AcDbLine
 10
330.4362771377057
 20
255.1657504749086
 30
0.0
 11
330.4362771377057
 21
255.1657504749086
 31
0.0
  0
ARC
  5
314
330
1F
100
AcDbEntity
  8
CUT
100
AcDbCircle
 10
330.6021697896152
 20
254.7509521263906
 30
0.0
 40
0.446741582898745
100
AcDbArc
 50
110.8970499295783
 51
111.7982315505908
  0
LINE
  5
315
330
1F
100
AcDbEntity
  8
CUT
100
AcDbLine
 10
333.1492187070284
 20
249.2326333275808
 30
0.0
 11
333.1492187070284
 21
249.2326333275808
 31
0.0
  0
ARC
  5
316
330
1F
100
AcDbEntity
  8
CUT
100
AcDbCircle
 10
332.0593981422781
 20
255.9357156943661
 30
0.0
 40
6.791098738735909
100
AcDbArc
 50
270.8530307161071
 51
279.2346303458529
  0
ARC
  5
317
330
1F
100
AcDbEntity
  8
CUT
100
AcDbCircle
 10
331.9867724235292
 20
251.2658465896224
 30
0.0
 40
5.163524300634886
100
AcDbArc
 50
354.7319280028588
 51
359.9434547768308
  0
ARC
  5
318
330
1F
100
AcDbEntity
  8
CUT
100
AcDbCircle
 10
333.2294173153071
 20
251.162334938912
 30
0.0
 40
3.916639827296868
100
AcDbArc
 50
352.072835747817
 51
354.5707197716058
  0
ARC
  5
319
330
1F
100
AcDbEntity
  8
CUT
100
AcDbCircle
 10
330.0118656200776
 20
251.5878451689875
 30
0.0
 40
7.162163803599614
100
AcDbArc
 50
351.9097317035573
 51
352.2512451068347
  0
LINE
  5
31A
330
1F
100
AcDbEntity
  8
CUT
100
AcDbLine
 10
336.129046375047
 20
255.9464895026254
 30
0.0
 11
336.129046375047
 21
255.9464895026254
 31
0.0
  0
ARC
  5
31B
330
1F
100
AcDbEntity
  8
CUT
100
AcDbCircle
 10
335.7392839050811
 20
255.7932006295855
 30
0.0
 40
0.418822470256478
100
AcDbArc
 50
20.50935085321021
 51
21.46911516430696
  0
LINE
  5
31C
330
1F
100
AcDbEntity
  8
CUT
100
AcDbLine
 10
336.8558395317465
 20
250.2622648437327
 30
0.0
 11
336.8558395317465
 21
250.2622648437327
 31
0.0
  0
ARC
  5
31D
330
1F
100
AcDbEntity
  8
CUT
100
AcDbCircle
 10
336.6962295318254
 20
250.6447418000801
 30
0.0
 40
0.414444175024313
100
AcDbArc
 50
291.6749739238925
 51
292.6510792424573
  0
LINE
  5
31E
330
1F
100
AcDbEntity
  8
CUT
100
AcDbLine
 10
331.1605687336682
 20
249.4355741236777
 30
0.0
 11
331.1605687336682
 21
249.4355741236777
 31
0.0
  0
ARC
  5
31F
330
1F
100
AcDbEntity
  8
CUT
100
AcDbCircle
 10
347.9369409101845
 20
255.6872835467213
 30
0.0
 40
17.90336655814104
100
AcDbArc
 50
188.114293136645
 51
200.4378921123637
  0
LINE
  5
320
330
1F
100
AcDbEntity
  8
CUT
100
AcDbLine
 10
337.1016741405857
 20
250.5725535958614
 30
0.0
 11
337.1016741405857
 21
250.5725535958614
 31
0.0
  0
ARC
  5
321
330
1F
100
AcDbEntity
  8
CUT
100
AcDbCircle
 10
336.6978500720487
 20
250.6399651584295
 30
0.0
 40
0.4094120138657402
100
AcDbArc
 50
292.699224790773
 51
350.5228311757548
  0
LINE
  5
322
330
1F
100
AcDbEntity
  8
CUT
100
AcDbLine
 10
335.8227408062207
 20
256.1899048165815
 30
0.0
 11
335.8227408062207
 21
256.1899048165815
 31
0.0
  0
ARC
  5
323
330
1F
100
AcDbEntity
  8
CUT
100
AcDbCircle
 10
335.7645202445238
 20
255.8022121155127
 30
0.0
 40
0.3920398758625214
100
AcDbArc
 50
21.59337997682836
 51
81.45960046025271
  0
LINE
  5
324
330
1F
100
AcDbEntity
  8
CUT
100
AcDbLine
 10
335.1316202203855
 20
256.2308760144473
 30
0.0
 11
335.1316202203855
 21
256.2308760144473
 31
0.0
  0
ARC
  5
325
330
1F
100
AcDbEntity
  8
CUT
100
AcDbCircle
 10
335.1858860942293
 20
251.2900942762897
 30
0.0
 40
4.941079737180547
100
AcDbArc
 50
82.68065560278463
 51
90.62926894841792
  0
LINE
  5
326
330
1F
100
AcDbEntity
  8
CUT
100
AcDbLine
 10
334.1429031201511
 20
256.1492756339985
 30
0.0
 11
334.1429031201511
 21
256.1492756339985
 31
0.0
  0
ARC
  5
327
330
1F
100
AcDbEntity
  8
CUT
100
AcDbCircle
 10
335.2083198891384
 20
249.270806292383
 30
0.0
 40
6.96049232275881
100
AcDbArc
 50
90.63137146706131
 51
98.80466486857594
  0
ARC
  5
328
330
1F
100
AcDbEntity
  8
CUT
100
AcDbCircle
 10
335.7699691472873
 20
255.8334560421004
 30
0.0
 40
0.360331357776582
100
AcDbArc
 50
81.87407451994785
 51
82.76042713604397
  0
ARC
  5
329
330
1F
100
AcDbEntity
  8
CUT
100
AcDbCircle
 10
335.7478481667344
 20
255.6762425660177
 30
0.0
 40
0.519093262433132
100
AcDbArc
 50
81.70465048934916
 51
81.90973895794936
  0
LINE
  5
32A
330
1F
100
AcDbEntity
  8
CUT
100
AcDbLine
 10
330.212814311548
 20
253.1602555629684
 30
0.0
 11
330.212814311548
 21
253.1602555629684
 31
0.0
  0
ARC
  5
32B
330
1F
100
AcDbEntity
  8
CUT
100
AcDbCircle
 10
337.1852942623318
 20
254.1577252281116
 30
0.0
 40
7.043466646258988
100
AcDbArc
 50
179.9988147850026
 51
188.1413851979311
  0
LINE
  5
32C
330
1F
100
AcDbEntity
  8
CUT
100
AcDbLine
 10
330.4428231871237
 20
255.1683041332278
 30
0.0
 11
330.4428231871237
 21
255.1683041332278
 31
0.0
  0
ARC
  5
32D
330
1F
100
AcDbEntity
  8
CUT
100
AcDbCircle
 10
336.921875166573
 20
238.1988387582755
 30
0.0
 40
18.16427454274214
100
AcDbArc
 50
98.8003042346798
 51
110.8971807432035
  0
ARC
  5
32E
330
1F
100
AcDbEntity
  8
CUT
100
AcDbCircle
 10
336.7698865735254
 20
250.6260910003843
 30
0.0
 40
0.3360764176445716
100
AcDbArc
 50
351.1498441553697
 51
352.0981788687306
  0
ARC
  5
32F
330
1F
100
AcDbEntity
  8
CUT
100
AcDbCircle
 10
336.6232017298208
 20
250.6486032978709
 30
0.0
 40
0.4844784876945837
100
AcDbArc
 50
350.9687989188008
 51
351.1880810124689
  0
LINE
  5
330
330
1F
100
AcDbEntity
  8
CUT
100
AcDbLine
 10
330.1418276175798
 20
254.1578709285868
 30
0.0
 11
330.1418276175798
 21
254.1578709285868
 31
0.0
  0
ARC
  5
331
330
1F
100
AcDbEntity
  8
CUT
100
AcDbCircle
 10
335.179205781233
 20
254.157748711372
 30
0.0
 40
5.037378165135836
100
AcDbArc
 50
172.1218397690527
 51
179.9986098858647
  0
LINE
  5
332
330
1F
100
AcDbEntity
  8
CUT
100
AcDbLine
 10
331.4693729402813
 20
249.1850342328696
 30
0.0
 11
331.4693729402813
 21
249.1850342328696
 31
0.0
  0
ARC
  5
333
330
1F
100
AcDbEntity
  8
CUT
100
AcDbCircle
 10
331.5278976722778
 20
249.5727707841594
 30
0.0
 40
0.3921285216116391
100
AcDbArc
 50
201.5066105328497
 51
261.4166010012972
  0
LINE
  5
334
330
1F
100
AcDbEntity
  8
CUT
100
AcDbLine
 10
330.1893504351698
 20
254.8482098265709
 30
0.0
 11
330.1893504351698
 21
254.8482098265709
 31
0.0
  0
ARC
  5
335
330
1F
100
AcDbEntity
  8
CUT
100
AcDbCircle
 10
330.6472347701092
 20
254.7848120981444
 30
0.0
 40
0.4622524593254794
100
AcDbArc
 50
171.1851327535498
 51
172.1170621648622
  0
LINE
  5
336
330
1F
100
AcDbEntity
  8
CUT
100
AcDbLine
 10
331.4767407835159
 20
249.1840198397674
 30
0.0
 11
331.4767407835159
 21
249.1840198397674
 31
0.0
  0
ARC
  5
337
330
1F
100
AcDbEntity
  8
CUT
100
AcDbCircle
 10
331.53004356564
 20
249.5984386635898
 30
0.0
 40
0.4178326795746183
100
AcDbArc
 50
261.6509561009494
 51
262.6708239844499
  0
LINE
  5
338
330
1F
100
AcDbEntity
  8
CUT
100
AcDbLine
 10
336.1315586713695
 20
255.939939059636
 30
0.0
 11
336.1315586713695
 21
255.939939059636
 31
0.0
  0
ARC
  5
339
330
1F
100
AcDbEntity
  8
CUT
100
AcDbCircle
 10
319.4015931671382
 20
249.6796240548132
 30
0.0
 40
17.86290261218429
100
AcDbArc
 50
8.257417845485234
 51
20.51573470457341
  0
LINE
  5
33A
330
1F
100
AcDbEntity
  8
CUT
100
AcDbLine
 10
336.8492986386982
 20
250.2596057508638
 30
0.0
 11
336.8492986386982
 21
250.2596057508638
 31
0.0
  0
ARC
  5
33B
330
1F
100
AcDbEntity
  8
CUT
100
AcDbCircle
 10
330.2774212299621
 20
266.7584322040879
 30
0.0
 40
17.75952834421743
100
AcDbArc
 50
279.3058513264628
 51
291.718575735946
  0
LINE
  5
33C
330
1F
100
AcDbEntity
  8
CUT
100
AcDbLine
 10
332.1605016067942
 20
249.1453695935607
 30
0.0
 11
332.1605016067942
 21
249.1453695935607
 31
0.0
  0
ARC
  5
33D
330
1F
100
AcDbEntity
  8
CUT
100
AcDbCircle
 10
332.0898050522178
 20
253.9593208757402
 30
0.0
 40
4.814470370666676
100
AcDbArc
 50
262.6842520619949
 51
270.841371838367
  0
ENDSEC
  0
SECTION
  2
OBJECTS
  0
DICTIONARY
  5
C
330
0
100
AcDbDictionary
281
     1
  3
ACAD_CIP_PREVIOUS_PRODUCT_INFO
350
2CE
  3
ACAD_COLOR
350
2C9
  3
ACAD_DETAILVIEWSTYLE
350
2C5
  3
ACAD_GROUP
350
D
  3
ACAD_LAYOUT
350
1A
  3
ACAD_MATERIAL
350
43
  3
ACAD_MLEADERSTYLE
350
6B
  3
ACAD_MLINESTYLE
350
17
  3
ACAD_PLOTSETTINGS
350
19
  3
ACAD_PLOTSTYLENAME
350
E
  3
ACAD_SCALELIST
350
47
  3
ACAD_SECTIONVIEWSTYLE
350
2C6
  3
ACAD_TABLESTYLE
350
69
  3
ACAD_VISUALSTYLE
350
2A
  3
ACDB_RECOMPOSE_DATA
350
369
  3
AcDbVariableDictionary
350
282
  0
DICTIONARY
  5
34C
330
10
100
AcDbDictionary
280
     1
281
     1
  3
ADSK_XREC_LAYER_RECONCILED
360
34D
  0
DICTIONARY
  5
34E
330
33E
100
AcDbDictionary
280
     1
281
     1
  3
ADSK_XREC_LAYER_RECONCILED
360
34F
  0
DICTIONARY
  5
350
330
33F
100
AcDbDictionary
280
     1
281
     1
  3
ADSK_XREC_LAYER_RECONCILED
360
351
  0
DICTIONARY
  5
352
330
340
100
AcDbDictionary
280
     1
281
     1
  3
ADSK_XREC_LAYER_RECONCILED
360
353
  0
DICTIONARY
  5
354
330
342
100
AcDbDictionary
280
     1
281
     1
  3
ADSK_XREC_LAYER_RECONCILED
360
355
  0
DICTIONARY
  5
356
330
343
100
AcDbDictionary
280
     1
281
     1
  3
ADSK_XREC_LAYER_RECONCILED
360
357
  0
DICTIONARY
  5
358
330
345
100
AcDbDictionary
280
     1
281
     1
  3
ADSK_XREC_LAYER_RECONCILED
360
359
  0
DICTIONARY
  5
35A
330
346
100
AcDbDictionary
280
     1
281
     1
  3
ADSK_XREC_LAYER_RECONCILED
360
35B
  0
DICTIONARY
  5
35C
330
347
100
AcDbDictionary
280
     1
281
     1
  3
ADSK_XREC_LAYER_RECONCILED
360
35D
  0
DICTIONARY
  5
35E
330
348
100
AcDbDictionary
280
     1
281
     1
  3
ADSK_XREC_LAYER_RECONCILED
360
35F
  0
DICTIONARY
  5
360
330
349
100
AcDbDictionary
280
     1
281
     1
  3
ADSK_XREC_LAYER_RECONCILED
360
361
  0
DICTIONARY
  5
362
330
34A
100
AcDbDictionary
280
     1
281
     1
  3
ADSK_XREC_LAYER_RECONCILED
360
363
  0
DICTIONARY
  5
2CF
330
1F
100
AcDbDictionary
280
     1
281
     1
  3
ACAD_SORTENTS
360
2D0
  0
XRECORD
  5
2CE
102
{ACAD_REACTORS
330
C
102
}
330
C
100
AcDbXrecord
280
     1
300
ACD
300
2019
300
87084ACD_2019_0F
  0
DICTIONARY
  5
2C9
102
{ACAD_REACTORS
330
C
102
}
330
C
100
AcDbDictionary
281
     1
  0
DICTIONARY
  5
2C5
102
{ACAD_REACTORS
330
C
102
}
330
C
100
AcDbDictionary
281
     1
  3
Metric50
350
2CB
  0
DICTIONARY
  5
D
102
{ACAD_REACTORS
330
C
102
}
330
C
100
AcDbDictionary
281
     1
  3
NULOVY_BOD
350
34B
  0
DICTIONARY
  5
1A
102
{ACAD_REACTORS
330
C
102
}
330
C
100
AcDbDictionary
281
     1
  3
Layout1
350
1E
  3
Layout2
350
26
  3
Model
350
22
  0
DICTIONARY
  5
43
102
{ACAD_REACTORS
330
C
102
}
330
C
100
AcDbDictionary
281
     1
  3
ByBlock
350
45
  3
ByLayer
350
44
  3
Global
350
46
  0
DICTIONARY
  5
6B
102
{ACAD_REACTORS
330
C
102
}
330
C
100
AcDbDictionary
281
     1
  3
Standard
350
6C
  0
DICTIONARY
  5
17
102
{ACAD_REACTORS
330
C
102
}
330
C
100
AcDbDictionary
281
     1
  3
Standard
350
18
  0
DICTIONARY
  5
19
102
{ACAD_REACTORS
330
C
102
}
330
C
100
AcDbDictionary
281
     1
  0
ACDBDICTIONARYWDFLT
  5
E
102
{ACAD_REACTORS
330
C
102
}
330
C
100
AcDbDictionary
281
     1
  3
Normal
350
F
100
AcDbDictionaryWithDefault
340
F
  0
DICTIONARY
  5
47
102
{ACAD_REACTORS
330
C
102
}
330
C
100
AcDbDictionary
281
     1
  3
A0
350
48
  3
A1
350
49
  3
A2
350
4A
  3
A3
350
4B
  3
A4
350
4C
  3
A5
350
4D
  3
A6
350
4E
  3
A7
350
4F
  3
A8
350
50
  3
A9
350
51
  3
B0
350
52
  3
B1
350
53
  3
B2
350
54
  3
B3
350
55
  3
B4
350
56
  3
B5
350
57
  3
B6
350
58
  3
B7
350
59
  3
B8
350
5A
  3
B9
350
5B
  3
C0
350
5C
  3
C1
350
5D
  3
C2
350
5E
  3
C3
350
5F
  3
C4
350
60
  3
C5
350
61
  3
C6
350
62
  3
C7
350
63
  3
C8
350
64
  3
C9
350
65
  3
D0
350
66
  3
D1
350
67
  3
D2
350
68
  0
DICTIONARY
  5
2C6
102
{ACAD_REACTORS
330
C
102
}
330
C
100
AcDbDictionary
281
     1
  3
Metric50
350
2CA
  0
DICTIONARY
  5
69
102
{ACAD_REACTORS
330
C
102
}
330
C
100
AcDbDictionary
281
     1
  3
Standard
350
6A
  0
DICTIONARY
  5
2A
102
{ACAD_REACTORS
330
C
102
}
330
C
100
AcDbDictionary
281
     1
  3
2dWireframe
350
2F
  3
Basic
350
32
  3
Brighten
350
36
  3
ColorChange
350
3A
  3
Conceptual
350
34
  3
Dim
350
35
  3
EdgeColorOff
350
3D
  3
Facepattern
350
39
  3
Flat
350
2B
  3
FlatWithEdges
350
2C
  3
Gouraud
350
2D
  3
GouraudWithEdges
350
2E
  3
Hidden
350
31
  3
JitterOff
350
3B
  3
Linepattern
350
38
  3
OverhangOff
350
3C
  3
Realistic
350
33
  3
Shaded
350
42
  3
Shaded with edges
350
41
  3
Shades of Gray
350
3E
  3
Sketchy
350
3F
  3
Thicken
350
37
  3
Wireframe
350
30
  3
X-Ray
350
40
  0
XRECORD
  5
369
102
{ACAD_REACTORS
330
C
102
}
330
C
100
AcDbXrecord
280
     1
 90
        1
330
6A
  0
DICTIONARY
  5
282
102
{ACAD_REACTORS
330
C
102
}
330
C
100
AcDbDictionary
281
     1
  3
CANNOSCALE
350
283
  3
CMLEADERSTYLE
350
2C4
  3
CTABLESTYLE
350
2C3
  3
CVIEWDETAILSTYLE
350
364
  3
CVIEWSECTIONSTYLE
350
365
  3
MSLTSCALE
350
284
  3
XCLIPFRAME
350
366
  0
XRECORD
  5
34D
102
{ACAD_REACTORS
330
34C
102
}
330
34C
100
AcDbXrecord
280
     1
290
     1
  0
XRECORD
  5
34F
102
{ACAD_REACTORS
330
34E
102
}
330
34E
100
AcDbXrecord
280
     1
290
     1
  0
XRECORD
  5
351
102
{ACAD_REACTORS
330
350
102
}
330
350
100
AcDbXrecord
280
     1
290
     1
  0
XRECORD
  5
353
102
{ACAD_REACTORS
330
352
102
}
330
352
100
AcDbXrecord
280
     1
290
     1
  0
XRECORD
  5
355
102
{ACAD_REACTORS
330
354
102
}
330
354
100
AcDbXrecord
280
     1
290
     1
  0
XRECORD
  5
357
102
{ACAD_REACTORS
330
356
102
}
330
356
100
AcDbXrecord
280
     1
290
     1
  0
XRECORD
  5
359
102
{ACAD_REACTORS
330
358
102
}
330
358
100
AcDbXrecord
280
     1
290
     1
  0
XRECORD
  5
35B
102
{ACAD_REACTORS
330
35A
102
}
330
35A
100
AcDbXrecord
280
     1
290
     1
  0
XRECORD
  5
35D
102
{ACAD_REACTORS
330
35C
102
}
330
35C
100
AcDbXrecord
280
     1
290
     1
  0
XRECORD
  5
35F
102
{ACAD_REACTORS
330
35E
102
}
330
35E
100
AcDbXrecord
280
     1
290
     1
  0
XRECORD
  5
361
102
{ACAD_REACTORS
330
360
102
}
330
360
100
AcDbXrecord
280
     1
290
     1
  0
XRECORD
  5
363
102
{ACAD_REACTORS
330
362
102
}
330
362
100
AcDbXrecord
280
     1
290
     1
  0
SORTENTSTABLE
  5
2D0
102
{ACAD_REACTORS
330
2CF
102
}
330
2CF
100
AcDbSortentsTable
330
1F
331
2D1
  5
1F3
331
2D2
  5
224
331
2D3
  5
23C
331
2D4
  5
2D1
331
2D5
  5
2D2
331
2D6
  5
2DD
331
2D7
  5
2DE
331
2D8
  5
2DF
331
2D9
  5
2E0
331
2DA
  5
2E1
331
2DB
  5
2E2
331
2DC
  5
2EF
331
2DD
  5
2F0
331
2DE
  5
2F1
331
2DF
  5
2F2
331
2E0
  5
2F3
331
2E1
  5
2F4
331
2E2
  5
2D4
331
2E3
  5
2D5
331
2E4
  5
2D6
331
2E5
  5
2D7
331
2E6
  5
2D8
331
2E7
  5
2D9
331
2E8
  5
2DC
331
2E9
  5
2E3
331
2EA
  5
2E4
331
2EB
  5
2E5
331
2EC
  5
2E6
331
2ED
  5
2E7
331
2EE
  5
2E8
331
2EF
  5
2E9
331
2F0
  5
2EA
331
2F1
  5
2EB
331
2F2
  5
2EC
331
2F3
  5
2ED
331
2F4
  5
2EE
  0
ACDBDETAILVIEWSTYLE
  5
2CB
102
{ACAD_XDICTIONARY
360
39D
102
}
102
{ACAD_REACTORS
330
2C5
102
}
330
2C5
100
AcDbModelDocViewStyle
 70
     0
  3
Metric50
290
     0
100
AcDbDetailViewStyle
 70
     0
 71
     0
 90
        3
 71
     1
340
11
 62
   256
 40
5.0
340
0
 62
   256
 40
5.0
300

 40
0.0
280
     1
 71
     2
340
16
 90
       25
 62
   256
 71
     3
340
11
 62
   256
 40
5.0
 90
        0
 40
15.0
 90
        1
300
%<\AcVar ViewDetailId>% (%<\AcVar ViewScale \f "%sn">%)
 71
     4
340
16
 90
       25
 62
   256
340
16
 90
       25
 62
   256
280
     0
  0
GROUP
  5
34B
102
{ACAD_REACTORS
330
D
102
}
330
D
100
AcDbGroup
300

 70
     0
 71
     1
340
73
  0
LAYOUT
  5
1E
102
{ACAD_REACTORS
330
1A
102
}
330
1A
100
AcDbPlotSettings
  1

  2
none_device
  4

  6

 40
0.0
 41
0.0
 42
0.0
 43
0.0
 44
0.0
 45
0.0
 46
0.0
 47
0.0
 48
0.0
 49
0.0
140
0.0
141
0.0
142
1.0
143
1.0
 70
   688
 72
     0
 73
     0
 74
     5
  7

 75
    16
147
1.0
 76
     0
 77
     2
 78
   300
148
0.0
149
0.0
100
AcDbLayout
  1
Layout1
 70
     1
 71
     1
 10
-0.5
 20
-0.5
 11
5.0
 21
5.0
 12
0.0
 22
0.0
 32
0.0
 14
-0.5
 24
-0.5
 34
-0.5
 15
5.0
 25
5.0
 35
5.0
146
0.0
 13
0.0
 23
0.0
 33
0.0
 16
1.0
 26
0.0
 36
0.0
 17
0.0
 27
1.0
 37
0.0
 76
     0
330
1B
  0
LAYOUT
  5
26
102
{ACAD_REACTORS
330
1A
102
}
330
1A
100
AcDbPlotSettings
  1

  2
none_device
  4

  6

 40
0.0
 41
0.0
 42
0.0
 43
0.0
 44
0.0
 45
0.0
 46
0.0
 47
0.0
 48
0.0
 49
0.0
140
0.0
141
0.0
142
1.0
143
1.0
 70
   688
 72
     0
 73
     0
 74
     5
  7

 75
    16
147
1.0
 76
     0
 77
     2
 78
   300
148
0.0
149
0.0
100
AcDbLayout
  1
Layout2
 70
     1
 71
     2
 10
0.0
 20
0.0
 11
0.0
 21
0.0
 12
0.0
 22
0.0
 32
0.0
 14
0.0
 24
0.0
 34
0.0
 15
0.0
 25
0.0
 35
0.0
146
0.0
 13
0.0
 23
0.0
 33
0.0
 16
1.0
 26
0.0
 36
0.0
 17
0.0
 27
1.0
 37
0.0
 76
     0
330
23
  0
LAYOUT
  5
22
102
{ACAD_REACTORS
330
1A
102
}
330
1A
100
AcDbPlotSettings
  1

  2
none_device
  4
Letter_(8.50_x_11.00_Inches)
  6

 40
6.349999999999999
 41
6.349999999999999
 42
6.350005
 43
6.350005
 44
215.9
 45
279.4
 46
0.0
 47
0.0
 48
0.0
 49
0.0
140
0.0
141
0.0
142
1.0
143
1.0
 70
  1712
 72
     0
 73
     0
 74
     0
  7

 75
     0
147
1.0
 76
     0
 77
     2
 78
   300
148
0.0
149
0.0
100
AcDbLayout
  1
Model
 70
     1
 71
     0
 10
-0.5
 20
-0.5
 11
5.0
 21
5.0
 12
0.0
 22
0.0
 32
0.0
 14
-0.5
 24
-0.5
 34
-0.5
 15
5.0
 25
5.0
 35
5.0
146
0.0
 13
0.0
 23
0.0
 33
0.0
 16
1.0
 26
0.0
 36
0.0
 17
0.0
 27
1.0
 37
0.0
 76
     0
330
1F
331
29
  0
MATERIAL
  5
45
102
{ACAD_XDICTIONARY
360
2B8
102
}
102
{ACAD_REACTORS
330
43
102
}
330
43
100
AcDbMaterial
  1
ByBlock
  0
MATERIAL
  5
44
102
{ACAD_XDICTIONARY
360
2B6
102
}
102
{ACAD_REACTORS
330
43
102
}
330
43
100
AcDbMaterial
  1
ByLayer
  0
MATERIAL
  5
46
102
{ACAD_XDICTIONARY
360
2BA
102
}
102
{ACAD_REACTORS
330
43
102
}
330
43
100
AcDbMaterial
  1
Global
  0
MLEADERSTYLE
  5
6C
102
{ACAD_REACTORS
330
6B
102
}
330
6B
100
AcDbMLeaderStyle
170
     2
171
     1
172
     0
 90
        2
 40
0.0
 41
0.0
173
     1
 91
-1056964608
340
14
 92
       -2
290
     1
 42
0.09
291
     1
 43
0.36
  3
Standard
 44
0.18
300

342
11
174
     1
178
     6
175
     1
176
     0
 93
-1056964608
 45
0.18
292
     0
297
     0
 46
0.18
 94
-1056964608
 47
1.0
 49
1.0
140
1.0
293
     1
141
0.0
294
     1
177
     0
142
1.0
295
     0
296
     0
143
0.125
1001
ACAD_MLEADERVER
1070
     2
  0
MLINESTYLE
  5
18
102
{ACAD_REACTORS
330
17
102
}
330
17
100
AcDbMlineStyle
  2
STANDARD
 70
     0
  3

 62
   256
 51
90.0
 52
90.0
 71
     2
 49
0.5
 62
   256
  6
BYLAYER
 49
-0.5
 62
   256
  6
BYLAYER
  0
ACDBPLACEHOLDER
  5
F
102
{ACAD_REACTORS
330
E
102
}
330
E
  0
SCALE
  5
48
102
{ACAD_REACTORS
330
47
102
}
330
47
100
AcDbScale
 70
     0
300
1:1
140
1.0
141
1.0
290
     1
  0
SCALE
  5
49
102
{ACAD_REACTORS
330
47
102
}
330
47
100
AcDbScale
 70
     0
300
1:2
140
1.0
141
2.0
290
     0
  0
SCALE
  5
4A
102
{ACAD_REACTORS
330
47
102
}
330
47
100
AcDbScale
 70
     0
300
1:4
140
1.0
141
4.0
290
     0
  0
SCALE
  5
4B
102
{ACAD_REACTORS
330
47
102
}
330
47
100
AcDbScale
 70
     0
300
1:5
140
1.0
141
5.0
290
     0
  0
SCALE
  5
4C
102
{ACAD_REACTORS
330
47
102
}
330
47
100
AcDbScale
 70
     0
300
1:8
140
1.0
141
8.0
290
     0
  0
SCALE
  5
4D
102
{ACAD_REACTORS
330
47
102
}
330
47
100
AcDbScale
 70
     0
300
1:10
140
1.0
141
10.0
290
     0
  0
SCALE
  5
4E
102
{ACAD_REACTORS
330
47
102
}
330
47
100
AcDbScale
 70
     0
300
1:16
140
1.0
141
16.0
290
     0
  0
SCALE
  5
4F
102
{ACAD_REACTORS
330
47
102
}
330
47
100
AcDbScale
 70
     0
300
1:20
140
1.0
141
20.0
290
     0
  0
SCALE
  5
50
102
{ACAD_REACTORS
330
47
102
}
330
47
100
AcDbScale
 70
     0
300
1:30
140
1.0
141
30.0
290
     0
  0
SCALE
  5
51
102
{ACAD_REACTORS
330
47
102
}
330
47
100
AcDbScale
 70
     0
300
1:40
140
1.0
141
40.0
290
     0
  0
SCALE
  5
52
102
{ACAD_REACTORS
330
47
102
}
330
47
100
AcDbScale
 70
     0
300
1:50
140
1.0
141
50.0
290
     0
  0
SCALE
  5
53
102
{ACAD_REACTORS
330
47
102
}
330
47
100
AcDbScale
 70
     0
300
1:100
140
1.0
141
100.0
290
     0
  0
SCALE
  5
54
102
{ACAD_REACTORS
330
47
102
}
330
47
100
AcDbScale
 70
     0
300
2:1
140
2.0
141
1.0
290
     0
  0
SCALE
  5
55
102
{ACAD_REACTORS
330
47
102
}
330
47
100
AcDbScale
 70
     0
300
4:1
140
4.0
141
1.0
290
     0
  0
SCALE
  5
56
102
{ACAD_REACTORS
330
47
102
}
330
47
100
AcDbScale
 70
     0
300
8:1
140
8.0
141
1.0
290
     0
  0
SCALE
  5
57
102
{ACAD_REACTORS
330
47
102
}
330
47
100
AcDbScale
 70
     0
300
10:1
140
10.0
141
1.0
290
     0
  0
SCALE
  5
58
102
{ACAD_REACTORS
330
47
102
}
330
47
100
AcDbScale
 70
     0
300
100:1
140
100.0
141
1.0
290
     0
  0
SCALE
  5
59
102
{ACAD_REACTORS
330
47
102
}
330
47
100
AcDbScale
 70
     0
300
1/128" = 1'-0"
140
0.007812
141
12.0
290
     0
  0
SCALE
  5
5A
102
{ACAD_REACTORS
330
47
102
}
330
47
100
AcDbScale
 70
     0
300
1/64" = 1'-0"
140
0.015625
141
12.0
290
     0
  0
SCALE
  5
5B
102
{ACAD_REACTORS
330
47
102
}
330
47
100
AcDbScale
 70
     0
300
1/32" = 1'-0"
140
0.03125
141
12.0
290
     0
  0
SCALE
  5
5C
102
{ACAD_REACTORS
330
47
102
}
330
47
100
AcDbScale
 70
     0
300
1/16" = 1'-0"
140
0.0625
141
12.0
290
     0
  0
SCALE
  5
5D
102
{ACAD_REACTORS
330
47
102
}
330
47
100
AcDbScale
 70
     0
300
3/32" = 1'-0"
140
0.09375
141
12.0
290
     0
  0
SCALE
  5
5E
102
{ACAD_REACTORS
330
47
102
}
330
47
100
AcDbScale
 70
     0
300
1/8" = 1'-0"
140
0.125
141
12.0
290
     0
  0
SCALE
  5
5F
102
{ACAD_REACTORS
330
47
102
}
330
47
100
AcDbScale
 70
     0
300
3/16" = 1'-0"
140
0.1875
141
12.0
290
     0
  0
SCALE
  5
60
102
{ACAD_REACTORS
330
47
102
}
330
47
100
AcDbScale
 70
     0
300
1/4" = 1'-0"
140
0.25
141
12.0
290
     0
  0
SCALE
  5
61
102
{ACAD_REACTORS
330
47
102
}
330
47
100
AcDbScale
 70
     0
300
3/8" = 1'-0"
140
0.375
141
12.0
290
     0
  0
SCALE
  5
62
102
{ACAD_REACTORS
330
47
102
}
330
47
100
AcDbScale
 70
     0
300
1/2" = 1'-0"
140
0.5
141
12.0
290
     0
  0
SCALE
  5
63
102
{ACAD_REACTORS
330
47
102
}
330
47
100
AcDbScale
 70
     0
300
3/4" = 1'-0"
140
0.75
141
12.0
290
     0
  0
SCALE
  5
64
102
{ACAD_REACTORS
330
47
102
}
330
47
100
AcDbScale
 70
     0
300
1" = 1'-0"
140
1.0
141
12.0
290
     0
  0
SCALE
  5
65
102
{ACAD_REACTORS
330
47
102
}
330
47
100
AcDbScale
 70
     0
300
1-1/2" = 1'-0"
140
1.5
141
12.0
290
     0
  0
SCALE
  5
66
102
{ACAD_REACTORS
330
47
102
}
330
47
100
AcDbScale
 70
     0
300
3" = 1'-0"
140
3.0
141
12.0
290
     0
  0
SCALE
  5
67
102
{ACAD_REACTORS
330
47
102
}
330
47
100
AcDbScale
 70
     0
300
6" = 1'-0"
140
6.0
141
12.0
290
     0
  0
SCALE
  5
68
102
{ACAD_REACTORS
330
47
102
}
330
47
100
AcDbScale
 70
     0
300
1'-0" = 1'-0"
140
12.0
141
12.0
290
     0
  0
ACDBSECTIONVIEWSTYLE
  5
2CA
102
{ACAD_XDICTIONARY
360
39B
102
}
102
{ACAD_REACTORS
330
2C6
102
}
330
2C6
100
AcDbModelDocViewStyle
 70
     0
  3
Metric50
290
     0
100
AcDbSectionViewStyle
 70
     0
 71
     0
 90
      102
 71
     1
340
11
 62
   256
 40
5.0
340
0
340
0
 62
   256
 40
5.0
300
I, O, Q, S, X, Z
 40
10.0
 90
        0
 40
2.5
 90
        0
 71
     2
340
16
 90
       25
 62
   256
340
16
 90
       50
 62
   256
 40
5.0
 40
2.5
 40
5.0
 71
     3
340
11
 62
   256
 40
5.0
 90
        0
 40
15.0
 90
        1
300
%<\AcVar ViewSectionStartId>%-%<\AcVar ViewSectionEndId>% (%<\AcVar ViewScale \f "%sn">%)
 71
     4
 62
   256
 62
   257
300
ANSI31
 40
1.0
 90
        0
290
     0
290
     0
 90
        6
 40
0.0
 40
1.570796326794896
 40
0.2617993877991494
 40
1.308996938995747
 40
-0.2617993877991494
 40
1.832595714594046
  0
TABLESTYLE
  5
6A
102
{ACAD_XDICTIONARY
360
2BC
102
}
102
{ACAD_REACTORS
330
69
102
}
330
69
100
AcDbTableStyle
  3
Standard
 70
     0
 71
     0
 40
0.06
 41
0.06
280
     0
281
     0
  7
Standard
140
0.18
170
     2
 62
     0
 63
     7
283
     0
274
    -2
284
     1
 64
     0
275
    -2
285
     1
 65
     0
276
    -2
286
     1
 66
     0
277
    -2
287
     1
 67
     0
278
    -2
288
     1
 68
     0
279
    -2
289
     1
 69
     0
  7
Standard
140
0.25
170
     5
 62
     0
 63
     7
283
     0
274
    -2
284
     1
 64
     0
275
    -2
285
     1
 65
     0
276
    -2
286
     1
 66
     0
277
    -2
287
     1
 67
     0
278
    -2
288
     1
 68
     0
279
    -2
289
     1
 69
     0
  7
Standard
140
0.18
170
     5
 62
     0
 63
     7
283
     0
274
    -2
284
     1
 64
     0
275
    -2
285
     1
 65
     0
276
    -2
286
     1
 66
     0
277
    -2
287
     1
 67
     0
278
    -2
288
     1
 68
     0
279
    -2
289
     1
 69
     0
  0
VISUALSTYLE
  5
2F
102
{ACAD_XDICTIONARY
360
372
102
}
102
{ACAD_REACTORS
330
2A
102
}
330
2A
100
AcDbVisualStyle
  2

 70
     4
 71
     0
 72
     2
 73
     0
 90
        0
 40
-0.6
 41
-30.0
 62
     5
 63
     7
421
 16777215
 74
     1
 91
        4
 64
     7
 65
   257
 75
     1
175
     1
 42
1.0
 92
        0
 66
   257
 43
1.0
 76
     1
 77
     6
 78
     2
 67
     7
 79
     5
170
     0
171
     0
290
     0
174
     0
 93
        1
 44
0.0
173
     0
291
     0
 45
0.0
1001
ACAD
1000
AcDbSavedByObjectVersion
1070
     0
  0
VISUALSTYLE
  5
32
102
{ACAD_XDICTIONARY
360
378
102
}
102
{ACAD_REACTORS
330
2A
102
}
330
2A
100
AcDbVisualStyle
  2

 70
     7
 71
     1
 72
     0
 73
     1
 90
        0
 40
-0.6
 41
-30.0
 62
     5
 63
     7
421
 16777215
 74
     0
 91
        4
 64
     7
 65
   257
 75
     1
175
     1
 42
1.0
 92
        8
 66
     7
 43
1.0
 76
     1
 77
     6
 78
     2
 67
     7
 79
     5
170
     0
171
     0
290
     0
174
     0
 93
        1
 44
0.0
173
     0
291
     1
 45
0.0
1001
ACAD
1000
AcDbSavedByObjectVersion
1070
     0
  0
VISUALSTYLE
  5
36
102
{ACAD_XDICTIONARY
360
380
102
}
102
{ACAD_REACTORS
330
2A
102
}
330
2A
100
AcDbVisualStyle
  2

 70
    12
 71
     2
 72
     2
 73
     0
 90
        0
 40
-0.6
 41
-30.0
 62
     5
 63
     7
421
 16777215
 74
     1
 91
        4
 64
     7
 65
   257
 75
     1
175
     1
 42
1.0
 92
        8
 66
     7
 43
1.0
 76
     1
 77
     6
 78
     2
 67
     7
 79
     5
170
     0
171
     0
290
     0
174
     0
 93
        1
 44
50.0
173
     0
291
     1
 45
0.0
1001
ACAD
1000
AcDbSavedByObjectVersion
1070
     0
  0
VISUALSTYLE
  5
3A
102
{ACAD_XDICTIONARY
360
388
102
}
102
{ACAD_REACTORS
330
2A
102
}
330
2A
100
AcDbVisualStyle
  2

 70
    16
 71
     2
 72
     2
 73
     3
 90
        0
 40
-0.6
 41
-30.0
 62
     5
 63
     8
421
  8421504
 74
     1
 91
        4
 64
     7
 65
   257
 75
     1
175
     1
 42
1.0
 92
        8
 66
     8
424
  8421504
 43
1.0
 76
     1
 77
     6
 78
     2
 67
     7
 79
     5
170
     0
171
     0
290
     0
174
     0
 93
        1
 44
0.0
173
     0
291
     1
 45
0.0
1001
ACAD
1000
AcDbSavedByObjectVersion
1070
     0
  0
VISUALSTYLE
  5
34
102
{ACAD_XDICTIONARY
360
37C
102
}
102
{ACAD_REACTORS
330
2A
102
}
330
2A
100
AcDbVisualStyle
  2

 70
     9
 71
     3
 72
     2
 73
     0
 90
        0
 40
-0.6
 41
-30.0
 62
     5
 63
     7
421
 16777215
 74
     2
 91
        2
 64
     7
 65
   257
 75
     1
175
     1
 42
179.0
 92
        8
 66
     7
 43
1.0
 76
     1
 77
     6
 78
     2
 67
     7
 79
     3
170
     0
171
     0
290
     0
174
     0
 93
        1
 44
0.0
173
     0
291
     0
 45
0.0
1001
ACAD
1000
AcDbSavedByObjectVersion
1070
     0
  0
VISUALSTYLE
  5
35
102
{ACAD_XDICTIONARY
360
37E
102
}
102
{ACAD_REACTORS
330
2A
102
}
330
2A
100
AcDbVisualStyle
  2

 70
    11
 71
     2
 72
     2
 73
     0
 90
        0
 40
-0.6
 41
-30.0
 62
     5
 63
     7
421
 16777215
 74
     1
 91
        4
 64
     7
 65
   257
 75
     1
175
     1
 42
1.0
 92
        8
 66
     7
 43
1.0
 76
     1
 77
     6
 78
     2
 67
     7
 79
     5
170
     0
171
     0
290
     0
174
     0
 93
        1
 44
-50.0
173
     0
291
     1
 45
0.0
1001
ACAD
1000
AcDbSavedByObjectVersion
1070
     0
  0
VISUALSTYLE
  5
3D
102
{ACAD_XDICTIONARY
360
38E
102
}
102
{ACAD_REACTORS
330
2A
102
}
330
2A
100
AcDbVisualStyle
  2

 70
    22
 71
     2
 72
     2
 73
     0
 90
        0
 40
-0.6
 41
-30.0
 62
     5
 63
     7
421
 16777215
 74
     1
 91
        4
 64
     7
 65
   257
 75
     1
175
     1
 42
1.0
 92
        8
 66
     7
 43
1.0
 76
     1
 77
     6
 78
     2
 67
     7
 79
     5
170
     0
171
     0
290
     0
174
     0
 93
        1
 44
0.0
173
     0
291
     1
 45
0.0
1001
ACAD
1000
AcDbSavedByObjectVersion
1070
     0
  0
VISUALSTYLE
  5
39
102
{ACAD_XDICTIONARY
360
386
102
}
102
{ACAD_REACTORS
330
2A
102
}
330
2A
100
AcDbVisualStyle
  2

 70
    15
 71
     2
 72
     2
 73
     0
 90
        0
 40
-0.6
 41
-30.0
 62
     5
 63
     7
421
 16777215
 74
     1
 91
        4
 64
     7
 65
   257
 75
     1
175
     1
 42
1.0
 92
        8
 66
     7
 43
1.0
 76
     1
 77
     6
 78
     2
 67
     7
 79
     5
170
     0
171
     0
290
     0
174
     0
 93
        1
 44
0.0
173
     0
291
     1
 45
0.0
1001
ACAD
1000
AcDbSavedByObjectVersion
1070
     0
  0
VISUALSTYLE
  5
2B
102
{ACAD_XDICTIONARY
360
36A
102
}
102
{ACAD_REACTORS
330
2A
102
}
330
2A
100
AcDbVisualStyle
  2

 70
     0
 71
     2
 72
     1
 73
     1
 90
        2
 40
-0.6
 41
30.0
 62
     5
 63
     7
421
 16777215
 74
     0
 91
        0
 64
     7
 65
   257
 75
     1
175
     1
 42
1.0
 92
        8
 66
     7
 43
1.0
 76
     1
 77
     6
 78
     2
 67
     7
 79
     5
170
     0
171
     0
290
     0
174
     0
 93
       13
 44
0.0
173
     0
291
     1
 45
0.0
1001
ACAD
1000
AcDbSavedByObjectVersion
1070
     0
  0
VISUALSTYLE
  5
2C
102
{ACAD_XDICTIONARY
360
36C
102
}
102
{ACAD_REACTORS
330
2A
102
}
330
2A
100
AcDbVisualStyle
  2

 70
     1
 71
     2
 72
     1
 73
     1
 90
        2
 40
-0.6
 41
30.0
 62
     5
 63
     7
421
 16777215
 74
     1
 91
        0
 64
     7
 65
   257
 75
     1
175
     1
 42
1.0
 92
        0
 66
   257
 43
1.0
 76
     1
 77
     6
 78
     2
 67
     7
 79
     5
170
     0
171
     0
290
     0
174
     0
 93
       13
 44
0.0
173
     0
291
     1
 45
0.0
1001
ACAD
1000
AcDbSavedByObjectVersion
1070
     0
  0
VISUALSTYLE
  5
2D
102
{ACAD_XDICTIONARY
360
36E
102
}
102
{ACAD_REACTORS
330
2A
102
}
330
2A
100
AcDbVisualStyle
  2

 70
     2
 71
     2
 72
     2
 73
     1
 90
        2
 40
-0.6
 41
30.0
 62
     5
 63
     7
421
 16777215
 74
     0
 91
        0
 64
     7
 65
   257
 75
     1
175
     1
 42
1.0
 92
        0
 66
     7
 43
1.0
 76
     1
 77
     6
 78
     2
 67
     7
 79
     5
170
     0
171
     0
290
     0
174
     0
 93
       13
 44
0.0
173
     0
291
     1
 45
0.0
1001
ACAD
1000
AcDbSavedByObjectVersion
1070
     0
  0
VISUALSTYLE
  5
2E
102
{ACAD_XDICTIONARY
360
370
102
}
102
{ACAD_REACTORS
330
2A
102
}
330
2A
100
AcDbVisualStyle
  2

 70
     3
 71
     2
 72
     2
 73
     1
 90
        2
 40
-0.6
 41
30.0
 62
     5
 63
     7
421
 16777215
 74
     1
 91
        0
 64
     7
 65
   257
 75
     1
175
     1
 42
1.0
 92
        0
 66
   257
 43
1.0
 76
     1
 77
     6
 78
     2
 67
     7
 79
     5
170
     0
171
     0
290
     0
174
     0
 93
       13
 44
0.0
173
     0
291
     1
 45
0.0
1001
ACAD
1000
AcDbSavedByObjectVersion
1070
     0
  0
VISUALSTYLE
  5
31
102
{ACAD_XDICTIONARY
360
376
102
}
102
{ACAD_REACTORS
330
2A
102
}
330
2A
100
AcDbVisualStyle
  2

 70
     6
 71
     1
 72
     2
 73
     2
 90
        0
 40
-0.6
 41
-30.0
 62
     5
 63
     7
421
 16777215
 74
     2
 91
        2
 64
     7
 65
   257
 75
     2
175
     1
 42
40.0
 92
        0
 66
   257
 43
1.0
 76
     1
 77
     6
 78
     2
 67
     7
 79
     3
170
     0
171
     0
290
     0
174
     0
 93
        1
 44
0.0
173
     0
291
     0
 45
0.0
1001
ACAD
1000
AcDbSavedByObjectVersion
1070
     0
  0
VISUALSTYLE
  5
3B
102
{ACAD_XDICTIONARY
360
38A
102
}
102
{ACAD_REACTORS
330
2A
102
}
330
2A
100
AcDbVisualStyle
  2

 70
    20
 71
     2
 72
     2
 73
     0
 90
        0
 40
-0.6
 41
-30.0
 62
     5
 63
     7
421
 16777215
 74
     1
 91
        4
 64
     7
 65
   257
 75
     1
175
     1
 42
1.0
 92
       10
 66
     7
 43
1.0
 76
     1
 77
     6
 78
     2
 67
     7
 79
     5
170
     0
171
     0
290
     0
174
     0
 93
        1
 44
0.0
173
     0
291
     1
 45
0.0
1001
ACAD
1000
AcDbSavedByObjectVersion
1070
     0
  0
VISUALSTYLE
  5
38
102
{ACAD_XDICTIONARY
360
384
102
}
102
{ACAD_REACTORS
330
2A
102
}
330
2A
100
AcDbVisualStyle
  2

 70
    14
 71
     2
 72
     2
 73
     0
 90
        0
 40
-0.6
 41
-30.0
 62
     5
 63
     7
421
 16777215
 74
     1
 91
        4
 64
     7
 65
   257
 75
     7
175
     7
 42
1.0
 92
        8
 66
     7
 43
1.0
 76
     1
 77
     6
 78
     2
 67
     7
 79
     5
170
     0
171
     0
290
     0
174
     0
 93
        1
 44
0.0
173
     0
291
     1
 45
0.0
1001
ACAD
1000
AcDbSavedByObjectVersion
1070
     0
  0
VISUALSTYLE
  5
3C
102
{ACAD_XDICTIONARY
360
38C
102
}
102
{ACAD_REACTORS
330
2A
102
}
330
2A
100
AcDbVisualStyle
  2

 70
    21
 71
     2
 72
     2
 73
     0
 90
        0
 40
-0.6
 41
-30.0
 62
     5
 63
     7
421
 16777215
 74
     1
 91
        4
 64
     7
 65
   257
 75
     1
175
     1
 42
1.0
 92
        9
 66
     7
 43
1.0
 76
     1
 77
     6
 78
     2
 67
     7
 79
     5
170
     0
171
     0
290
     0
174
     0
 93
        1
 44
0.0
173
     0
291
     1
 45
0.0
1001
ACAD
1000
AcDbSavedByObjectVersion
1070
     0
  0
VISUALSTYLE
  5
33
102
{ACAD_XDICTIONARY
360
37A
102
}
102
{ACAD_REACTORS
330
2A
102
}
330
2A
100
AcDbVisualStyle
  2

 70
     8
 71
     2
 72
     3
 73
     0
 90
        2
 40
-0.6
 41
30.0
 62
     5
 63
     7
421
 16777215
 74
     0
 91
        0
 64
     7
 65
   257
 75
     1
175
     1
 42
1.0
 92
        8
 66
   257
 43
1.0
 76
     1
 77
     6
 78
     2
 67
     7
 79
     3
170
     0
171
     0
290
     0
174
     0
 93
       13
 44
0.0
173
     0
291
     0
 45
0.0
1001
ACAD
1000
AcDbSavedByObjectVersion
1070
     0
  0
VISUALSTYLE
  5
42
102
{ACAD_XDICTIONARY
360
398
102
}
102
{ACAD_REACTORS
330
2A
102
}
330
2A
100
AcDbVisualStyle
  2

 70
    27
 71
     2
 72
     2
 73
     1
 90
        2
 40
-0.6
 41
30.0
 62
     5
 63
     7
421
 16777215
 74
     0
 91
        4
 64
     7
 65
   257
 75
     1
175
     1
 42
1.0
 92
        8
 66
   257
 43
1.0
 76
     1
 77
     6
 78
     2
 67
     8
425
  7895160
 79
     3
170
     0
171
     0
290
     0
174
     0
 93
        5
 44
0.0
173
     0
291
     0
 45
0.0
1001
ACAD
1000
AcDbSavedByObjectVersion
1070
     0
  0
VISUALSTYLE
  5
41
102
{ACAD_XDICTIONARY
360
396
102
}
102
{ACAD_REACTORS
330
2A
102
}
330
2A
100
AcDbVisualStyle
  2

 70
    26
 71
     2
 72
     2
 73
     1
 90
        2
 40
-0.6
 41
30.0
 62
     5
 63
     7
421
 16777215
 74
     1
 91
       10
 64
     7
 65
   257
 75
     2
175
     1
 42
1.0
 92
        8
 66
   257
 43
1.0
 76
     1
 77
     6
 78
     2
 67
     7
 79
     3
170
     0
171
     0
290
     0
174
     0
 93
        5
 44
0.0
173
     0
291
     0
 45
0.0
1001
ACAD
1000
AcDbSavedByObjectVersion
1070
     0
  0
VISUALSTYLE
  5
3E
102
{ACAD_XDICTIONARY
360
390
102
}
102
{ACAD_REACTORS
330
2A
102
}
330
2A
100
AcDbVisualStyle
  2

 70
    23
 71
     2
 72
     2
 73
     3
 90
        0
 40
-0.6
 41
-30.0
 62
     5
 63
     7
421
 16777215
 74
     2
 91
        2
 64
     7
 65
     7
 75
     1
175
     1
 42
40.0
 92
        8
 66
     7
 43
1.0
 76
     1
 77
     6
 78
     2
 67
     7
 79
     3
170
     0
171
     0
290
     0
174
     0
 93
        1
 44
0.0
173
     0
291
     0
 45
0.0
1001
ACAD
1000
AcDbSavedByObjectVersion
1070
     0
  0
VISUALSTYLE
  5
3F
102
{ACAD_XDICTIONARY
360
392
102
}
102
{ACAD_REACTORS
330
2A
102
}
330
2A
100
AcDbVisualStyle
  2

 70
    24
 71
     1
 72
     2
 73
     2
 90
        0
 40
-0.6
 41
-30.0
 62
     5
 63
     7
421
 16777215
 74
     2
 91
        2
 64
     7
 65
     7
 75
     1
175
     1
 42
40.0
 92
       11
 66
     7
 43
1.0
 76
     1
 77
     6
 78
     2
 67
     7
 79
     6
170
     0
171
     0
290
     0
174
     0
 93
        1
 44
0.0
173
     0
291
     0
 45
0.0
1001
ACAD
1000
AcDbSavedByObjectVersion
1070
     0
  0
VISUALSTYLE
  5
37
102
{ACAD_XDICTIONARY
360
382
102
}
102
{ACAD_REACTORS
330
2A
102
}
330
2A
100
AcDbVisualStyle
  2

 70
    13
 71
     2
 72
     2
 73
     0
 90
        0
 40
-0.6
 41
-30.0
 62
     5
 63
     7
421
 16777215
 74
     1
 91
        4
 64
     7
 65
   257
 75
     1
175
     1
 42
1.0
 92
       12
 66
     7
 43
1.0
 76
     1
 77
     6
 78
     2
 67
     7
 79
     5
170
     0
171
     0
290
     0
174
     0
 93
        1
 44
0.0
173
     0
291
     1
 45
0.0
1001
ACAD
1000
AcDbSavedByObjectVersion
1070
     0
  0
VISUALSTYLE
  5
30
102
{ACAD_XDICTIONARY
360
374
102
}
102
{ACAD_REACTORS
330
2A
102
}
330
2A
100
AcDbVisualStyle
  2

 70
     5
 71
     0
 72
     2
 73
     0
 90
        0
 40
-0.6
 41
-30.0
 62
     5
 63
     7
421
 16777215
 74
     1
 91
        4
 64
     7
 65
   257
 75
     1
175
     1
 42
1.0
 92
        0
 66
   257
 43
1.0
 76
     1
 77
     6
 78
     2
 67
     7
 79
     3
170
     0
171
     0
290
     0
174
     0
 93
        1
 44
0.0
173
     0
291
     0
 45
0.0
1001
ACAD
1000
AcDbSavedByObjectVersion
1070
     0
  0
VISUALSTYLE
  5
40
102
{ACAD_XDICTIONARY
360
394
102
}
102
{ACAD_REACTORS
330
2A
102
}
330
2A
100
AcDbVisualStyle
  2

 70
    25
 71
     2
 72
     2
 73
     1
 90
        1
 40
0.5
 41
-30.0
 62
     5
 63
     7
421
 16777215
 74
     1
 91
        0
 64
     7
 65
   257
 75
     1
175
     1
 42
1.0
 92
        8
 66
     7
 43
1.0
 76
     1
 77
     6
 78
     2
 67
     7
 79
     3
170
     0
171
     0
290
     0
174
     0
 93
       13
 44
0.0
173
     0
291
     0
 45
0.0
1001
ACAD
1000
AcDbSavedByObjectVersion
1070
     0
  0
DICTIONARYVAR
  5
283
102
{ACAD_REACTORS
330
282
102
}
330
282
100
DictionaryVariables
280
     0
  1
1:1
  0
DICTIONARYVAR
  5
2C4
102
{ACAD_REACTORS
330
282
102
}
330
282
100
DictionaryVariables
280
     0
  1
STANDARD
  0
DICTIONARYVAR
  5
2C3
102
{ACAD_REACTORS
330
282
102
}
330
282
100
DictionaryVariables
280
     0
  1
STANDARD
  0
DICTIONARYVAR
  5
364
102
{ACAD_REACTORS
330
282
102
}
330
282
100
DictionaryVariables
280
     0
  1
Metric50
  0
DICTIONARYVAR
  5
365
102
{ACAD_REACTORS
330
282
102
}
330
282
100
DictionaryVariables
280
     0
  1
Metric50
  0
DICTIONARYVAR
  5
284
102
{ACAD_REACTORS
330
282
102
}
330
282
100
DictionaryVariables
280
     0
  1
1
  0
DICTIONARYVAR
  5
366
102
{ACAD_REACTORS
330
282
102
}
330
282
100
DictionaryVariables
280
     0
  1
2
  0
DICTIONARY
  5
39D
330
2CB
100
AcDbDictionary
280
     1
281
     1
  3
ACAD_XREC_ROUNDTRIP
360
39E
  0
DICTIONARY
  5
2B8
330
45
100
AcDbDictionary
280
     1
281
     1
  3
ACAD_XREC_ROUNDTRIP
360
2B9
  0
DICTIONARY
  5
2B6
330
44
100
AcDbDictionary
280
     1
281
     1
  3
ACAD_XREC_ROUNDTRIP
360
2B7
  0
DICTIONARY
  5
2BA
330
46
100
AcDbDictionary
280
     1
281
     1
  3
ACAD_XREC_ROUNDTRIP
360
2BB
  0
DICTIONARY
  5
39B
330
2CA
100
AcDbDictionary
280
     1
281
     1
  3
ACAD_XREC_ROUNDTRIP
360
39C
  0
DICTIONARY
  5
2BC
330
6A
100
AcDbDictionary
280
     1
281
     1
  3
ACAD_ROUNDTRIP_2008_TABLESTYLE_CELLSTYLEMAP
360
368
  3
ACAD_XREC_ROUNDTRIP
360
39A
  0
DICTIONARY
  5
372
330
2F
100
AcDbDictionary
280
     1
281
     1
  3
ACAD_XREC_ROUNDTRIP
360
373
  0
DICTIONARY
  5
378
330
32
100
AcDbDictionary
280
     1
281
     1
  3
ACAD_XREC_ROUNDTRIP
360
379
  0
DICTIONARY
  5
380
330
36
100
AcDbDictionary
280
     1
281
     1
  3
ACAD_XREC_ROUNDTRIP
360
381
  0
DICTIONARY
  5
388
330
3A
100
AcDbDictionary
280
     1
281
     1
  3
ACAD_XREC_ROUNDTRIP
360
389
  0
DICTIONARY
  5
37C
330
34
100
AcDbDictionary
280
     1
281
     1
  3
ACAD_XREC_ROUNDTRIP
360
37D
  0
DICTIONARY
  5
37E
330
35
100
AcDbDictionary
280
     1
281
     1
  3
ACAD_XREC_ROUNDTRIP
360
37F
  0
DICTIONARY
  5
38E
330
3D
100
AcDbDictionary
280
     1
281
     1
  3
ACAD_XREC_ROUNDTRIP
360
38F
  0
DICTIONARY
  5
386
330
39
100
AcDbDictionary
280
     1
281
     1
  3
ACAD_XREC_ROUNDTRIP
360
387
  0
DICTIONARY
  5
36A
330
2B
100
AcDbDictionary
280
     1
281
     1
  3
ACAD_XREC_ROUNDTRIP
360
36B
  0
DICTIONARY
  5
36C
330
2C
100
AcDbDictionary
280
     1
281
     1
  3
ACAD_XREC_ROUNDTRIP
360
36D
  0
DICTIONARY
  5
36E
330
2D
100
AcDbDictionary
280
     1
281
     1
  3
ACAD_XREC_ROUNDTRIP
360
36F
  0
DICTIONARY
  5
370
330
2E
100
AcDbDictionary
280
     1
281
     1
  3
ACAD_XREC_ROUNDTRIP
360
371
  0
DICTIONARY
  5
376
330
31
100
AcDbDictionary
280
     1
281
     1
  3
ACAD_XREC_ROUNDTRIP
360
377
  0
DICTIONARY
  5
38A
330
3B
100
AcDbDictionary
280
     1
281
     1
  3
ACAD_XREC_ROUNDTRIP
360
38B
  0
DICTIONARY
  5
384
330
38
100
AcDbDictionary
280
     1
281
     1
  3
ACAD_XREC_ROUNDTRIP
360
385
  0
DICTIONARY
  5
38C
330
3C
100
AcDbDictionary
280
     1
281
     1
  3
ACAD_XREC_ROUNDTRIP
360
38D
  0
DICTIONARY
  5
37A
330
33
100
AcDbDictionary
280
     1
281
     1
  3
ACAD_XREC_ROUNDTRIP
360
37B
  0
DICTIONARY
  5
398
330
42
100
AcDbDictionary
280
     1
281
     1
  3
ACAD_XREC_ROUNDTRIP
360
399
  0
DICTIONARY
  5
396
330
41
100
AcDbDictionary
280
     1
281
     1
  3
ACAD_XREC_ROUNDTRIP
360
397
  0
DICTIONARY
  5
390
330
3E
100
AcDbDictionary
280
     1
281
     1
  3
ACAD_XREC_ROUNDTRIP
360
391
  0
DICTIONARY
  5
392
330
3F
100
AcDbDictionary
280
     1
281
     1
  3
ACAD_XREC_ROUNDTRIP
360
393
  0
DICTIONARY
  5
382
330
37
100
AcDbDictionary
280
     1
281
     1
  3
ACAD_XREC_ROUNDTRIP
360
383
  0
DICTIONARY
  5
374
330
30
100
AcDbDictionary
280
     1
281
     1
  3
ACAD_XREC_ROUNDTRIP
360
375
  0
DICTIONARY
  5
394
330
40
100
AcDbDictionary
280
     1
281
     1
  3
ACAD_XREC_ROUNDTRIP
360
395
  0
XRECORD
  5
39E
102
{ACAD_REACTORS
330
39D
102
}
330
39D
100
AcDbXrecord
280
     1
102
DISPLAYNAME
  1
Metric50
102
FLAGS
 90
        0
  0
XRECORD
  5
2B9
102
{ACAD_REACTORS
330
2B8
102
}
330
2B8
100
AcDbXrecord
280
     1
102
MATERIAL
148
0.0
149
0.0
149
0.0
 93
        0
 94
      127
282
     0
 72
     1
 77
     1
171
     1
175
     1
179
     1
273
     0
  0
XRECORD
  5
2B7
102
{ACAD_REACTORS
330
2B6
102
}
330
2B6
100
AcDbXrecord
280
     1
102
MATERIAL
148
0.0
149
0.0
149
0.0
 93
        0
 94
      127
282
     0
 72
     1
 77
     1
171
     1
175
     1
179
     1
273
     0
  0
XRECORD
  5
2BB
102
{ACAD_REACTORS
330
2BA
102
}
330
2BA
100
AcDbXrecord
280
     1
102
MATERIAL
148
0.0
149
0.0
149
0.0
 93
        0
 94
      127
282
     0
 72
     1
 77
     1
171
     1
175
     1
179
     1
273
     0
  0
XRECORD
  5
39C
102
{ACAD_REACTORS
330
39B
102
}
330
39B
100
AcDbXrecord
280
     1
102
DISPLAYNAME
  1
Metric50
102
FLAGS
 90
        0
  0
CELLSTYLEMAP
  5
368
102
{ACAD_REACTORS
330
2BC
102
}
330
2BC
100
AcDbCellStyleMap
 90
        3
300
CELLSTYLE
  1
TABLEFORMAT_BEGIN
 90
        5
170
     1
 91
        0
 92
    32768
 62
   257
 93
        1
300
CONTENTFORMAT
  1
CONTENTFORMAT_BEGIN
 90
        0
 91
        0
 92
        4
 93
        0
300

 40
0.0
140
1.0
 94
        5
 62
     0
340
11
144
0.25
309
CONTENTFORMAT_END
171
     1
301
MARGIN
  1
CELLMARGIN_BEGIN
 40
0.06
 40
0.06
 40
0.06
 40
0.06
 40
0.18
 40
0.18
309
CELLMARGIN_END
 94
        6
 95
        1
302
GRIDFORMAT
  1
GRIDFORMAT_BEGIN
 90
        0
 91
        1
 62
     0
 92
       -2
340
14
 93
        0
 40
0.045
309
GRIDFORMAT_END
 95
        2
302
GRIDFORMAT
  1
GRIDFORMAT_BEGIN
 90
        0
 91
        1
 62
     0
 92
       -2
340
14
 93
        0
 40
0.045
309
GRIDFORMAT_END
 95
        4
302
GRIDFORMAT
  1
GRIDFORMAT_BEGIN
 90
        0
 91
        1
 62
     0
 92
       -2
340
14
 93
        0
 40
0.045
309
GRIDFORMAT_END
 95
        8
302
GRIDFORMAT
  1
GRIDFORMAT_BEGIN
 90
        0
 91
        1
 62
     0
 92
       -2
340
14
 93
        0
 40
0.045
309
GRIDFORMAT_END
 95
       16
302
GRIDFORMAT
  1
GRIDFORMAT_BEGIN
 90
        0
 91
        1
 62
     0
 92
       -2
340
14
 93
        0
 40
0.045
309
GRIDFORMAT_END
 95
       32
302
GRIDFORMAT
  1
GRIDFORMAT_BEGIN
 90
        0
 91
        1
 62
     0
 92
       -2
340
14
 93
        0
 40
0.045
309
GRIDFORMAT_END
309
TABLEFORMAT_END
  1
CELLSTYLE_BEGIN
 90
        1
 91
        1
300
_TITLE
309
CELLSTYLE_END
300
CELLSTYLE
  1
TABLEFORMAT_BEGIN
 90
        5
170
     1
 91
        0
 92
        0
 62
   257
 93
        1
300
CONTENTFORMAT
  1
CONTENTFORMAT_BEGIN
 90
        0
 91
        0
 92
        4
 93
        0
300

 40
0.0
140
1.0
 94
        5
 62
     0
340
11
144
0.18
309
CONTENTFORMAT_END
171
     1
301
MARGIN
  1
CELLMARGIN_BEGIN
 40
0.06
 40
0.06
 40
0.06
 40
0.06
 40
0.18
 40
0.18
309
CELLMARGIN_END
 94
        6
 95
        1
302
GRIDFORMAT
  1
GRIDFORMAT_BEGIN
 90
        0
 91
        1
 62
     0
 92
       -2
340
14
 93
        0
 40
0.045
309
GRIDFORMAT_END
 95
        2
302
GRIDFORMAT
  1
GRIDFORMAT_BEGIN
 90
        0
 91
        1
 62
     0
 92
       -2
340
14
 93
        0
 40
0.045
309
GRIDFORMAT_END
 95
        4
302
GRIDFORMAT
  1
GRIDFORMAT_BEGIN
 90
        0
 91
        1
 62
     0
 92
       -2
340
14
 93
        0
 40
0.045
309
GRIDFORMAT_END
 95
        8
302
GRIDFORMAT
  1
GRIDFORMAT_BEGIN
 90
        0
 91
        1
 62
     0
 92
       -2
340
14
 93
        0
 40
0.045
309
GRIDFORMAT_END
 95
       16
302
GRIDFORMAT
  1
GRIDFORMAT_BEGIN
 90
        0
 91
        1
 62
     0
 92
       -2
340
14
 93
        0
 40
0.045
309
GRIDFORMAT_END
 95
       32
302
GRIDFORMAT
  1
GRIDFORMAT_BEGIN
 90
        0
 91
        1
 62
     0
 92
       -2
340
14
 93
        0
 40
0.045
309
GRIDFORMAT_END
309
TABLEFORMAT_END
  1
CELLSTYLE_BEGIN
 90
        2
 91
        1
300
_HEADER
309
CELLSTYLE_END
300
CELLSTYLE
  1
TABLEFORMAT_BEGIN
 90
        5
170
     1
 91
        0
 92
        0
 62
   257
 93
        1
300
CONTENTFORMAT
  1
CONTENTFORMAT_BEGIN
 90
        0
 91
        0
 92
        4
 93
        0
300

 40
0.0
140
1.0
 94
        2
 62
     0
340
11
144
0.18
309
CONTENTFORMAT_END
171
     1
301
MARGIN
  1
CELLMARGIN_BEGIN
 40
0.06
 40
0.06
 40
0.06
 40
0.06
 40
0.18
 40
0.18
309
CELLMARGIN_END
 94
        6
 95
        1
302
GRIDFORMAT
  1
GRIDFORMAT_BEGIN
 90
        0
 91
        1
 62
     0
 92
       -2
340
14
 93
        0
 40
0.045
309
GRIDFORMAT_END
 95
        2
302
GRIDFORMAT
  1
GRIDFORMAT_BEGIN
 90
        0
 91
        1
 62
     0
 92
       -2
340
14
 93
        0
 40
0.045
309
GRIDFORMAT_END
 95
        4
302
GRIDFORMAT
  1
GRIDFORMAT_BEGIN
 90
        0
 91
        1
 62
     0
 92
       -2
340
14
 93
        0
 40
0.045
309
GRIDFORMAT_END
 95
        8
302
GRIDFORMAT
  1
GRIDFORMAT_BEGIN
 90
        0
 91
        1
 62
     0
 92
       -2
340
14
 93
        0
 40
0.045
309
GRIDFORMAT_END
 95
       16
302
GRIDFORMAT
  1
GRIDFORMAT_BEGIN
 90
        0
 91
        1
 62
     0
 92
       -2
340
14
 93
        0
 40
0.045
309
GRIDFORMAT_END
 95
       32
302
GRIDFORMAT
  1
GRIDFORMAT_BEGIN
 90
        0
 91
        1
 62
     0
 92
       -2
340
14
 93
        0
 40
0.045
309
GRIDFORMAT_END
309
TABLEFORMAT_END
  1
CELLSTYLE_BEGIN
 90
        3
 91
        2
300
_DATA
309
CELLSTYLE_END
  0
XRECORD
  5
39A
102
{ACAD_REACTORS
330
2BC
102
}
330
2BC
100
AcDbXrecord
280
     1
102
ACAD_ROUNDTRIP_PRE2007_TABLESTYLE
 90
        4
 91
        0
  1

 92
        4
 93
        0
  2

 94
        4
 95
        0
  3

  0
XRECORD
  5
373
102
{ACAD_REACTORS
330
372
102
}
330
372
100
AcDbXrecord
280
     1
102
RTVSPost2010Prop28
280
     1
102
RTVSPost2010PropOp28
 70
     1
102
RTVSPost2010Prop29
280
     1
102
RTVSPost2010PropOp29
 70
     1
102
RTVSPost2010Prop30
280
     0
102
RTVSPost2010PropOp30
 70
     1
102
RTVSPost2010Prop31
280
     0
102
RTVSPost2010PropOp31
 70
     1
102
RTVSPost2010Prop32
280
     0
102
RTVSPost2010PropOp32
 70
     1
102
RTVSPost2010Prop33
280
     0
102
RTVSPost2010PropOp33
 70
     1
102
RTVSPost2010Prop34
280
     0
102
RTVSPost2010PropOp34
 70
     1
102
RTVSPost2010Prop35
280
     0
102
RTVSPost2010PropOp35
 70
     1
102
RTVSPost2010Prop36
280
     0
102
RTVSPost2010PropOp36
 70
     1
102
RTVSPost2010Prop37
 90
       50
102
RTVSPost2010PropOp37
 70
     1
102
RTVSPost2010Prop38
140
0.0
102
RTVSPost2010PropOp38
 70
     1
102
RTVSPost2010Prop39
140
1.0
102
RTVSPost2010PropOp39
 70
     1
102
RTVSPost2010Prop40
 90
        0
102
RTVSPost2010PropOp40
 70
     1
102
RTVSPost2010Prop41ColorIndex
 90
       18
102
RTVSPost2010Prop41ColorRGB
 90
        0
102
RTVSPost2010PropOp41
 70
     1
102
RTVSPost2010Prop42
 90
       50
102
RTVSPost2010PropOp42
 70
     1
102
RTVSPost2010Prop43
 90
        3
102
RTVSPost2010PropOp43
 70
     1
102
RTVSPost2010Prop44ColorIndex
 90
        5
102
RTVSPost2010Prop44ColorRGB
 90
      255
102
RTVSPost2010PropOp44
 70
     1
102
RTVSPost2010Prop45
280
     0
102
RTVSPost2010PropOp45
 70
     1
102
RTVSPost2010Prop46
 90
       50
102
RTVSPost2010PropOp46
 70
     1
102
RTVSPost2010Prop47
 90
       50
102
RTVSPost2010PropOp47
 70
     1
102
RTVSPost2010Prop48
 90
       50
102
RTVSPost2010PropOp48
 70
     1
102
RTVSPost2010Prop49
280
     0
102
RTVSPost2010PropOp49
 70
     1
102
RTVSPost2010Prop50
 90
       50
102
RTVSPost2010PropOp50
 70
     1
102
RTVSPost2010Prop51ColorIndex
 90
      256
102
RTVSPost2010Prop51ColorRGB
 90
-16777216
102
RTVSPost2010PropOp51
 70
     0
102
RTVSPost2010Prop52
140
1.0
102
RTVSPost2010PropOp52
 70
     0
102
RTVSPost2010Prop53
 90
        2
102
RTVSPost2010PropOp53
 70
     1
102
RTVSPost2010Prop54
  1
strokes_ogs.tif
102
RTVSPost2010PropOp54
 70
     1
102
RTVSPost2010Prop55
280
     0
102
RTVSPost2010PropOp55
 70
     1
102
RTVSPost2010Prop56
140
1.0
102
RTVSPost2010PropOp56
 70
     1
102
RTVSPost2010Prop57
140
1.0
102
RTVSPost2010PropOp57
 70
     1
102
RTVSPropertyOp0
 70
     1
102
RTVSPropertyOp1
 70
     1
102
RTVSPropertyOp2
 70
     1
102
RTVSPropertyOp3
 70
     1
102
RTVSPropertyOp4
 70
     1
102
RTVSPropertyOp5
 70
     1
102
RTVSPropertyOp6
 70
     1
102
RTVSPropertyOp7
 70
     1
102
RTVSPropertyOp8
 70
     1
102
RTVSPropertyOp9
 70
     1
102
RTVSPropertyOp10
 70
     1
102
RTVSPropertyOp11
 70
     1
102
RTVSPropertyOp12
 70
     1
102
RTVSPropertyOp13
 70
     1
102
RTVSPropertyOp14
 70
     1
102
RTVSPropertyOp15
 70
     1
102
RTVSPropertyOp16
 70
     1
102
RTVSPropertyOp17
 70
     1
102
RTVSPropertyOp18
 70
     1
102
RTVSPropertyOp19
 70
     1
102
RTVSPropertyOp20
 70
     1
102
RTVSPropertyOp21
 70
     1
102
RTVSPropertyOp22
 70
     1
102
RTVSPropertyOp23
 70
     1
102
RTVSPropertyOp24
 70
     1
102
RTVSPropertyOp25
 70
     1
102
RTVSPropertyOp26
 70
     1
102
RTVSPropertyOp27
 70
     1
102
RTVSPropertyOp28
 70
     1
102
RTVSPropertyOp29
 70
     1
102
RTVSPropertyOp30
 70
     1
102
RTVSPropertyOp31
 70
     1
102
RTVSPropertyOp32
 70
     1
102
RTVSPropertyOp33
 70
     1
102
RTVSPropertyOp34
 70
     1
102
RTVSPropertyOp35
 70
     1
102
RTVSPropertyOp36
 70
     1
102
RTVSPropertyOp37
 70
     1
102
RTVSPropertyOp38
 70
     1
102
RTVSPropertyOp39
 70
     1
102
RTVSPropertyOp40
 70
     1
102
RTVSPropertyOp41
 70
     1
102
RTVSPropertyOp42
 70
     1
102
RTVSPropertyOp43
 70
     1
102
RTVSPropertyOp44
 70
     1
102
RTVSPropertyOp45
 70
     1
102
RTVSPropertyOp46
 70
     1
102
RTVSPropertyOp47
 70
     1
102
RTVSPropertyOp48
 70
     1
102
RTVSPropertyOp49
 70
     1
102
RTVSPropertyOp50
 70
     1
102
RTVSPropertyOp51
 70
     0
102
RTVSPropertyOp52
 70
     0
102
RTVSPropertyOp53
 70
     1
102
RTVSPropertyOp54
 70
     1
102
RTVSPropertyOp55
 70
     1
102
RTVSPropertyOp56
 70
     1
102
RTVSPropertyOp57
 70
     1
102
RTVSPropertyOp58
 70
     1
102
RTVSPropertyOp59
 70
     1
102
RTVSPropertyOp60
 70
     1
102
RTVSPropertyOp61
 70
     1
102
RTVSPropertyOp62
 70
     1
  0
XRECORD
  5
379
102
{ACAD_REACTORS
330
378
102
}
330
378
100
AcDbXrecord
280
     1
102
RTVSPost2010Prop28
280
     0
102
RTVSPost2010PropOp28
 70
     1
102
RTVSPost2010Prop29
280
     1
102
RTVSPost2010PropOp29
 70
     1
102
RTVSPost2010Prop30
280
     1
102
RTVSPost2010PropOp30
 70
     1
102
RTVSPost2010Prop31
280
     0
102
RTVSPost2010PropOp31
 70
     1
102
RTVSPost2010Prop32
280
     0
102
RTVSPost2010PropOp32
 70
     1
102
RTVSPost2010Prop33
280
     0
102
RTVSPost2010PropOp33
 70
     1
102
RTVSPost2010Prop34
280
     0
102
RTVSPost2010PropOp34
 70
     1
102
RTVSPost2010Prop35
280
     0
102
RTVSPost2010PropOp35
 70
     1
102
RTVSPost2010Prop36
280
     0
102
RTVSPost2010PropOp36
 70
     1
102
RTVSPost2010Prop37
 90
       50
102
RTVSPost2010PropOp37
 70
     1
102
RTVSPost2010Prop38
140
0.0
102
RTVSPost2010PropOp38
 70
     1
102
RTVSPost2010Prop39
140
1.0
102
RTVSPost2010PropOp39
 70
     1
102
RTVSPost2010Prop40
 90
        0
102
RTVSPost2010PropOp40
 70
     1
102
RTVSPost2010Prop41ColorIndex
 90
       18
102
RTVSPost2010Prop41ColorRGB
 90
        0
102
RTVSPost2010PropOp41
 70
     1
102
RTVSPost2010Prop42
 90
       50
102
RTVSPost2010PropOp42
 70
     1
102
RTVSPost2010Prop43
 90
        3
102
RTVSPost2010PropOp43
 70
     1
102
RTVSPost2010Prop44ColorIndex
 90
        5
102
RTVSPost2010Prop44ColorRGB
 90
      255
102
RTVSPost2010PropOp44
 70
     1
102
RTVSPost2010Prop45
280
     0
102
RTVSPost2010PropOp45
 70
     1
102
RTVSPost2010Prop46
 90
       50
102
RTVSPost2010PropOp46
 70
     1
102
RTVSPost2010Prop47
 90
       50
102
RTVSPost2010PropOp47
 70
     1
102
RTVSPost2010Prop48
 90
       50
102
RTVSPost2010PropOp48
 70
     1
102
RTVSPost2010Prop49
280
     0
102
RTVSPost2010PropOp49
 70
     1
102
RTVSPost2010Prop50
 90
       50
102
RTVSPost2010PropOp50
 70
     1
102
RTVSPost2010Prop51ColorIndex
 90
      256
102
RTVSPost2010Prop51ColorRGB
 90
-16777216
102
RTVSPost2010PropOp51
 70
     0
102
RTVSPost2010Prop52
140
1.0
102
RTVSPost2010PropOp52
 70
     0
102
RTVSPost2010Prop53
 90
        2
102
RTVSPost2010PropOp53
 70
     1
102
RTVSPost2010Prop54
  1
strokes_ogs.tif
102
RTVSPost2010PropOp54
 70
     1
102
RTVSPost2010Prop55
280
     0
102
RTVSPost2010PropOp55
 70
     1
102
RTVSPost2010Prop56
140
1.0
102
RTVSPost2010PropOp56
 70
     1
102
RTVSPost2010Prop57
140
1.0
102
RTVSPost2010PropOp57
 70
     1
102
RTVSPropertyOp0
 70
     1
102
RTVSPropertyOp1
 70
     1
102
RTVSPropertyOp2
 70
     1
102
RTVSPropertyOp3
 70
     1
102
RTVSPropertyOp4
 70
     1
102
RTVSPropertyOp5
 70
     1
102
RTVSPropertyOp6
 70
     1
102
RTVSPropertyOp7
 70
     1
102
RTVSPropertyOp8
 70
     1
102
RTVSPropertyOp9
 70
     1
102
RTVSPropertyOp10
 70
     1
102
RTVSPropertyOp11
 70
     1
102
RTVSPropertyOp12
 70
     1
102
RTVSPropertyOp13
 70
     1
102
RTVSPropertyOp14
 70
     1
102
RTVSPropertyOp15
 70
     1
102
RTVSPropertyOp16
 70
     1
102
RTVSPropertyOp17
 70
     1
102
RTVSPropertyOp18
 70
     1
102
RTVSPropertyOp19
 70
     1
102
RTVSPropertyOp20
 70
     1
102
RTVSPropertyOp21
 70
     1
102
RTVSPropertyOp22
 70
     1
102
RTVSPropertyOp23
 70
     1
102
RTVSPropertyOp24
 70
     1
102
RTVSPropertyOp25
 70
     1
102
RTVSPropertyOp26
 70
     1
102
RTVSPropertyOp27
 70
     1
102
RTVSPropertyOp28
 70
     1
102
RTVSPropertyOp29
 70
     1
102
RTVSPropertyOp30
 70
     1
102
RTVSPropertyOp31
 70
     1
102
RTVSPropertyOp32
 70
     1
102
RTVSPropertyOp33
 70
     1
102
RTVSPropertyOp34
 70
     1
102
RTVSPropertyOp35
 70
     1
102
RTVSPropertyOp36
 70
     1
102
RTVSPropertyOp37
 70
     1
102
RTVSPropertyOp38
 70
     1
102
RTVSPropertyOp39
 70
     1
102
RTVSPropertyOp40
 70
     1
102
RTVSPropertyOp41
 70
     1
102
RTVSPropertyOp42
 70
     1
102
RTVSPropertyOp43
 70
     1
102
RTVSPropertyOp44
 70
     1
102
RTVSPropertyOp45
 70
     1
102
RTVSPropertyOp46
 70
     1
102
RTVSPropertyOp47
 70
     1
102
RTVSPropertyOp48
 70
     1
102
RTVSPropertyOp49
 70
     1
102
RTVSPropertyOp50
 70
     1
102
RTVSPropertyOp51
 70
     0
102
RTVSPropertyOp52
 70
     0
102
RTVSPropertyOp53
 70
     1
102
RTVSPropertyOp54
 70
     1
102
RTVSPropertyOp55
 70
     1
102
RTVSPropertyOp56
 70
     1
102
RTVSPropertyOp57
 70
     1
102
RTVSPropertyOp58
 70
     1
102
RTVSPropertyOp59
 70
     1
102
RTVSPropertyOp60
 70
     1
102
RTVSPropertyOp61
 70
     1
102
RTVSPropertyOp62
 70
     1
  0
XRECORD
  5
381
102
{ACAD_REACTORS
330
380
102
}
330
380
100
AcDbXrecord
280
     1
102
RTVSPost2010Prop28
280
     0
102
RTVSPost2010PropOp28
 70
     1
102
RTVSPost2010Prop29
280
     1
102
RTVSPost2010PropOp29
 70
     1
102
RTVSPost2010Prop30
280
     1
102
RTVSPost2010PropOp30
 70
     1
102
RTVSPost2010Prop31
280
     0
102
RTVSPost2010PropOp31
 70
     1
102
RTVSPost2010Prop32
280
     0
102
RTVSPost2010PropOp32
 70
     1
102
RTVSPost2010Prop33
280
     0
102
RTVSPost2010PropOp33
 70
     1
102
RTVSPost2010Prop34
280
     0
102
RTVSPost2010PropOp34
 70
     1
102
RTVSPost2010Prop35
280
     0
102
RTVSPost2010PropOp35
 70
     1
102
RTVSPost2010Prop36
280
     0
102
RTVSPost2010PropOp36
 70
     1
102
RTVSPost2010Prop37
 90
       50
102
RTVSPost2010PropOp37
 70
     1
102
RTVSPost2010Prop38
140
0.0
102
RTVSPost2010PropOp38
 70
     1
102
RTVSPost2010Prop39
140
1.0
102
RTVSPost2010PropOp39
 70
     1
102
RTVSPost2010Prop40
 90
        0
102
RTVSPost2010PropOp40
 70
     1
102
RTVSPost2010Prop41ColorIndex
 90
       18
102
RTVSPost2010Prop41ColorRGB
 90
        0
102
RTVSPost2010PropOp41
 70
     1
102
RTVSPost2010Prop42
 90
       50
102
RTVSPost2010PropOp42
 70
     1
102
RTVSPost2010Prop43
 90
        3
102
RTVSPost2010PropOp43
 70
     1
102
RTVSPost2010Prop44ColorIndex
 90
        5
102
RTVSPost2010Prop44ColorRGB
 90
      255
102
RTVSPost2010PropOp44
 70
     1
102
RTVSPost2010Prop45
280
     0
102
RTVSPost2010PropOp45
 70
     1
102
RTVSPost2010Prop46
 90
       50
102
RTVSPost2010PropOp46
 70
     1
102
RTVSPost2010Prop47
 90
       50
102
RTVSPost2010PropOp47
 70
     1
102
RTVSPost2010Prop48
 90
       50
102
RTVSPost2010PropOp48
 70
     1
102
RTVSPost2010Prop49
280
     0
102
RTVSPost2010PropOp49
 70
     1
102
RTVSPost2010Prop50
 90
       50
102
RTVSPost2010PropOp50
 70
     1
102
RTVSPost2010Prop51ColorIndex
 90
      256
102
RTVSPost2010Prop51ColorRGB
 90
-16777216
102
RTVSPost2010PropOp51
 70
     0
102
RTVSPost2010Prop52
140
1.0
102
RTVSPost2010PropOp52
 70
     0
102
RTVSPost2010Prop53
 90
        2
102
RTVSPost2010PropOp53
 70
     1
102
RTVSPost2010Prop54
  1
strokes_ogs.tif
102
RTVSPost2010PropOp54
 70
     1
102
RTVSPost2010Prop55
280
     0
102
RTVSPost2010PropOp55
 70
     1
102
RTVSPost2010Prop56
140
1.0
102
RTVSPost2010PropOp56
 70
     1
102
RTVSPost2010Prop57
140
1.0
102
RTVSPost2010PropOp57
 70
     1
102
RTVSPropertyOp0
 70
     1
102
RTVSPropertyOp1
 70
     1
102
RTVSPropertyOp2
 70
     1
102
RTVSPropertyOp3
 70
     1
102
RTVSPropertyOp4
 70
     1
102
RTVSPropertyOp5
 70
     1
102
RTVSPropertyOp6
 70
     1
102
RTVSPropertyOp7
 70
     1
102
RTVSPropertyOp8
 70
     1
102
RTVSPropertyOp9
 70
     1
102
RTVSPropertyOp10
 70
     1
102
RTVSPropertyOp11
 70
     1
102
RTVSPropertyOp12
 70
     1
102
RTVSPropertyOp13
 70
     1
102
RTVSPropertyOp14
 70
     1
102
RTVSPropertyOp15
 70
     1
102
RTVSPropertyOp16
 70
     1
102
RTVSPropertyOp17
 70
     1
102
RTVSPropertyOp18
 70
     1
102
RTVSPropertyOp19
 70
     1
102
RTVSPropertyOp20
 70
     1
102
RTVSPropertyOp21
 70
     1
102
RTVSPropertyOp22
 70
     1
102
RTVSPropertyOp23
 70
     1
102
RTVSPropertyOp24
 70
     1
102
RTVSPropertyOp25
 70
     1
102
RTVSPropertyOp26
 70
     1
102
RTVSPropertyOp27
 70
     1
102
RTVSPropertyOp28
 70
     1
102
RTVSPropertyOp29
 70
     1
102
RTVSPropertyOp30
 70
     1
102
RTVSPropertyOp31
 70
     1
102
RTVSPropertyOp32
 70
     1
102
RTVSPropertyOp33
 70
     1
102
RTVSPropertyOp34
 70
     1
102
RTVSPropertyOp35
 70
     1
102
RTVSPropertyOp36
 70
     1
102
RTVSPropertyOp37
 70
     1
102
RTVSPropertyOp38
 70
     1
102
RTVSPropertyOp39
 70
     1
102
RTVSPropertyOp40
 70
     1
102
RTVSPropertyOp41
 70
     1
102
RTVSPropertyOp42
 70
     1
102
RTVSPropertyOp43
 70
     1
102
RTVSPropertyOp44
 70
     1
102
RTVSPropertyOp45
 70
     1
102
RTVSPropertyOp46
 70
     1
102
RTVSPropertyOp47
 70
     1
102
RTVSPropertyOp48
 70
     1
102
RTVSPropertyOp49
 70
     1
102
RTVSPropertyOp50
 70
     1
102
RTVSPropertyOp51
 70
     0
102
RTVSPropertyOp52
 70
     0
102
RTVSPropertyOp53
 70
     1
102
RTVSPropertyOp54
 70
     1
102
RTVSPropertyOp55
 70
     1
102
RTVSPropertyOp56
 70
     1
102
RTVSPropertyOp57
 70
     1
102
RTVSPropertyOp58
 70
     1
102
RTVSPropertyOp59
 70
     1
102
RTVSPropertyOp60
 70
     1
102
RTVSPropertyOp61
 70
     1
102
RTVSPropertyOp62
 70
     1
  0
XRECORD
  5
389
102
{ACAD_REACTORS
330
388
102
}
330
388
100
AcDbXrecord
280
     1
102
RTVSPost2010Prop28
280
     0
102
RTVSPost2010PropOp28
 70
     1
102
RTVSPost2010Prop29
280
     1
102
RTVSPost2010PropOp29
 70
     1
102
RTVSPost2010Prop30
280
     1
102
RTVSPost2010PropOp30
 70
     1
102
RTVSPost2010Prop31
280
     0
102
RTVSPost2010PropOp31
 70
     1
102
RTVSPost2010Prop32
280
     0
102
RTVSPost2010PropOp32
 70
     1
102
RTVSPost2010Prop33
280
     0
102
RTVSPost2010PropOp33
 70
     1
102
RTVSPost2010Prop34
280
     0
102
RTVSPost2010PropOp34
 70
     1
102
RTVSPost2010Prop35
280
     0
102
RTVSPost2010PropOp35
 70
     1
102
RTVSPost2010Prop36
280
     0
102
RTVSPost2010PropOp36
 70
     1
102
RTVSPost2010Prop37
 90
       50
102
RTVSPost2010PropOp37
 70
     1
102
RTVSPost2010Prop38
140
0.0
102
RTVSPost2010PropOp38
 70
     1
102
RTVSPost2010Prop39
140
1.0
102
RTVSPost2010PropOp39
 70
     1
102
RTVSPost2010Prop40
 90
        0
102
RTVSPost2010PropOp40
 70
     1
102
RTVSPost2010Prop41ColorIndex
 90
       18
102
RTVSPost2010Prop41ColorRGB
 90
        0
102
RTVSPost2010PropOp41
 70
     1
102
RTVSPost2010Prop42
 90
       50
102
RTVSPost2010PropOp42
 70
     1
102
RTVSPost2010Prop43
 90
        3
102
RTVSPost2010PropOp43
 70
     1
102
RTVSPost2010Prop44ColorIndex
 90
        5
102
RTVSPost2010Prop44ColorRGB
 90
      255
102
RTVSPost2010PropOp44
 70
     1
102
RTVSPost2010Prop45
280
     0
102
RTVSPost2010PropOp45
 70
     1
102
RTVSPost2010Prop46
 90
       50
102
RTVSPost2010PropOp46
 70
     1
102
RTVSPost2010Prop47
 90
       50
102
RTVSPost2010PropOp47
 70
     1
102
RTVSPost2010Prop48
 90
       50
102
RTVSPost2010PropOp48
 70
     1
102
RTVSPost2010Prop49
280
     0
102
RTVSPost2010PropOp49
 70
     1
102
RTVSPost2010Prop50
 90
       50
102
RTVSPost2010PropOp50
 70
     1
102
RTVSPost2010Prop51ColorIndex
 90
      256
102
RTVSPost2010Prop51ColorRGB
 90
-16777216
102
RTVSPost2010PropOp51
 70
     0
102
RTVSPost2010Prop52
140
1.0
102
RTVSPost2010PropOp52
 70
     0
102
RTVSPost2010Prop53
 90
        2
102
RTVSPost2010PropOp53
 70
     1
102
RTVSPost2010Prop54
  1
strokes_ogs.tif
102
RTVSPost2010PropOp54
 70
     1
102
RTVSPost2010Prop55
280
     0
102
RTVSPost2010PropOp55
 70
     1
102
RTVSPost2010Prop56
140
1.0
102
RTVSPost2010PropOp56
 70
     1
102
RTVSPost2010Prop57
140
1.0
102
RTVSPost2010PropOp57
 70
     1
102
RTVSPropertyOp0
 70
     1
102
RTVSPropertyOp1
 70
     1
102
RTVSPropertyOp2
 70
     1
102
RTVSPropertyOp3
 70
     1
102
RTVSPropertyOp4
 70
     1
102
RTVSPropertyOp5
 70
     1
102
RTVSPropertyOp6
 70
     1
102
RTVSPropertyOp7
 70
     1
102
RTVSPropertyOp8
 70
     1
102
RTVSPropertyOp9
 70
     1
102
RTVSPropertyOp10
 70
     1
102
RTVSPropertyOp11
 70
     1
102
RTVSPropertyOp12
 70
     1
102
RTVSPropertyOp13
 70
     1
102
RTVSPropertyOp14
 70
     1
102
RTVSPropertyOp15
 70
     1
102
RTVSPropertyOp16
 70
     1
102
RTVSPropertyOp17
 70
     1
102
RTVSPropertyOp18
 70
     1
102
RTVSPropertyOp19
 70
     1
102
RTVSPropertyOp20
 70
     1
102
RTVSPropertyOp21
 70
     1
102
RTVSPropertyOp22
 70
     1
102
RTVSPropertyOp23
 70
     1
102
RTVSPropertyOp24
 70
     1
102
RTVSPropertyOp25
 70
     1
102
RTVSPropertyOp26
 70
     1
102
RTVSPropertyOp27
 70
     1
102
RTVSPropertyOp28
 70
     1
102
RTVSPropertyOp29
 70
     1
102
RTVSPropertyOp30
 70
     1
102
RTVSPropertyOp31
 70
     1
102
RTVSPropertyOp32
 70
     1
102
RTVSPropertyOp33
 70
     1
102
RTVSPropertyOp34
 70
     1
102
RTVSPropertyOp35
 70
     1
102
RTVSPropertyOp36
 70
     1
102
RTVSPropertyOp37
 70
     1
102
RTVSPropertyOp38
 70
     1
102
RTVSPropertyOp39
 70
     1
102
RTVSPropertyOp40
 70
     1
102
RTVSPropertyOp41
 70
     1
102
RTVSPropertyOp42
 70
     1
102
RTVSPropertyOp43
 70
     1
102
RTVSPropertyOp44
 70
     1
102
RTVSPropertyOp45
 70
     1
102
RTVSPropertyOp46
 70
     1
102
RTVSPropertyOp47
 70
     1
102
RTVSPropertyOp48
 70
     1
102
RTVSPropertyOp49
 70
     1
102
RTVSPropertyOp50
 70
     1
102
RTVSPropertyOp51
 70
     0
102
RTVSPropertyOp52
 70
     0
102
RTVSPropertyOp53
 70
     1
102
RTVSPropertyOp54
 70
     1
102
RTVSPropertyOp55
 70
     1
102
RTVSPropertyOp56
 70
     1
102
RTVSPropertyOp57
 70
     1
102
RTVSPropertyOp58
 70
     1
102
RTVSPropertyOp59
 70
     1
102
RTVSPropertyOp60
 70
     1
102
RTVSPropertyOp61
 70
     1
102
RTVSPropertyOp62
 70
     1
  0
XRECORD
  5
37D
102
{ACAD_REACTORS
330
37C
102
}
330
37C
100
AcDbXrecord
280
     1
102
RTVSPost2010Prop28
280
     0
102
RTVSPost2010PropOp28
 70
     1
102
RTVSPost2010Prop29
280
     1
102
RTVSPost2010PropOp29
 70
     1
102
RTVSPost2010Prop30
280
     1
102
RTVSPost2010PropOp30
 70
     1
102
RTVSPost2010Prop31
280
     0
102
RTVSPost2010PropOp31
 70
     1
102
RTVSPost2010Prop32
280
     0
102
RTVSPost2010PropOp32
 70
     1
102
RTVSPost2010Prop33
280
     0
102
RTVSPost2010PropOp33
 70
     1
102
RTVSPost2010Prop34
280
     0
102
RTVSPost2010PropOp34
 70
     1
102
RTVSPost2010Prop35
280
     0
102
RTVSPost2010PropOp35
 70
     1
102
RTVSPost2010Prop36
280
     0
102
RTVSPost2010PropOp36
 70
     1
102
RTVSPost2010Prop37
 90
       50
102
RTVSPost2010PropOp37
 70
     1
102
RTVSPost2010Prop38
140
0.0
102
RTVSPost2010PropOp38
 70
     1
102
RTVSPost2010Prop39
140
1.0
102
RTVSPost2010PropOp39
 70
     1
102
RTVSPost2010Prop40
 90
        0
102
RTVSPost2010PropOp40
 70
     1
102
RTVSPost2010Prop41ColorIndex
 90
       18
102
RTVSPost2010Prop41ColorRGB
 90
        0
102
RTVSPost2010PropOp41
 70
     1
102
RTVSPost2010Prop42
 90
       50
102
RTVSPost2010PropOp42
 70
     1
102
RTVSPost2010Prop43
 90
        3
102
RTVSPost2010PropOp43
 70
     1
102
RTVSPost2010Prop44ColorIndex
 90
        5
102
RTVSPost2010Prop44ColorRGB
 90
      255
102
RTVSPost2010PropOp44
 70
     1
102
RTVSPost2010Prop45
280
     0
102
RTVSPost2010PropOp45
 70
     1
102
RTVSPost2010Prop46
 90
       50
102
RTVSPost2010PropOp46
 70
     1
102
RTVSPost2010Prop47
 90
       50
102
RTVSPost2010PropOp47
 70
     1
102
RTVSPost2010Prop48
 90
       50
102
RTVSPost2010PropOp48
 70
     1
102
RTVSPost2010Prop49
280
     0
102
RTVSPost2010PropOp49
 70
     1
102
RTVSPost2010Prop50
 90
       50
102
RTVSPost2010PropOp50
 70
     1
102
RTVSPost2010Prop51ColorIndex
 90
      256
102
RTVSPost2010Prop51ColorRGB
 90
-16777216
102
RTVSPost2010PropOp51
 70
     0
102
RTVSPost2010Prop52
140
1.0
102
RTVSPost2010PropOp52
 70
     0
102
RTVSPost2010Prop53
 90
        2
102
RTVSPost2010PropOp53
 70
     1
102
RTVSPost2010Prop54
  1
strokes_ogs.tif
102
RTVSPost2010PropOp54
 70
     1
102
RTVSPost2010Prop55
280
     0
102
RTVSPost2010PropOp55
 70
     1
102
RTVSPost2010Prop56
140
1.0
102
RTVSPost2010PropOp56
 70
     1
102
RTVSPost2010Prop57
140
1.0
102
RTVSPost2010PropOp57
 70
     1
102
RTVSPropertyOp0
 70
     1
102
RTVSPropertyOp1
 70
     1
102
RTVSPropertyOp2
 70
     1
102
RTVSPropertyOp3
 70
     1
102
RTVSPropertyOp4
 70
     1
102
RTVSPropertyOp5
 70
     1
102
RTVSPropertyOp6
 70
     1
102
RTVSPropertyOp7
 70
     1
102
RTVSPropertyOp8
 70
     1
102
RTVSPropertyOp9
 70
     1
102
RTVSPropertyOp10
 70
     1
102
RTVSPropertyOp11
 70
     1
102
RTVSPropertyOp12
 70
     1
102
RTVSPropertyOp13
 70
     1
102
RTVSPropertyOp14
 70
     1
102
RTVSPropertyOp15
 70
     1
102
RTVSPropertyOp16
 70
     1
102
RTVSPropertyOp17
 70
     1
102
RTVSPropertyOp18
 70
     1
102
RTVSPropertyOp19
 70
     1
102
RTVSPropertyOp20
 70
     1
102
RTVSPropertyOp21
 70
     1
102
RTVSPropertyOp22
 70
     1
102
RTVSPropertyOp23
 70
     1
102
RTVSPropertyOp24
 70
     1
102
RTVSPropertyOp25
 70
     1
102
RTVSPropertyOp26
 70
     1
102
RTVSPropertyOp27
 70
     1
102
RTVSPropertyOp28
 70
     1
102
RTVSPropertyOp29
 70
     1
102
RTVSPropertyOp30
 70
     1
102
RTVSPropertyOp31
 70
     1
102
RTVSPropertyOp32
 70
     1
102
RTVSPropertyOp33
 70
     1
102
RTVSPropertyOp34
 70
     1
102
RTVSPropertyOp35
 70
     1
102
RTVSPropertyOp36
 70
     1
102
RTVSPropertyOp37
 70
     1
102
RTVSPropertyOp38
 70
     1
102
RTVSPropertyOp39
 70
     1
102
RTVSPropertyOp40
 70
     1
102
RTVSPropertyOp41
 70
     1
102
RTVSPropertyOp42
 70
     1
102
RTVSPropertyOp43
 70
     1
102
RTVSPropertyOp44
 70
     1
102
RTVSPropertyOp45
 70
     1
102
RTVSPropertyOp46
 70
     1
102
RTVSPropertyOp47
 70
     1
102
RTVSPropertyOp48
 70
     1
102
RTVSPropertyOp49
 70
     1
102
RTVSPropertyOp50
 70
     1
102
RTVSPropertyOp51
 70
     0
102
RTVSPropertyOp52
 70
     0
102
RTVSPropertyOp53
 70
     1
102
RTVSPropertyOp54
 70
     1
102
RTVSPropertyOp55
 70
     1
102
RTVSPropertyOp56
 70
     1
102
RTVSPropertyOp57
 70
     1
102
RTVSPropertyOp58
 70
     1
102
RTVSPropertyOp59
 70
     1
102
RTVSPropertyOp60
 70
     1
102
RTVSPropertyOp61
 70
     1
102
RTVSPropertyOp62
 70
     1
  0
XRECORD
  5
37F
102
{ACAD_REACTORS
330
37E
102
}
330
37E
100
AcDbXrecord
280
     1
102
RTVSPost2010Prop28
280
     0
102
RTVSPost2010PropOp28
 70
     1
102
RTVSPost2010Prop29
280
     1
102
RTVSPost2010PropOp29
 70
     1
102
RTVSPost2010Prop30
280
     1
102
RTVSPost2010PropOp30
 70
     1
102
RTVSPost2010Prop31
280
     0
102
RTVSPost2010PropOp31
 70
     1
102
RTVSPost2010Prop32
280
     0
102
RTVSPost2010PropOp32
 70
     1
102
RTVSPost2010Prop33
280
     0
102
RTVSPost2010PropOp33
 70
     1
102
RTVSPost2010Prop34
280
     0
102
RTVSPost2010PropOp34
 70
     1
102
RTVSPost2010Prop35
280
     0
102
RTVSPost2010PropOp35
 70
     1
102
RTVSPost2010Prop36
280
     0
102
RTVSPost2010PropOp36
 70
     1
102
RTVSPost2010Prop37
 90
       50
102
RTVSPost2010PropOp37
 70
     1
102
RTVSPost2010Prop38
140
0.0
102
RTVSPost2010PropOp38
 70
     1
102
RTVSPost2010Prop39
140
1.0
102
RTVSPost2010PropOp39
 70
     1
102
RTVSPost2010Prop40
 90
        0
102
RTVSPost2010PropOp40
 70
     1
102
RTVSPost2010Prop41ColorIndex
 90
       18
102
RTVSPost2010Prop41ColorRGB
 90
        0
102
RTVSPost2010PropOp41
 70
     1
102
RTVSPost2010Prop42
 90
       50
102
RTVSPost2010PropOp42
 70
     1
102
RTVSPost2010Prop43
 90
        3
102
RTVSPost2010PropOp43
 70
     1
102
RTVSPost2010Prop44ColorIndex
 90
        5
102
RTVSPost2010Prop44ColorRGB
 90
      255
102
RTVSPost2010PropOp44
 70
     1
102
RTVSPost2010Prop45
280
     0
102
RTVSPost2010PropOp45
 70
     1
102
RTVSPost2010Prop46
 90
       50
102
RTVSPost2010PropOp46
 70
     1
102
RTVSPost2010Prop47
 90
       50
102
RTVSPost2010PropOp47
 70
     1
102
RTVSPost2010Prop48
 90
       50
102
RTVSPost2010PropOp48
 70
     1
102
RTVSPost2010Prop49
280
     0
102
RTVSPost2010PropOp49
 70
     1
102
RTVSPost2010Prop50
 90
       50
102
RTVSPost2010PropOp50
 70
     1
102
RTVSPost2010Prop51ColorIndex
 90
      256
102
RTVSPost2010Prop51ColorRGB
 90
-16777216
102
RTVSPost2010PropOp51
 70
     0
102
RTVSPost2010Prop52
140
1.0
102
RTVSPost2010PropOp52
 70
     0
102
RTVSPost2010Prop53
 90
        2
102
RTVSPost2010PropOp53
 70
     1
102
RTVSPost2010Prop54
  1
strokes_ogs.tif
102
RTVSPost2010PropOp54
 70
     1
102
RTVSPost2010Prop55
280
     0
102
RTVSPost2010PropOp55
 70
     1
102
RTVSPost2010Prop56
140
1.0
102
RTVSPost2010PropOp56
 70
     1
102
RTVSPost2010Prop57
140
1.0
102
RTVSPost2010PropOp57
 70
     1
102
RTVSPropertyOp0
 70
     1
102
RTVSPropertyOp1
 70
     1
102
RTVSPropertyOp2
 70
     1
102
RTVSPropertyOp3
 70
     1
102
RTVSPropertyOp4
 70
     1
102
RTVSPropertyOp5
 70
     1
102
RTVSPropertyOp6
 70
     1
102
RTVSPropertyOp7
 70
     1
102
RTVSPropertyOp8
 70
     1
102
RTVSPropertyOp9
 70
     1
102
RTVSPropertyOp10
 70
     1
102
RTVSPropertyOp11
 70
     1
102
RTVSPropertyOp12
 70
     1
102
RTVSPropertyOp13
 70
     1
102
RTVSPropertyOp14
 70
     1
102
RTVSPropertyOp15
 70
     1
102
RTVSPropertyOp16
 70
     1
102
RTVSPropertyOp17
 70
     1
102
RTVSPropertyOp18
 70
     1
102
RTVSPropertyOp19
 70
     1
102
RTVSPropertyOp20
 70
     1
102
RTVSPropertyOp21
 70
     1
102
RTVSPropertyOp22
 70
     1
102
RTVSPropertyOp23
 70
     1
102
RTVSPropertyOp24
 70
     1
102
RTVSPropertyOp25
 70
     1
102
RTVSPropertyOp26
 70
     1
102
RTVSPropertyOp27
 70
     1
102
RTVSPropertyOp28
 70
     1
102
RTVSPropertyOp29
 70
     1
102
RTVSPropertyOp30
 70
     1
102
RTVSPropertyOp31
 70
     1
102
RTVSPropertyOp32
 70
     1
102
RTVSPropertyOp33
 70
     1
102
RTVSPropertyOp34
 70
     1
102
RTVSPropertyOp35
 70
     1
102
RTVSPropertyOp36
 70
     1
102
RTVSPropertyOp37
 70
     1
102
RTVSPropertyOp38
 70
     1
102
RTVSPropertyOp39
 70
     1
102
RTVSPropertyOp40
 70
     1
102
RTVSPropertyOp41
 70
     1
102
RTVSPropertyOp42
 70
     1
102
RTVSPropertyOp43
 70
     1
102
RTVSPropertyOp44
 70
     1
102
RTVSPropertyOp45
 70
     1
102
RTVSPropertyOp46
 70
     1
102
RTVSPropertyOp47
 70
     1
102
RTVSPropertyOp48
 70
     1
102
RTVSPropertyOp49
 70
     1
102
RTVSPropertyOp50
 70
     1
102
RTVSPropertyOp51
 70
     0
102
RTVSPropertyOp52
 70
     0
102
RTVSPropertyOp53
 70
     1
102
RTVSPropertyOp54
 70
     1
102
RTVSPropertyOp55
 70
     1
102
RTVSPropertyOp56
 70
     1
102
RTVSPropertyOp57
 70
     1
102
RTVSPropertyOp58
 70
     1
102
RTVSPropertyOp59
 70
     1
102
RTVSPropertyOp60
 70
     1
102
RTVSPropertyOp61
 70
     1
102
RTVSPropertyOp62
 70
     1
  0
XRECORD
  5
38F
102
{ACAD_REACTORS
330
38E
102
}
330
38E
100
AcDbXrecord
280
     1
102
RTVSPost2010Prop28
280
     0
102
RTVSPost2010PropOp28
 70
     0
102
RTVSPost2010Prop29
280
     1
102
RTVSPost2010PropOp29
 70
     0
102
RTVSPost2010Prop30
280
     1
102
RTVSPost2010PropOp30
 70
     0
102
RTVSPost2010Prop31
280
     0
102
RTVSPost2010PropOp31
 70
     0
102
RTVSPost2010Prop32
280
     0
102
RTVSPost2010PropOp32
 70
     0
102
RTVSPost2010Prop33
280
     0
102
RTVSPost2010PropOp33
 70
     0
102
RTVSPost2010Prop34
280
     0
102
RTVSPost2010PropOp34
 70
     0
102
RTVSPost2010Prop35
280
     0
102
RTVSPost2010PropOp35
 70
     0
102
RTVSPost2010Prop36
280
     0
102
RTVSPost2010PropOp36
 70
     0
102
RTVSPost2010Prop37
 90
       50
102
RTVSPost2010PropOp37
 70
     0
102
RTVSPost2010Prop38
140
0.0
102
RTVSPost2010PropOp38
 70
     0
102
RTVSPost2010Prop39
140
1.0
102
RTVSPost2010PropOp39
 70
     0
102
RTVSPost2010Prop40
 90
        0
102
RTVSPost2010PropOp40
 70
     0
102
RTVSPost2010Prop41ColorIndex
 90
       18
102
RTVSPost2010Prop41ColorRGB
 90
        0
102
RTVSPost2010PropOp41
 70
     0
102
RTVSPost2010Prop42
 90
       50
102
RTVSPost2010PropOp42
 70
     0
102
RTVSPost2010Prop43
 90
        3
102
RTVSPost2010PropOp43
 70
     0
102
RTVSPost2010Prop44ColorIndex
 90
        5
102
RTVSPost2010Prop44ColorRGB
 90
      255
102
RTVSPost2010PropOp44
 70
     0
102
RTVSPost2010Prop45
280
     0
102
RTVSPost2010PropOp45
 70
     0
102
RTVSPost2010Prop46
 90
       50
102
RTVSPost2010PropOp46
 70
     0
102
RTVSPost2010Prop47
 90
       50
102
RTVSPost2010PropOp47
 70
     0
102
RTVSPost2010Prop48
 90
       50
102
RTVSPost2010PropOp48
 70
     0
102
RTVSPost2010Prop49
280
     0
102
RTVSPost2010PropOp49
 70
     0
102
RTVSPost2010Prop50
 90
       50
102
RTVSPost2010PropOp50
 70
     0
102
RTVSPost2010Prop51ColorIndex
 90
      256
102
RTVSPost2010Prop51ColorRGB
 90
-16777216
102
RTVSPost2010PropOp51
 70
     0
102
RTVSPost2010Prop52
140
1.0
102
RTVSPost2010PropOp52
 70
     0
102
RTVSPost2010Prop53
 90
        2
102
RTVSPost2010PropOp53
 70
     0
102
RTVSPost2010Prop54
  1
strokes_ogs.tif
102
RTVSPost2010PropOp54
 70
     0
102
RTVSPost2010Prop55
280
     0
102
RTVSPost2010PropOp55
 70
     0
102
RTVSPost2010Prop56
140
1.0
102
RTVSPost2010PropOp56
 70
     0
102
RTVSPost2010Prop57
140
1.0
102
RTVSPost2010PropOp57
 70
     0
102
RTVSPropertyOp0
 70
     0
102
RTVSPropertyOp1
 70
     0
102
RTVSPropertyOp2
 70
     0
102
RTVSPropertyOp3
 70
     0
102
RTVSPropertyOp4
 70
     0
102
RTVSPropertyOp5
 70
     0
102
RTVSPropertyOp6
 70
     0
102
RTVSPropertyOp7
 70
     0
102
RTVSPropertyOp8
 70
     0
102
RTVSPropertyOp9
 70
     0
102
RTVSPropertyOp10
 70
     0
102
RTVSPropertyOp11
 70
     0
102
RTVSPropertyOp12
 70
     0
102
RTVSPropertyOp13
 70
     0
102
RTVSPropertyOp14
 70
     2
102
RTVSPropertyOp15
 70
     0
102
RTVSPropertyOp16
 70
     0
102
RTVSPropertyOp17
 70
     0
102
RTVSPropertyOp18
 70
     0
102
RTVSPropertyOp19
 70
     0
102
RTVSPropertyOp20
 70
     0
102
RTVSPropertyOp21
 70
     0
102
RTVSPropertyOp22
 70
     0
102
RTVSPropertyOp23
 70
     0
102
RTVSPropertyOp24
 70
     0
102
RTVSPropertyOp25
 70
     0
102
RTVSPropertyOp26
 70
     0
102
RTVSPropertyOp27
 70
     0
102
RTVSPropertyOp28
 70
     0
102
RTVSPropertyOp29
 70
     0
102
RTVSPropertyOp30
 70
     0
102
RTVSPropertyOp31
 70
     0
102
RTVSPropertyOp32
 70
     0
102
RTVSPropertyOp33
 70
     0
102
RTVSPropertyOp34
 70
     0
102
RTVSPropertyOp35
 70
     0
102
RTVSPropertyOp36
 70
     0
102
RTVSPropertyOp37
 70
     0
102
RTVSPropertyOp38
 70
     0
102
RTVSPropertyOp39
 70
     0
102
RTVSPropertyOp40
 70
     0
102
RTVSPropertyOp41
 70
     0
102
RTVSPropertyOp42
 70
     0
102
RTVSPropertyOp43
 70
     0
102
RTVSPropertyOp44
 70
     0
102
RTVSPropertyOp45
 70
     0
102
RTVSPropertyOp46
 70
     0
102
RTVSPropertyOp47
 70
     0
102
RTVSPropertyOp48
 70
     0
102
RTVSPropertyOp49
 70
     0
102
RTVSPropertyOp50
 70
     0
102
RTVSPropertyOp51
 70
     0
102
RTVSPropertyOp52
 70
     0
102
RTVSPropertyOp53
 70
     0
102
RTVSPropertyOp54
 70
     0
102
RTVSPropertyOp55
 70
     0
102
RTVSPropertyOp56
 70
     0
102
RTVSPropertyOp57
 70
     0
102
RTVSPropertyOp58
 70
     1
102
RTVSPropertyOp59
 70
     1
102
RTVSPropertyOp60
 70
     1
102
RTVSPropertyOp61
 70
     1
102
RTVSPropertyOp62
 70
     1
  0
XRECORD
  5
387
102
{ACAD_REACTORS
330
386
102
}
330
386
100
AcDbXrecord
280
     1
102
RTVSPost2010Prop28
280
     0
102
RTVSPost2010PropOp28
 70
     1
102
RTVSPost2010Prop29
280
     1
102
RTVSPost2010PropOp29
 70
     1
102
RTVSPost2010Prop30
280
     1
102
RTVSPost2010PropOp30
 70
     1
102
RTVSPost2010Prop31
280
     0
102
RTVSPost2010PropOp31
 70
     1
102
RTVSPost2010Prop32
280
     0
102
RTVSPost2010PropOp32
 70
     1
102
RTVSPost2010Prop33
280
     0
102
RTVSPost2010PropOp33
 70
     1
102
RTVSPost2010Prop34
280
     0
102
RTVSPost2010PropOp34
 70
     1
102
RTVSPost2010Prop35
280
     0
102
RTVSPost2010PropOp35
 70
     1
102
RTVSPost2010Prop36
280
     0
102
RTVSPost2010PropOp36
 70
     1
102
RTVSPost2010Prop37
 90
       50
102
RTVSPost2010PropOp37
 70
     1
102
RTVSPost2010Prop38
140
0.0
102
RTVSPost2010PropOp38
 70
     1
102
RTVSPost2010Prop39
140
1.0
102
RTVSPost2010PropOp39
 70
     1
102
RTVSPost2010Prop40
 90
        0
102
RTVSPost2010PropOp40
 70
     1
102
RTVSPost2010Prop41ColorIndex
 90
       18
102
RTVSPost2010Prop41ColorRGB
 90
        0
102
RTVSPost2010PropOp41
 70
     1
102
RTVSPost2010Prop42
 90
       50
102
RTVSPost2010PropOp42
 70
     1
102
RTVSPost2010Prop43
 90
        3
102
RTVSPost2010PropOp43
 70
     1
102
RTVSPost2010Prop44ColorIndex
 90
        5
102
RTVSPost2010Prop44ColorRGB
 90
      255
102
RTVSPost2010PropOp44
 70
     1
102
RTVSPost2010Prop45
280
     0
102
RTVSPost2010PropOp45
 70
     1
102
RTVSPost2010Prop46
 90
       50
102
RTVSPost2010PropOp46
 70
     1
102
RTVSPost2010Prop47
 90
       50
102
RTVSPost2010PropOp47
 70
     1
102
RTVSPost2010Prop48
 90
       50
102
RTVSPost2010PropOp48
 70
     1
102
RTVSPost2010Prop49
280
     0
102
RTVSPost2010PropOp49
 70
     1
102
RTVSPost2010Prop50
 90
       50
102
RTVSPost2010PropOp50
 70
     1
102
RTVSPost2010Prop51ColorIndex
 90
      256
102
RTVSPost2010Prop51ColorRGB
 90
-16777216
102
RTVSPost2010PropOp51
 70
     0
102
RTVSPost2010Prop52
140
1.0
102
RTVSPost2010PropOp52
 70
     0
102
RTVSPost2010Prop53
 90
        2
102
RTVSPost2010PropOp53
 70
     1
102
RTVSPost2010Prop54
  1
strokes_ogs.tif
102
RTVSPost2010PropOp54
 70
     1
102
RTVSPost2010Prop55
280
     0
102
RTVSPost2010PropOp55
 70
     1
102
RTVSPost2010Prop56
140
1.0
102
RTVSPost2010PropOp56
 70
     1
102
RTVSPost2010Prop57
140
1.0
102
RTVSPost2010PropOp57
 70
     1
102
RTVSPropertyOp0
 70
     1
102
RTVSPropertyOp1
 70
     1
102
RTVSPropertyOp2
 70
     1
102
RTVSPropertyOp3
 70
     1
102
RTVSPropertyOp4
 70
     1
102
RTVSPropertyOp5
 70
     1
102
RTVSPropertyOp6
 70
     1
102
RTVSPropertyOp7
 70
     1
102
RTVSPropertyOp8
 70
     1
102
RTVSPropertyOp9
 70
     1
102
RTVSPropertyOp10
 70
     1
102
RTVSPropertyOp11
 70
     1
102
RTVSPropertyOp12
 70
     1
102
RTVSPropertyOp13
 70
     1
102
RTVSPropertyOp14
 70
     1
102
RTVSPropertyOp15
 70
     1
102
RTVSPropertyOp16
 70
     1
102
RTVSPropertyOp17
 70
     1
102
RTVSPropertyOp18
 70
     1
102
RTVSPropertyOp19
 70
     1
102
RTVSPropertyOp20
 70
     1
102
RTVSPropertyOp21
 70
     1
102
RTVSPropertyOp22
 70
     1
102
RTVSPropertyOp23
 70
     1
102
RTVSPropertyOp24
 70
     1
102
RTVSPropertyOp25
 70
     1
102
RTVSPropertyOp26
 70
     1
102
RTVSPropertyOp27
 70
     1
102
RTVSPropertyOp28
 70
     1
102
RTVSPropertyOp29
 70
     1
102
RTVSPropertyOp30
 70
     1
102
RTVSPropertyOp31
 70
     1
102
RTVSPropertyOp32
 70
     1
102
RTVSPropertyOp33
 70
     1
102
RTVSPropertyOp34
 70
     1
102
RTVSPropertyOp35
 70
     1
102
RTVSPropertyOp36
 70
     1
102
RTVSPropertyOp37
 70
     1
102
RTVSPropertyOp38
 70
     1
102
RTVSPropertyOp39
 70
     1
102
RTVSPropertyOp40
 70
     1
102
RTVSPropertyOp41
 70
     1
102
RTVSPropertyOp42
 70
     1
102
RTVSPropertyOp43
 70
     1
102
RTVSPropertyOp44
 70
     1
102
RTVSPropertyOp45
 70
     1
102
RTVSPropertyOp46
 70
     1
102
RTVSPropertyOp47
 70
     1
102
RTVSPropertyOp48
 70
     1
102
RTVSPropertyOp49
 70
     1
102
RTVSPropertyOp50
 70
     1
102
RTVSPropertyOp51
 70
     0
102
RTVSPropertyOp52
 70
     0
102
RTVSPropertyOp53
 70
     1
102
RTVSPropertyOp54
 70
     1
102
RTVSPropertyOp55
 70
     1
102
RTVSPropertyOp56
 70
     1
102
RTVSPropertyOp57
 70
     1
102
RTVSPropertyOp58
 70
     1
102
RTVSPropertyOp59
 70
     1
102
RTVSPropertyOp60
 70
     1
102
RTVSPropertyOp61
 70
     1
102
RTVSPropertyOp62
 70
     1
  0
XRECORD
  5
36B
102
{ACAD_REACTORS
330
36A
102
}
330
36A
100
AcDbXrecord
280
     1
102
RTVSPost2010Prop28
280
     0
102
RTVSPost2010PropOp28
 70
     1
102
RTVSPost2010Prop29
280
     1
102
RTVSPost2010PropOp29
 70
     1
102
RTVSPost2010Prop30
280
     1
102
RTVSPost2010PropOp30
 70
     1
102
RTVSPost2010Prop31
280
     0
102
RTVSPost2010PropOp31
 70
     1
102
RTVSPost2010Prop32
280
     0
102
RTVSPost2010PropOp32
 70
     1
102
RTVSPost2010Prop33
280
     0
102
RTVSPost2010PropOp33
 70
     1
102
RTVSPost2010Prop34
280
     0
102
RTVSPost2010PropOp34
 70
     1
102
RTVSPost2010Prop35
280
     0
102
RTVSPost2010PropOp35
 70
     1
102
RTVSPost2010Prop36
280
     0
102
RTVSPost2010PropOp36
 70
     1
102
RTVSPost2010Prop37
 90
       50
102
RTVSPost2010PropOp37
 70
     1
102
RTVSPost2010Prop38
140
0.0
102
RTVSPost2010PropOp38
 70
     1
102
RTVSPost2010Prop39
140
1.0
102
RTVSPost2010PropOp39
 70
     1
102
RTVSPost2010Prop40
 90
        0
102
RTVSPost2010PropOp40
 70
     1
102
RTVSPost2010Prop41ColorIndex
 90
       18
102
RTVSPost2010Prop41ColorRGB
 90
        0
102
RTVSPost2010PropOp41
 70
     1
102
RTVSPost2010Prop42
 90
       50
102
RTVSPost2010PropOp42
 70
     1
102
RTVSPost2010Prop43
 90
        3
102
RTVSPost2010PropOp43
 70
     1
102
RTVSPost2010Prop44ColorIndex
 90
        5
102
RTVSPost2010Prop44ColorRGB
 90
      255
102
RTVSPost2010PropOp44
 70
     1
102
RTVSPost2010Prop45
280
     0
102
RTVSPost2010PropOp45
 70
     1
102
RTVSPost2010Prop46
 90
       50
102
RTVSPost2010PropOp46
 70
     1
102
RTVSPost2010Prop47
 90
       50
102
RTVSPost2010PropOp47
 70
     1
102
RTVSPost2010Prop48
 90
       50
102
RTVSPost2010PropOp48
 70
     1
102
RTVSPost2010Prop49
280
     0
102
RTVSPost2010PropOp49
 70
     1
102
RTVSPost2010Prop50
 90
       50
102
RTVSPost2010PropOp50
 70
     1
102
RTVSPost2010Prop51ColorIndex
 90
      256
102
RTVSPost2010Prop51ColorRGB
 90
-16777216
102
RTVSPost2010PropOp51
 70
     0
102
RTVSPost2010Prop52
140
1.0
102
RTVSPost2010PropOp52
 70
     0
102
RTVSPost2010Prop53
 90
        2
102
RTVSPost2010PropOp53
 70
     1
102
RTVSPost2010Prop54
  1
strokes_ogs.tif
102
RTVSPost2010PropOp54
 70
     1
102
RTVSPost2010Prop55
280
     0
102
RTVSPost2010PropOp55
 70
     1
102
RTVSPost2010Prop56
140
1.0
102
RTVSPost2010PropOp56
 70
     1
102
RTVSPost2010Prop57
140
1.0
102
RTVSPost2010PropOp57
 70
     1
102
RTVSPropertyOp0
 70
     1
102
RTVSPropertyOp1
 70
     1
102
RTVSPropertyOp2
 70
     1
102
RTVSPropertyOp3
 70
     1
102
RTVSPropertyOp4
 70
     1
102
RTVSPropertyOp5
 70
     1
102
RTVSPropertyOp6
 70
     1
102
RTVSPropertyOp7
 70
     1
102
RTVSPropertyOp8
 70
     1
102
RTVSPropertyOp9
 70
     1
102
RTVSPropertyOp10
 70
     1
102
RTVSPropertyOp11
 70
     1
102
RTVSPropertyOp12
 70
     1
102
RTVSPropertyOp13
 70
     1
102
RTVSPropertyOp14
 70
     1
102
RTVSPropertyOp15
 70
     1
102
RTVSPropertyOp16
 70
     1
102
RTVSPropertyOp17
 70
     1
102
RTVSPropertyOp18
 70
     1
102
RTVSPropertyOp19
 70
     1
102
RTVSPropertyOp20
 70
     1
102
RTVSPropertyOp21
 70
     1
102
RTVSPropertyOp22
 70
     1
102
RTVSPropertyOp23
 70
     1
102
RTVSPropertyOp24
 70
     1
102
RTVSPropertyOp25
 70
     1
102
RTVSPropertyOp26
 70
     1
102
RTVSPropertyOp27
 70
     1
102
RTVSPropertyOp28
 70
     1
102
RTVSPropertyOp29
 70
     1
102
RTVSPropertyOp30
 70
     1
102
RTVSPropertyOp31
 70
     1
102
RTVSPropertyOp32
 70
     1
102
RTVSPropertyOp33
 70
     1
102
RTVSPropertyOp34
 70
     1
102
RTVSPropertyOp35
 70
     1
102
RTVSPropertyOp36
 70
     1
102
RTVSPropertyOp37
 70
     1
102
RTVSPropertyOp38
 70
     1
102
RTVSPropertyOp39
 70
     1
102
RTVSPropertyOp40
 70
     1
102
RTVSPropertyOp41
 70
     1
102
RTVSPropertyOp42
 70
     1
102
RTVSPropertyOp43
 70
     1
102
RTVSPropertyOp44
 70
     1
102
RTVSPropertyOp45
 70
     1
102
RTVSPropertyOp46
 70
     1
102
RTVSPropertyOp47
 70
     1
102
RTVSPropertyOp48
 70
     1
102
RTVSPropertyOp49
 70
     1
102
RTVSPropertyOp50
 70
     1
102
RTVSPropertyOp51
 70
     0
102
RTVSPropertyOp52
 70
     0
102
RTVSPropertyOp53
 70
     1
102
RTVSPropertyOp54
 70
     1
102
RTVSPropertyOp55
 70
     1
102
RTVSPropertyOp56
 70
     1
102
RTVSPropertyOp57
 70
     1
102
RTVSPropertyOp58
 70
     1
102
RTVSPropertyOp59
 70
     1
102
RTVSPropertyOp60
 70
     1
102
RTVSPropertyOp61
 70
     1
102
RTVSPropertyOp62
 70
     1
  0
XRECORD
  5
36D
102
{ACAD_REACTORS
330
36C
102
}
330
36C
100
AcDbXrecord
280
     1
102
RTVSPost2010Prop28
280
     0
102
RTVSPost2010PropOp28
 70
     1
102
RTVSPost2010Prop29
280
     1
102
RTVSPost2010PropOp29
 70
     1
102
RTVSPost2010Prop30
280
     1
102
RTVSPost2010PropOp30
 70
     1
102
RTVSPost2010Prop31
280
     0
102
RTVSPost2010PropOp31
 70
     1
102
RTVSPost2010Prop32
280
     0
102
RTVSPost2010PropOp32
 70
     1
102
RTVSPost2010Prop33
280
     0
102
RTVSPost2010PropOp33
 70
     1
102
RTVSPost2010Prop34
280
     0
102
RTVSPost2010PropOp34
 70
     1
102
RTVSPost2010Prop35
280
     0
102
RTVSPost2010PropOp35
 70
     1
102
RTVSPost2010Prop36
280
     0
102
RTVSPost2010PropOp36
 70
     1
102
RTVSPost2010Prop37
 90
       50
102
RTVSPost2010PropOp37
 70
     1
102
RTVSPost2010Prop38
140
0.0
102
RTVSPost2010PropOp38
 70
     1
102
RTVSPost2010Prop39
140
1.0
102
RTVSPost2010PropOp39
 70
     1
102
RTVSPost2010Prop40
 90
        0
102
RTVSPost2010PropOp40
 70
     1
102
RTVSPost2010Prop41ColorIndex
 90
       18
102
RTVSPost2010Prop41ColorRGB
 90
        0
102
RTVSPost2010PropOp41
 70
     1
102
RTVSPost2010Prop42
 90
       50
102
RTVSPost2010PropOp42
 70
     1
102
RTVSPost2010Prop43
 90
        3
102
RTVSPost2010PropOp43
 70
     1
102
RTVSPost2010Prop44ColorIndex
 90
        5
102
RTVSPost2010Prop44ColorRGB
 90
      255
102
RTVSPost2010PropOp44
 70
     1
102
RTVSPost2010Prop45
280
     0
102
RTVSPost2010PropOp45
 70
     1
102
RTVSPost2010Prop46
 90
       50
102
RTVSPost2010PropOp46
 70
     1
102
RTVSPost2010Prop47
 90
       50
102
RTVSPost2010PropOp47
 70
     1
102
RTVSPost2010Prop48
 90
       50
102
RTVSPost2010PropOp48
 70
     1
102
RTVSPost2010Prop49
280
     0
102
RTVSPost2010PropOp49
 70
     1
102
RTVSPost2010Prop50
 90
       50
102
RTVSPost2010PropOp50
 70
     1
102
RTVSPost2010Prop51ColorIndex
 90
      256
102
RTVSPost2010Prop51ColorRGB
 90
-16777216
102
RTVSPost2010PropOp51
 70
     0
102
RTVSPost2010Prop52
140
1.0
102
RTVSPost2010PropOp52
 70
     0
102
RTVSPost2010Prop53
 90
        2
102
RTVSPost2010PropOp53
 70
     1
102
RTVSPost2010Prop54
  1
strokes_ogs.tif
102
RTVSPost2010PropOp54
 70
     1
102
RTVSPost2010Prop55
280
     0
102
RTVSPost2010PropOp55
 70
     1
102
RTVSPost2010Prop56
140
1.0
102
RTVSPost2010PropOp56
 70
     1
102
RTVSPost2010Prop57
140
1.0
102
RTVSPost2010PropOp57
 70
     1
102
RTVSPropertyOp0
 70
     1
102
RTVSPropertyOp1
 70
     1
102
RTVSPropertyOp2
 70
     1
102
RTVSPropertyOp3
 70
     1
102
RTVSPropertyOp4
 70
     1
102
RTVSPropertyOp5
 70
     1
102
RTVSPropertyOp6
 70
     1
102
RTVSPropertyOp7
 70
     1
102
RTVSPropertyOp8
 70
     1
102
RTVSPropertyOp9
 70
     1
102
RTVSPropertyOp10
 70
     1
102
RTVSPropertyOp11
 70
     1
102
RTVSPropertyOp12
 70
     1
102
RTVSPropertyOp13
 70
     1
102
RTVSPropertyOp14
 70
     1
102
RTVSPropertyOp15
 70
     1
102
RTVSPropertyOp16
 70
     1
102
RTVSPropertyOp17
 70
     1
102
RTVSPropertyOp18
 70
     1
102
RTVSPropertyOp19
 70
     1
102
RTVSPropertyOp20
 70
     1
102
RTVSPropertyOp21
 70
     1
102
RTVSPropertyOp22
 70
     1
102
RTVSPropertyOp23
 70
     1
102
RTVSPropertyOp24
 70
     1
102
RTVSPropertyOp25
 70
     1
102
RTVSPropertyOp26
 70
     1
102
RTVSPropertyOp27
 70
     1
102
RTVSPropertyOp28
 70
     1
102
RTVSPropertyOp29
 70
     1
102
RTVSPropertyOp30
 70
     1
102
RTVSPropertyOp31
 70
     1
102
RTVSPropertyOp32
 70
     1
102
RTVSPropertyOp33
 70
     1
102
RTVSPropertyOp34
 70
     1
102
RTVSPropertyOp35
 70
     1
102
RTVSPropertyOp36
 70
     1
102
RTVSPropertyOp37
 70
     1
102
RTVSPropertyOp38
 70
     1
102
RTVSPropertyOp39
 70
     1
102
RTVSPropertyOp40
 70
     1
102
RTVSPropertyOp41
 70
     1
102
RTVSPropertyOp42
 70
     1
102
RTVSPropertyOp43
 70
     1
102
RTVSPropertyOp44
 70
     1
102
RTVSPropertyOp45
 70
     1
102
RTVSPropertyOp46
 70
     1
102
RTVSPropertyOp47
 70
     1
102
RTVSPropertyOp48
 70
     1
102
RTVSPropertyOp49
 70
     1
102
RTVSPropertyOp50
 70
     1
102
RTVSPropertyOp51
 70
     0
102
RTVSPropertyOp52
 70
     0
102
RTVSPropertyOp53
 70
     1
102
RTVSPropertyOp54
 70
     1
102
RTVSPropertyOp55
 70
     1
102
RTVSPropertyOp56
 70
     1
102
RTVSPropertyOp57
 70
     1
102
RTVSPropertyOp58
 70
     1
102
RTVSPropertyOp59
 70
     1
102
RTVSPropertyOp60
 70
     1
102
RTVSPropertyOp61
 70
     1
102
RTVSPropertyOp62
 70
     1
  0
XRECORD
  5
36F
102
{ACAD_REACTORS
330
36E
102
}
330
36E
100
AcDbXrecord
280
     1
102
RTVSPost2010Prop28
280
     0
102
RTVSPost2010PropOp28
 70
     1
102
RTVSPost2010Prop29
280
     1
102
RTVSPost2010PropOp29
 70
     1
102
RTVSPost2010Prop30
280
     1
102
RTVSPost2010PropOp30
 70
     1
102
RTVSPost2010Prop31
280
     0
102
RTVSPost2010PropOp31
 70
     1
102
RTVSPost2010Prop32
280
     0
102
RTVSPost2010PropOp32
 70
     1
102
RTVSPost2010Prop33
280
     0
102
RTVSPost2010PropOp33
 70
     1
102
RTVSPost2010Prop34
280
     0
102
RTVSPost2010PropOp34
 70
     1
102
RTVSPost2010Prop35
280
     0
102
RTVSPost2010PropOp35
 70
     1
102
RTVSPost2010Prop36
280
     0
102
RTVSPost2010PropOp36
 70
     1
102
RTVSPost2010Prop37
 90
       50
102
RTVSPost2010PropOp37
 70
     1
102
RTVSPost2010Prop38
140
0.0
102
RTVSPost2010PropOp38
 70
     1
102
RTVSPost2010Prop39
140
1.0
102
RTVSPost2010PropOp39
 70
     1
102
RTVSPost2010Prop40
 90
        0
102
RTVSPost2010PropOp40
 70
     1
102
RTVSPost2010Prop41ColorIndex
 90
       18
102
RTVSPost2010Prop41ColorRGB
 90
        0
102
RTVSPost2010PropOp41
 70
     1
102
RTVSPost2010Prop42
 90
       50
102
RTVSPost2010PropOp42
 70
     1
102
RTVSPost2010Prop43
 90
        3
102
RTVSPost2010PropOp43
 70
     1
102
RTVSPost2010Prop44ColorIndex
 90
        5
102
RTVSPost2010Prop44ColorRGB
 90
      255
102
RTVSPost2010PropOp44
 70
     1
102
RTVSPost2010Prop45
280
     0
102
RTVSPost2010PropOp45
 70
     1
102
RTVSPost2010Prop46
 90
       50
102
RTVSPost2010PropOp46
 70
     1
102
RTVSPost2010Prop47
 90
       50
102
RTVSPost2010PropOp47
 70
     1
102
RTVSPost2010Prop48
 90
       50
102
RTVSPost2010PropOp48
 70
     1
102
RTVSPost2010Prop49
280
     0
102
RTVSPost2010PropOp49
 70
     1
102
RTVSPost2010Prop50
 90
       50
102
RTVSPost2010PropOp50
 70
     1
102
RTVSPost2010Prop51ColorIndex
 90
      256
102
RTVSPost2010Prop51ColorRGB
 90
-16777216
102
RTVSPost2010PropOp51
 70
     0
102
RTVSPost2010Prop52
140
1.0
102
RTVSPost2010PropOp52
 70
     0
102
RTVSPost2010Prop53
 90
        2
102
RTVSPost2010PropOp53
 70
     1
102
RTVSPost2010Prop54
  1
strokes_ogs.tif
102
RTVSPost2010PropOp54
 70
     1
102
RTVSPost2010Prop55
280
     0
102
RTVSPost2010PropOp55
 70
     1
102
RTVSPost2010Prop56
140
1.0
102
RTVSPost2010PropOp56
 70
     1
102
RTVSPost2010Prop57
140
1.0
102
RTVSPost2010PropOp57
 70
     1
102
RTVSPropertyOp0
 70
     1
102
RTVSPropertyOp1
 70
     1
102
RTVSPropertyOp2
 70
     1
102
RTVSPropertyOp3
 70
     1
102
RTVSPropertyOp4
 70
     1
102
RTVSPropertyOp5
 70
     1
102
RTVSPropertyOp6
 70
     1
102
RTVSPropertyOp7
 70
     1
102
RTVSPropertyOp8
 70
     1
102
RTVSPropertyOp9
 70
     1
102
RTVSPropertyOp10
 70
     1
102
RTVSPropertyOp11
 70
     1
102
RTVSPropertyOp12
 70
     1
102
RTVSPropertyOp13
 70
     1
102
RTVSPropertyOp14
 70
     1
102
RTVSPropertyOp15
 70
     1
102
RTVSPropertyOp16
 70
     1
102
RTVSPropertyOp17
 70
     1
102
RTVSPropertyOp18
 70
     1
102
RTVSPropertyOp19
 70
     1
102
RTVSPropertyOp20
 70
     1
102
RTVSPropertyOp21
 70
     1
102
RTVSPropertyOp22
 70
     1
102
RTVSPropertyOp23
 70
     1
102
RTVSPropertyOp24
 70
     1
102
RTVSPropertyOp25
 70
     1
102
RTVSPropertyOp26
 70
     1
102
RTVSPropertyOp27
 70
     1
102
RTVSPropertyOp28
 70
     1
102
RTVSPropertyOp29
 70
     1
102
RTVSPropertyOp30
 70
     1
102
RTVSPropertyOp31
 70
     1
102
RTVSPropertyOp32
 70
     1
102
RTVSPropertyOp33
 70
     1
102
RTVSPropertyOp34
 70
     1
102
RTVSPropertyOp35
 70
     1
102
RTVSPropertyOp36
 70
     1
102
RTVSPropertyOp37
 70
     1
102
RTVSPropertyOp38
 70
     1
102
RTVSPropertyOp39
 70
     1
102
RTVSPropertyOp40
 70
     1
102
RTVSPropertyOp41
 70
     1
102
RTVSPropertyOp42
 70
     1
102
RTVSPropertyOp43
 70
     1
102
RTVSPropertyOp44
 70
     1
102
RTVSPropertyOp45
 70
     1
102
RTVSPropertyOp46
 70
     1
102
RTVSPropertyOp47
 70
     1
102
RTVSPropertyOp48
 70
     1
102
RTVSPropertyOp49
 70
     1
102
RTVSPropertyOp50
 70
     1
102
RTVSPropertyOp51
 70
     0
102
RTVSPropertyOp52
 70
     0
102
RTVSPropertyOp53
 70
     1
102
RTVSPropertyOp54
 70
     1
102
RTVSPropertyOp55
 70
     1
102
RTVSPropertyOp56
 70
     1
102
RTVSPropertyOp57
 70
     1
102
RTVSPropertyOp58
 70
     1
102
RTVSPropertyOp59
 70
     1
102
RTVSPropertyOp60
 70
     1
102
RTVSPropertyOp61
 70
     1
102
RTVSPropertyOp62
 70
     1
  0
XRECORD
  5
371
102
{ACAD_REACTORS
330
370
102
}
330
370
100
AcDbXrecord
280
     1
102
RTVSPost2010Prop28
280
     0
102
RTVSPost2010PropOp28
 70
     1
102
RTVSPost2010Prop29
280
     1
102
RTVSPost2010PropOp29
 70
     1
102
RTVSPost2010Prop30
280
     1
102
RTVSPost2010PropOp30
 70
     1
102
RTVSPost2010Prop31
280
     0
102
RTVSPost2010PropOp31
 70
     1
102
RTVSPost2010Prop32
280
     0
102
RTVSPost2010PropOp32
 70
     1
102
RTVSPost2010Prop33
280
     0
102
RTVSPost2010PropOp33
 70
     1
102
RTVSPost2010Prop34
280
     0
102
RTVSPost2010PropOp34
 70
     1
102
RTVSPost2010Prop35
280
     0
102
RTVSPost2010PropOp35
 70
     1
102
RTVSPost2010Prop36
280
     0
102
RTVSPost2010PropOp36
 70
     1
102
RTVSPost2010Prop37
 90
       50
102
RTVSPost2010PropOp37
 70
     1
102
RTVSPost2010Prop38
140
0.0
102
RTVSPost2010PropOp38
 70
     1
102
RTVSPost2010Prop39
140
1.0
102
RTVSPost2010PropOp39
 70
     1
102
RTVSPost2010Prop40
 90
        0
102
RTVSPost2010PropOp40
 70
     1
102
RTVSPost2010Prop41ColorIndex
 90
       18
102
RTVSPost2010Prop41ColorRGB
 90
        0
102
RTVSPost2010PropOp41
 70
     1
102
RTVSPost2010Prop42
 90
       50
102
RTVSPost2010PropOp42
 70
     1
102
RTVSPost2010Prop43
 90
        3
102
RTVSPost2010PropOp43
 70
     1
102
RTVSPost2010Prop44ColorIndex
 90
        5
102
RTVSPost2010Prop44ColorRGB
 90
      255
102
RTVSPost2010PropOp44
 70
     1
102
RTVSPost2010Prop45
280
     0
102
RTVSPost2010PropOp45
 70
     1
102
RTVSPost2010Prop46
 90
       50
102
RTVSPost2010PropOp46
 70
     1
102
RTVSPost2010Prop47
 90
       50
102
RTVSPost2010PropOp47
 70
     1
102
RTVSPost2010Prop48
 90
       50
102
RTVSPost2010PropOp48
 70
     1
102
RTVSPost2010Prop49
280
     0
102
RTVSPost2010PropOp49
 70
     1
102
RTVSPost2010Prop50
 90
       50
102
RTVSPost2010PropOp50
 70
     1
102
RTVSPost2010Prop51ColorIndex
 90
      256
102
RTVSPost2010Prop51ColorRGB
 90
-16777216
102
RTVSPost2010PropOp51
 70
     0
102
RTVSPost2010Prop52
140
1.0
102
RTVSPost2010PropOp52
 70
     0
102
RTVSPost2010Prop53
 90
        2
102
RTVSPost2010PropOp53
 70
     1
102
RTVSPost2010Prop54
  1
strokes_ogs.tif
102
RTVSPost2010PropOp54
 70
     1
102
RTVSPost2010Prop55
280
     0
102
RTVSPost2010PropOp55
 70
     1
102
RTVSPost2010Prop56
140
1.0
102
RTVSPost2010PropOp56
 70
     1
102
RTVSPost2010Prop57
140
1.0
102
RTVSPost2010PropOp57
 70
     1
102
RTVSPropertyOp0
 70
     1
102
RTVSPropertyOp1
 70
     1
102
RTVSPropertyOp2
 70
     1
102
RTVSPropertyOp3
 70
     1
102
RTVSPropertyOp4
 70
     1
102
RTVSPropertyOp5
 70
     1
102
RTVSPropertyOp6
 70
     1
102
RTVSPropertyOp7
 70
     1
102
RTVSPropertyOp8
 70
     1
102
RTVSPropertyOp9
 70
     1
102
RTVSPropertyOp10
 70
     1
102
RTVSPropertyOp11
 70
     1
102
RTVSPropertyOp12
 70
     1
102
RTVSPropertyOp13
 70
     1
102
RTVSPropertyOp14
 70
     1
102
RTVSPropertyOp15
 70
     1
102
RTVSPropertyOp16
 70
     1
102
RTVSPropertyOp17
 70
     1
102
RTVSPropertyOp18
 70
     1
102
RTVSPropertyOp19
 70
     1
102
RTVSPropertyOp20
 70
     1
102
RTVSPropertyOp21
 70
     1
102
RTVSPropertyOp22
 70
     1
102
RTVSPropertyOp23
 70
     1
102
RTVSPropertyOp24
 70
     1
102
RTVSPropertyOp25
 70
     1
102
RTVSPropertyOp26
 70
     1
102
RTVSPropertyOp27
 70
     1
102
RTVSPropertyOp28
 70
     1
102
RTVSPropertyOp29
 70
     1
102
RTVSPropertyOp30
 70
     1
102
RTVSPropertyOp31
 70
     1
102
RTVSPropertyOp32
 70
     1
102
RTVSPropertyOp33
 70
     1
102
RTVSPropertyOp34
 70
     1
102
RTVSPropertyOp35
 70
     1
102
RTVSPropertyOp36
 70
     1
102
RTVSPropertyOp37
 70
     1
102
RTVSPropertyOp38
 70
     1
102
RTVSPropertyOp39
 70
     1
102
RTVSPropertyOp40
 70
     1
102
RTVSPropertyOp41
 70
     1
102
RTVSPropertyOp42
 70
     1
102
RTVSPropertyOp43
 70
     1
102
RTVSPropertyOp44
 70
     1
102
RTVSPropertyOp45
 70
     1
102
RTVSPropertyOp46
 70
     1
102
RTVSPropertyOp47
 70
     1
102
RTVSPropertyOp48
 70
     1
102
RTVSPropertyOp49
 70
     1
102
RTVSPropertyOp50
 70
     1
102
RTVSPropertyOp51
 70
     0
102
RTVSPropertyOp52
 70
     0
102
RTVSPropertyOp53
 70
     1
102
RTVSPropertyOp54
 70
     1
102
RTVSPropertyOp55
 70
     1
102
RTVSPropertyOp56
 70
     1
102
RTVSPropertyOp57
 70
     1
102
RTVSPropertyOp58
 70
     1
102
RTVSPropertyOp59
 70
     1
102
RTVSPropertyOp60
 70
     1
102
RTVSPropertyOp61
 70
     1
102
RTVSPropertyOp62
 70
     1
  0
XRECORD
  5
377
102
{ACAD_REACTORS
330
376
102
}
330
376
100
AcDbXrecord
280
     1
102
RTVSPost2010Prop28
280
     0
102
RTVSPost2010PropOp28
 70
     1
102
RTVSPost2010Prop29
280
     1
102
RTVSPost2010PropOp29
 70
     1
102
RTVSPost2010Prop30
280
     1
102
RTVSPost2010PropOp30
 70
     1
102
RTVSPost2010Prop31
280
     0
102
RTVSPost2010PropOp31
 70
     1
102
RTVSPost2010Prop32
280
     0
102
RTVSPost2010PropOp32
 70
     1
102
RTVSPost2010Prop33
280
     0
102
RTVSPost2010PropOp33
 70
     1
102
RTVSPost2010Prop34
280
     0
102
RTVSPost2010PropOp34
 70
     1
102
RTVSPost2010Prop35
280
     0
102
RTVSPost2010PropOp35
 70
     1
102
RTVSPost2010Prop36
280
     0
102
RTVSPost2010PropOp36
 70
     1
102
RTVSPost2010Prop37
 90
       50
102
RTVSPost2010PropOp37
 70
     1
102
RTVSPost2010Prop38
140
0.0
102
RTVSPost2010PropOp38
 70
     1
102
RTVSPost2010Prop39
140
1.0
102
RTVSPost2010PropOp39
 70
     1
102
RTVSPost2010Prop40
 90
        0
102
RTVSPost2010PropOp40
 70
     1
102
RTVSPost2010Prop41ColorIndex
 90
       18
102
RTVSPost2010Prop41ColorRGB
 90
        0
102
RTVSPost2010PropOp41
 70
     1
102
RTVSPost2010Prop42
 90
       50
102
RTVSPost2010PropOp42
 70
     1
102
RTVSPost2010Prop43
 90
        3
102
RTVSPost2010PropOp43
 70
     1
102
RTVSPost2010Prop44ColorIndex
 90
        5
102
RTVSPost2010Prop44ColorRGB
 90
      255
102
RTVSPost2010PropOp44
 70
     1
102
RTVSPost2010Prop45
280
     0
102
RTVSPost2010PropOp45
 70
     1
102
RTVSPost2010Prop46
 90
       50
102
RTVSPost2010PropOp46
 70
     1
102
RTVSPost2010Prop47
 90
       50
102
RTVSPost2010PropOp47
 70
     1
102
RTVSPost2010Prop48
 90
       50
102
RTVSPost2010PropOp48
 70
     1
102
RTVSPost2010Prop49
280
     0
102
RTVSPost2010PropOp49
 70
     1
102
RTVSPost2010Prop50
 90
       50
102
RTVSPost2010PropOp50
 70
     1
102
RTVSPost2010Prop51ColorIndex
 90
      256
102
RTVSPost2010Prop51ColorRGB
 90
-16777216
102
RTVSPost2010PropOp51
 70
     0
102
RTVSPost2010Prop52
140
1.0
102
RTVSPost2010PropOp52
 70
     0
102
RTVSPost2010Prop53
 90
        2
102
RTVSPost2010PropOp53
 70
     1
102
RTVSPost2010Prop54
  1
strokes_ogs.tif
102
RTVSPost2010PropOp54
 70
     1
102
RTVSPost2010Prop55
280
     0
102
RTVSPost2010PropOp55
 70
     1
102
RTVSPost2010Prop56
140
1.0
102
RTVSPost2010PropOp56
 70
     1
102
RTVSPost2010Prop57
140
1.0
102
RTVSPost2010PropOp57
 70
     1
102
RTVSPropertyOp0
 70
     1
102
RTVSPropertyOp1
 70
     1
102
RTVSPropertyOp2
 70
     1
102
RTVSPropertyOp3
 70
     1
102
RTVSPropertyOp4
 70
     1
102
RTVSPropertyOp5
 70
     1
102
RTVSPropertyOp6
 70
     1
102
RTVSPropertyOp7
 70
     1
102
RTVSPropertyOp8
 70
     1
102
RTVSPropertyOp9
 70
     1
102
RTVSPropertyOp10
 70
     1
102
RTVSPropertyOp11
 70
     1
102
RTVSPropertyOp12
 70
     1
102
RTVSPropertyOp13
 70
     1
102
RTVSPropertyOp14
 70
     1
102
RTVSPropertyOp15
 70
     1
102
RTVSPropertyOp16
 70
     1
102
RTVSPropertyOp17
 70
     1
102
RTVSPropertyOp18
 70
     1
102
RTVSPropertyOp19
 70
     1
102
RTVSPropertyOp20
 70
     1
102
RTVSPropertyOp21
 70
     1
102
RTVSPropertyOp22
 70
     1
102
RTVSPropertyOp23
 70
     1
102
RTVSPropertyOp24
 70
     1
102
RTVSPropertyOp25
 70
     1
102
RTVSPropertyOp26
 70
     1
102
RTVSPropertyOp27
 70
     1
102
RTVSPropertyOp28
 70
     1
102
RTVSPropertyOp29
 70
     1
102
RTVSPropertyOp30
 70
     1
102
RTVSPropertyOp31
 70
     1
102
RTVSPropertyOp32
 70
     1
102
RTVSPropertyOp33
 70
     1
102
RTVSPropertyOp34
 70
     1
102
RTVSPropertyOp35
 70
     1
102
RTVSPropertyOp36
 70
     1
102
RTVSPropertyOp37
 70
     1
102
RTVSPropertyOp38
 70
     1
102
RTVSPropertyOp39
 70
     1
102
RTVSPropertyOp40
 70
     1
102
RTVSPropertyOp41
 70
     1
102
RTVSPropertyOp42
 70
     1
102
RTVSPropertyOp43
 70
     1
102
RTVSPropertyOp44
 70
     1
102
RTVSPropertyOp45
 70
     1
102
RTVSPropertyOp46
 70
     1
102
RTVSPropertyOp47
 70
     1
102
RTVSPropertyOp48
 70
     1
102
RTVSPropertyOp49
 70
     1
102
RTVSPropertyOp50
 70
     1
102
RTVSPropertyOp51
 70
     0
102
RTVSPropertyOp52
 70
     0
102
RTVSPropertyOp53
 70
     1
102
RTVSPropertyOp54
 70
     1
102
RTVSPropertyOp55
 70
     1
102
RTVSPropertyOp56
 70
     1
102
RTVSPropertyOp57
 70
     1
102
RTVSPropertyOp58
 70
     1
102
RTVSPropertyOp59
 70
     1
102
RTVSPropertyOp60
 70
     1
102
RTVSPropertyOp61
 70
     1
102
RTVSPropertyOp62
 70
     1
  0
XRECORD
  5
38B
102
{ACAD_REACTORS
330
38A
102
}
330
38A
100
AcDbXrecord
280
     1
102
RTVSPost2010Prop28
280
     0
102
RTVSPost2010PropOp28
 70
     0
102
RTVSPost2010Prop29
280
     1
102
RTVSPost2010PropOp29
 70
     0
102
RTVSPost2010Prop30
280
     1
102
RTVSPost2010PropOp30
 70
     0
102
RTVSPost2010Prop31
280
     0
102
RTVSPost2010PropOp31
 70
     0
102
RTVSPost2010Prop32
280
     0
102
RTVSPost2010PropOp32
 70
     0
102
RTVSPost2010Prop33
280
     0
102
RTVSPost2010PropOp33
 70
     0
102
RTVSPost2010Prop34
280
     0
102
RTVSPost2010PropOp34
 70
     0
102
RTVSPost2010Prop35
280
     0
102
RTVSPost2010PropOp35
 70
     0
102
RTVSPost2010Prop36
280
     0
102
RTVSPost2010PropOp36
 70
     0
102
RTVSPost2010Prop37
 90
       50
102
RTVSPost2010PropOp37
 70
     0
102
RTVSPost2010Prop38
140
0.0
102
RTVSPost2010PropOp38
 70
     0
102
RTVSPost2010Prop39
140
1.0
102
RTVSPost2010PropOp39
 70
     0
102
RTVSPost2010Prop40
 90
        0
102
RTVSPost2010PropOp40
 70
     0
102
RTVSPost2010Prop41ColorIndex
 90
       18
102
RTVSPost2010Prop41ColorRGB
 90
        0
102
RTVSPost2010PropOp41
 70
     0
102
RTVSPost2010Prop42
 90
       50
102
RTVSPost2010PropOp42
 70
     0
102
RTVSPost2010Prop43
 90
        3
102
RTVSPost2010PropOp43
 70
     0
102
RTVSPost2010Prop44ColorIndex
 90
        5
102
RTVSPost2010Prop44ColorRGB
 90
      255
102
RTVSPost2010PropOp44
 70
     0
102
RTVSPost2010Prop45
280
     0
102
RTVSPost2010PropOp45
 70
     0
102
RTVSPost2010Prop46
 90
       50
102
RTVSPost2010PropOp46
 70
     0
102
RTVSPost2010Prop47
 90
       50
102
RTVSPost2010PropOp47
 70
     0
102
RTVSPost2010Prop48
 90
       50
102
RTVSPost2010PropOp48
 70
     0
102
RTVSPost2010Prop49
280
     0
102
RTVSPost2010PropOp49
 70
     0
102
RTVSPost2010Prop50
 90
       50
102
RTVSPost2010PropOp50
 70
     0
102
RTVSPost2010Prop51ColorIndex
 90
      256
102
RTVSPost2010Prop51ColorRGB
 90
-16777216
102
RTVSPost2010PropOp51
 70
     0
102
RTVSPost2010Prop52
140
1.0
102
RTVSPost2010PropOp52
 70
     0
102
RTVSPost2010Prop53
 90
        2
102
RTVSPost2010PropOp53
 70
     0
102
RTVSPost2010Prop54
  1
strokes_ogs.tif
102
RTVSPost2010PropOp54
 70
     0
102
RTVSPost2010Prop55
280
     0
102
RTVSPost2010PropOp55
 70
     0
102
RTVSPost2010Prop56
140
1.0
102
RTVSPost2010PropOp56
 70
     0
102
RTVSPost2010Prop57
140
1.0
102
RTVSPost2010PropOp57
 70
     0
102
RTVSPropertyOp0
 70
     0
102
RTVSPropertyOp1
 70
     0
102
RTVSPropertyOp2
 70
     0
102
RTVSPropertyOp3
 70
     0
102
RTVSPropertyOp4
 70
     0
102
RTVSPropertyOp5
 70
     0
102
RTVSPropertyOp6
 70
     0
102
RTVSPropertyOp7
 70
     0
102
RTVSPropertyOp8
 70
     0
102
RTVSPropertyOp9
 70
     0
102
RTVSPropertyOp10
 70
     0
102
RTVSPropertyOp11
 70
     0
102
RTVSPropertyOp12
 70
     0
102
RTVSPropertyOp13
 70
     0
102
RTVSPropertyOp14
 70
     2
102
RTVSPropertyOp15
 70
     0
102
RTVSPropertyOp16
 70
     0
102
RTVSPropertyOp17
 70
     0
102
RTVSPropertyOp18
 70
     0
102
RTVSPropertyOp19
 70
     0
102
RTVSPropertyOp20
 70
     0
102
RTVSPropertyOp21
 70
     0
102
RTVSPropertyOp22
 70
     0
102
RTVSPropertyOp23
 70
     0
102
RTVSPropertyOp24
 70
     0
102
RTVSPropertyOp25
 70
     0
102
RTVSPropertyOp26
 70
     0
102
RTVSPropertyOp27
 70
     0
102
RTVSPropertyOp28
 70
     0
102
RTVSPropertyOp29
 70
     0
102
RTVSPropertyOp30
 70
     0
102
RTVSPropertyOp31
 70
     0
102
RTVSPropertyOp32
 70
     0
102
RTVSPropertyOp33
 70
     0
102
RTVSPropertyOp34
 70
     0
102
RTVSPropertyOp35
 70
     0
102
RTVSPropertyOp36
 70
     0
102
RTVSPropertyOp37
 70
     0
102
RTVSPropertyOp38
 70
     0
102
RTVSPropertyOp39
 70
     0
102
RTVSPropertyOp40
 70
     0
102
RTVSPropertyOp41
 70
     0
102
RTVSPropertyOp42
 70
     0
102
RTVSPropertyOp43
 70
     0
102
RTVSPropertyOp44
 70
     0
102
RTVSPropertyOp45
 70
     0
102
RTVSPropertyOp46
 70
     0
102
RTVSPropertyOp47
 70
     0
102
RTVSPropertyOp48
 70
     0
102
RTVSPropertyOp49
 70
     0
102
RTVSPropertyOp50
 70
     0
102
RTVSPropertyOp51
 70
     0
102
RTVSPropertyOp52
 70
     0
102
RTVSPropertyOp53
 70
     0
102
RTVSPropertyOp54
 70
     0
102
RTVSPropertyOp55
 70
     0
102
RTVSPropertyOp56
 70
     0
102
RTVSPropertyOp57
 70
     0
102
RTVSPropertyOp58
 70
     1
102
RTVSPropertyOp59
 70
     1
102
RTVSPropertyOp60
 70
     1
102
RTVSPropertyOp61
 70
     1
102
RTVSPropertyOp62
 70
     1
  0
XRECORD
  5
385
102
{ACAD_REACTORS
330
384
102
}
330
384
100
AcDbXrecord
280
     1
102
RTVSPost2010Prop28
280
     0
102
RTVSPost2010PropOp28
 70
     1
102
RTVSPost2010Prop29
280
     1
102
RTVSPost2010PropOp29
 70
     1
102
RTVSPost2010Prop30
280
     1
102
RTVSPost2010PropOp30
 70
     1
102
RTVSPost2010Prop31
280
     0
102
RTVSPost2010PropOp31
 70
     1
102
RTVSPost2010Prop32
280
     0
102
RTVSPost2010PropOp32
 70
     1
102
RTVSPost2010Prop33
280
     0
102
RTVSPost2010PropOp33
 70
     1
102
RTVSPost2010Prop34
280
     0
102
RTVSPost2010PropOp34
 70
     1
102
RTVSPost2010Prop35
280
     0
102
RTVSPost2010PropOp35
 70
     1
102
RTVSPost2010Prop36
280
     0
102
RTVSPost2010PropOp36
 70
     1
102
RTVSPost2010Prop37
 90
       50
102
RTVSPost2010PropOp37
 70
     1
102
RTVSPost2010Prop38
140
0.0
102
RTVSPost2010PropOp38
 70
     1
102
RTVSPost2010Prop39
140
1.0
102
RTVSPost2010PropOp39
 70
     1
102
RTVSPost2010Prop40
 90
        0
102
RTVSPost2010PropOp40
 70
     1
102
RTVSPost2010Prop41ColorIndex
 90
       18
102
RTVSPost2010Prop41ColorRGB
 90
        0
102
RTVSPost2010PropOp41
 70
     1
102
RTVSPost2010Prop42
 90
       50
102
RTVSPost2010PropOp42
 70
     1
102
RTVSPost2010Prop43
 90
        3
102
RTVSPost2010PropOp43
 70
     1
102
RTVSPost2010Prop44ColorIndex
 90
        5
102
RTVSPost2010Prop44ColorRGB
 90
      255
102
RTVSPost2010PropOp44
 70
     1
102
RTVSPost2010Prop45
280
     0
102
RTVSPost2010PropOp45
 70
     1
102
RTVSPost2010Prop46
 90
       50
102
RTVSPost2010PropOp46
 70
     1
102
RTVSPost2010Prop47
 90
       50
102
RTVSPost2010PropOp47
 70
     1
102
RTVSPost2010Prop48
 90
       50
102
RTVSPost2010PropOp48
 70
     1
102
RTVSPost2010Prop49
280
     0
102
RTVSPost2010PropOp49
 70
     1
102
RTVSPost2010Prop50
 90
       50
102
RTVSPost2010PropOp50
 70
     1
102
RTVSPost2010Prop51ColorIndex
 90
      256
102
RTVSPost2010Prop51ColorRGB
 90
-16777216
102
RTVSPost2010PropOp51
 70
     0
102
RTVSPost2010Prop52
140
1.0
102
RTVSPost2010PropOp52
 70
     0
102
RTVSPost2010Prop53
 90
        2
102
RTVSPost2010PropOp53
 70
     1
102
RTVSPost2010Prop54
  1
strokes_ogs.tif
102
RTVSPost2010PropOp54
 70
     1
102
RTVSPost2010Prop55
280
     0
102
RTVSPost2010PropOp55
 70
     1
102
RTVSPost2010Prop56
140
1.0
102
RTVSPost2010PropOp56
 70
     1
102
RTVSPost2010Prop57
140
1.0
102
RTVSPost2010PropOp57
 70
     1
102
RTVSPropertyOp0
 70
     1
102
RTVSPropertyOp1
 70
     1
102
RTVSPropertyOp2
 70
     1
102
RTVSPropertyOp3
 70
     1
102
RTVSPropertyOp4
 70
     1
102
RTVSPropertyOp5
 70
     1
102
RTVSPropertyOp6
 70
     1
102
RTVSPropertyOp7
 70
     1
102
RTVSPropertyOp8
 70
     1
102
RTVSPropertyOp9
 70
     1
102
RTVSPropertyOp10
 70
     1
102
RTVSPropertyOp11
 70
     1
102
RTVSPropertyOp12
 70
     1
102
RTVSPropertyOp13
 70
     1
102
RTVSPropertyOp14
 70
     1
102
RTVSPropertyOp15
 70
     1
102
RTVSPropertyOp16
 70
     1
102
RTVSPropertyOp17
 70
     1
102
RTVSPropertyOp18
 70
     1
102
RTVSPropertyOp19
 70
     1
102
RTVSPropertyOp20
 70
     1
102
RTVSPropertyOp21
 70
     1
102
RTVSPropertyOp22
 70
     1
102
RTVSPropertyOp23
 70
     1
102
RTVSPropertyOp24
 70
     1
102
RTVSPropertyOp25
 70
     1
102
RTVSPropertyOp26
 70
     1
102
RTVSPropertyOp27
 70
     1
102
RTVSPropertyOp28
 70
     1
102
RTVSPropertyOp29
 70
     1
102
RTVSPropertyOp30
 70
     1
102
RTVSPropertyOp31
 70
     1
102
RTVSPropertyOp32
 70
     1
102
RTVSPropertyOp33
 70
     1
102
RTVSPropertyOp34
 70
     1
102
RTVSPropertyOp35
 70
     1
102
RTVSPropertyOp36
 70
     1
102
RTVSPropertyOp37
 70
     1
102
RTVSPropertyOp38
 70
     1
102
RTVSPropertyOp39
 70
     1
102
RTVSPropertyOp40
 70
     1
102
RTVSPropertyOp41
 70
     1
102
RTVSPropertyOp42
 70
     1
102
RTVSPropertyOp43
 70
     1
102
RTVSPropertyOp44
 70
     1
102
RTVSPropertyOp45
 70
     1
102
RTVSPropertyOp46
 70
     1
102
RTVSPropertyOp47
 70
     1
102
RTVSPropertyOp48
 70
     1
102
RTVSPropertyOp49
 70
     1
102
RTVSPropertyOp50
 70
     1
102
RTVSPropertyOp51
 70
     0
102
RTVSPropertyOp52
 70
     0
102
RTVSPropertyOp53
 70
     1
102
RTVSPropertyOp54
 70
     1
102
RTVSPropertyOp55
 70
     1
102
RTVSPropertyOp56
 70
     1
102
RTVSPropertyOp57
 70
     1
102
RTVSPropertyOp58
 70
     1
102
RTVSPropertyOp59
 70
     1
102
RTVSPropertyOp60
 70
     1
102
RTVSPropertyOp61
 70
     1
102
RTVSPropertyOp62
 70
     1
  0
XRECORD
  5
38D
102
{ACAD_REACTORS
330
38C
102
}
330
38C
100
AcDbXrecord
280
     1
102
RTVSPost2010Prop28
280
     0
102
RTVSPost2010PropOp28
 70
     0
102
RTVSPost2010Prop29
280
     1
102
RTVSPost2010PropOp29
 70
     0
102
RTVSPost2010Prop30
280
     1
102
RTVSPost2010PropOp30
 70
     0
102
RTVSPost2010Prop31
280
     0
102
RTVSPost2010PropOp31
 70
     0
102
RTVSPost2010Prop32
280
     0
102
RTVSPost2010PropOp32
 70
     0
102
RTVSPost2010Prop33
280
     0
102
RTVSPost2010PropOp33
 70
     0
102
RTVSPost2010Prop34
280
     0
102
RTVSPost2010PropOp34
 70
     0
102
RTVSPost2010Prop35
280
     0
102
RTVSPost2010PropOp35
 70
     0
102
RTVSPost2010Prop36
280
     0
102
RTVSPost2010PropOp36
 70
     0
102
RTVSPost2010Prop37
 90
       50
102
RTVSPost2010PropOp37
 70
     0
102
RTVSPost2010Prop38
140
0.0
102
RTVSPost2010PropOp38
 70
     0
102
RTVSPost2010Prop39
140
1.0
102
RTVSPost2010PropOp39
 70
     0
102
RTVSPost2010Prop40
 90
        0
102
RTVSPost2010PropOp40
 70
     0
102
RTVSPost2010Prop41ColorIndex
 90
       18
102
RTVSPost2010Prop41ColorRGB
 90
        0
102
RTVSPost2010PropOp41
 70
     0
102
RTVSPost2010Prop42
 90
       50
102
RTVSPost2010PropOp42
 70
     0
102
RTVSPost2010Prop43
 90
        3
102
RTVSPost2010PropOp43
 70
     0
102
RTVSPost2010Prop44ColorIndex
 90
        5
102
RTVSPost2010Prop44ColorRGB
 90
      255
102
RTVSPost2010PropOp44
 70
     0
102
RTVSPost2010Prop45
280
     0
102
RTVSPost2010PropOp45
 70
     0
102
RTVSPost2010Prop46
 90
       50
102
RTVSPost2010PropOp46
 70
     0
102
RTVSPost2010Prop47
 90
       50
102
RTVSPost2010PropOp47
 70
     0
102
RTVSPost2010Prop48
 90
       50
102
RTVSPost2010PropOp48
 70
     0
102
RTVSPost2010Prop49
280
     0
102
RTVSPost2010PropOp49
 70
     0
102
RTVSPost2010Prop50
 90
       50
102
RTVSPost2010PropOp50
 70
     0
102
RTVSPost2010Prop51ColorIndex
 90
      256
102
RTVSPost2010Prop51ColorRGB
 90
-16777216
102
RTVSPost2010PropOp51
 70
     0
102
RTVSPost2010Prop52
140
1.0
102
RTVSPost2010PropOp52
 70
     0
102
RTVSPost2010Prop53
 90
        2
102
RTVSPost2010PropOp53
 70
     0
102
RTVSPost2010Prop54
  1
strokes_ogs.tif
102
RTVSPost2010PropOp54
 70
     0
102
RTVSPost2010Prop55
280
     0
102
RTVSPost2010PropOp55
 70
     0
102
RTVSPost2010Prop56
140
1.0
102
RTVSPost2010PropOp56
 70
     0
102
RTVSPost2010Prop57
140
1.0
102
RTVSPost2010PropOp57
 70
     0
102
RTVSPropertyOp0
 70
     0
102
RTVSPropertyOp1
 70
     0
102
RTVSPropertyOp2
 70
     0
102
RTVSPropertyOp3
 70
     0
102
RTVSPropertyOp4
 70
     0
102
RTVSPropertyOp5
 70
     0
102
RTVSPropertyOp6
 70
     0
102
RTVSPropertyOp7
 70
     0
102
RTVSPropertyOp8
 70
     0
102
RTVSPropertyOp9
 70
     0
102
RTVSPropertyOp10
 70
     0
102
RTVSPropertyOp11
 70
     0
102
RTVSPropertyOp12
 70
     0
102
RTVSPropertyOp13
 70
     0
102
RTVSPropertyOp14
 70
     2
102
RTVSPropertyOp15
 70
     0
102
RTVSPropertyOp16
 70
     0
102
RTVSPropertyOp17
 70
     0
102
RTVSPropertyOp18
 70
     0
102
RTVSPropertyOp19
 70
     0
102
RTVSPropertyOp20
 70
     0
102
RTVSPropertyOp21
 70
     0
102
RTVSPropertyOp22
 70
     0
102
RTVSPropertyOp23
 70
     0
102
RTVSPropertyOp24
 70
     0
102
RTVSPropertyOp25
 70
     0
102
RTVSPropertyOp26
 70
     0
102
RTVSPropertyOp27
 70
     0
102
RTVSPropertyOp28
 70
     0
102
RTVSPropertyOp29
 70
     0
102
RTVSPropertyOp30
 70
     0
102
RTVSPropertyOp31
 70
     0
102
RTVSPropertyOp32
 70
     0
102
RTVSPropertyOp33
 70
     0
102
RTVSPropertyOp34
 70
     0
102
RTVSPropertyOp35
 70
     0
102
RTVSPropertyOp36
 70
     0
102
RTVSPropertyOp37
 70
     0
102
RTVSPropertyOp38
 70
     0
102
RTVSPropertyOp39
 70
     0
102
RTVSPropertyOp40
 70
     0
102
RTVSPropertyOp41
 70
     0
102
RTVSPropertyOp42
 70
     0
102
RTVSPropertyOp43
 70
     0
102
RTVSPropertyOp44
 70
     0
102
RTVSPropertyOp45
 70
     0
102
RTVSPropertyOp46
 70
     0
102
RTVSPropertyOp47
 70
     0
102
RTVSPropertyOp48
 70
     0
102
RTVSPropertyOp49
 70
     0
102
RTVSPropertyOp50
 70
     0
102
RTVSPropertyOp51
 70
     0
102
RTVSPropertyOp52
 70
     0
102
RTVSPropertyOp53
 70
     0
102
RTVSPropertyOp54
 70
     0
102
RTVSPropertyOp55
 70
     0
102
RTVSPropertyOp56
 70
     0
102
RTVSPropertyOp57
 70
     0
102
RTVSPropertyOp58
 70
     1
102
RTVSPropertyOp59
 70
     1
102
RTVSPropertyOp60
 70
     1
102
RTVSPropertyOp61
 70
     1
102
RTVSPropertyOp62
 70
     1
  0
XRECORD
  5
37B
102
{ACAD_REACTORS
330
37A
102
}
330
37A
100
AcDbXrecord
280
     1
102
RTVSPost2010Prop28
280
     0
102
RTVSPost2010PropOp28
 70
     1
102
RTVSPost2010Prop29
280
     1
102
RTVSPost2010PropOp29
 70
     1
102
RTVSPost2010Prop30
280
     1
102
RTVSPost2010PropOp30
 70
     1
102
RTVSPost2010Prop31
280
     0
102
RTVSPost2010PropOp31
 70
     1
102
RTVSPost2010Prop32
280
     0
102
RTVSPost2010PropOp32
 70
     1
102
RTVSPost2010Prop33
280
     0
102
RTVSPost2010PropOp33
 70
     1
102
RTVSPost2010Prop34
280
     0
102
RTVSPost2010PropOp34
 70
     1
102
RTVSPost2010Prop35
280
     0
102
RTVSPost2010PropOp35
 70
     1
102
RTVSPost2010Prop36
280
     0
102
RTVSPost2010PropOp36
 70
     1
102
RTVSPost2010Prop37
 90
       50
102
RTVSPost2010PropOp37
 70
     1
102
RTVSPost2010Prop38
140
0.0
102
RTVSPost2010PropOp38
 70
     1
102
RTVSPost2010Prop39
140
1.0
102
RTVSPost2010PropOp39
 70
     1
102
RTVSPost2010Prop40
 90
        0
102
RTVSPost2010PropOp40
 70
     1
102
RTVSPost2010Prop41ColorIndex
 90
       18
102
RTVSPost2010Prop41ColorRGB
 90
        0
102
RTVSPost2010PropOp41
 70
     1
102
RTVSPost2010Prop42
 90
       50
102
RTVSPost2010PropOp42
 70
     1
102
RTVSPost2010Prop43
 90
        3
102
RTVSPost2010PropOp43
 70
     1
102
RTVSPost2010Prop44ColorIndex
 90
        5
102
RTVSPost2010Prop44ColorRGB
 90
      255
102
RTVSPost2010PropOp44
 70
     1
102
RTVSPost2010Prop45
280
     0
102
RTVSPost2010PropOp45
 70
     1
102
RTVSPost2010Prop46
 90
       50
102
RTVSPost2010PropOp46
 70
     1
102
RTVSPost2010Prop47
 90
       50
102
RTVSPost2010PropOp47
 70
     1
102
RTVSPost2010Prop48
 90
       50
102
RTVSPost2010PropOp48
 70
     1
102
RTVSPost2010Prop49
280
     0
102
RTVSPost2010PropOp49
 70
     1
102
RTVSPost2010Prop50
 90
       50
102
RTVSPost2010PropOp50
 70
     1
102
RTVSPost2010Prop51ColorIndex
 90
      256
102
RTVSPost2010Prop51ColorRGB
 90
-16777216
102
RTVSPost2010PropOp51
 70
     0
102
RTVSPost2010Prop52
140
1.0
102
RTVSPost2010PropOp52
 70
     0
102
RTVSPost2010Prop53
 90
        2
102
RTVSPost2010PropOp53
 70
     1
102
RTVSPost2010Prop54
  1
strokes_ogs.tif
102
RTVSPost2010PropOp54
 70
     1
102
RTVSPost2010Prop55
280
     0
102
RTVSPost2010PropOp55
 70
     1
102
RTVSPost2010Prop56
140
1.0
102
RTVSPost2010PropOp56
 70
     1
102
RTVSPost2010Prop57
140
1.0
102
RTVSPost2010PropOp57
 70
     1
102
RTVSPropertyOp0
 70
     1
102
RTVSPropertyOp1
 70
     1
102
RTVSPropertyOp2
 70
     1
102
RTVSPropertyOp3
 70
     1
102
RTVSPropertyOp4
 70
     1
102
RTVSPropertyOp5
 70
     1
102
RTVSPropertyOp6
 70
     1
102
RTVSPropertyOp7
 70
     1
102
RTVSPropertyOp8
 70
     1
102
RTVSPropertyOp9
 70
     1
102
RTVSPropertyOp10
 70
     1
102
RTVSPropertyOp11
 70
     1
102
RTVSPropertyOp12
 70
     1
102
RTVSPropertyOp13
 70
     1
102
RTVSPropertyOp14
 70
     1
102
RTVSPropertyOp15
 70
     1
102
RTVSPropertyOp16
 70
     1
102
RTVSPropertyOp17
 70
     1
102
RTVSPropertyOp18
 70
     1
102
RTVSPropertyOp19
 70
     1
102
RTVSPropertyOp20
 70
     1
102
RTVSPropertyOp21
 70
     1
102
RTVSPropertyOp22
 70
     1
102
RTVSPropertyOp23
 70
     1
102
RTVSPropertyOp24
 70
     1
102
RTVSPropertyOp25
 70
     1
102
RTVSPropertyOp26
 70
     1
102
RTVSPropertyOp27
 70
     1
102
RTVSPropertyOp28
 70
     1
102
RTVSPropertyOp29
 70
     1
102
RTVSPropertyOp30
 70
     1
102
RTVSPropertyOp31
 70
     1
102
RTVSPropertyOp32
 70
     1
102
RTVSPropertyOp33
 70
     1
102
RTVSPropertyOp34
 70
     1
102
RTVSPropertyOp35
 70
     1
102
RTVSPropertyOp36
 70
     1
102
RTVSPropertyOp37
 70
     1
102
RTVSPropertyOp38
 70
     1
102
RTVSPropertyOp39
 70
     1
102
RTVSPropertyOp40
 70
     1
102
RTVSPropertyOp41
 70
     1
102
RTVSPropertyOp42
 70
     1
102
RTVSPropertyOp43
 70
     1
102
RTVSPropertyOp44
 70
     1
102
RTVSPropertyOp45
 70
     1
102
RTVSPropertyOp46
 70
     1
102
RTVSPropertyOp47
 70
     1
102
RTVSPropertyOp48
 70
     1
102
RTVSPropertyOp49
 70
     1
102
RTVSPropertyOp50
 70
     1
102
RTVSPropertyOp51
 70
     0
102
RTVSPropertyOp52
 70
     0
102
RTVSPropertyOp53
 70
     1
102
RTVSPropertyOp54
 70
     1
102
RTVSPropertyOp55
 70
     1
102
RTVSPropertyOp56
 70
     1
102
RTVSPropertyOp57
 70
     1
102
RTVSPropertyOp58
 70
     1
102
RTVSPropertyOp59
 70
     1
102
RTVSPropertyOp60
 70
     1
102
RTVSPropertyOp61
 70
     1
102
RTVSPropertyOp62
 70
     1
  0
XRECORD
  5
399
102
{ACAD_REACTORS
330
398
102
}
330
398
100
AcDbXrecord
280
     1
102
RTVSPost2010Prop28
280
     0
102
RTVSPost2010PropOp28
 70
     1
102
RTVSPost2010Prop29
280
     1
102
RTVSPost2010PropOp29
 70
     1
102
RTVSPost2010Prop30
280
     1
102
RTVSPost2010PropOp30
 70
     1
102
RTVSPost2010Prop31
280
     0
102
RTVSPost2010PropOp31
 70
     1
102
RTVSPost2010Prop32
280
     0
102
RTVSPost2010PropOp32
 70
     1
102
RTVSPost2010Prop33
280
     0
102
RTVSPost2010PropOp33
 70
     1
102
RTVSPost2010Prop34
280
     0
102
RTVSPost2010PropOp34
 70
     1
102
RTVSPost2010Prop35
280
     0
102
RTVSPost2010PropOp35
 70
     1
102
RTVSPost2010Prop36
280
     0
102
RTVSPost2010PropOp36
 70
     1
102
RTVSPost2010Prop37
 90
       50
102
RTVSPost2010PropOp37
 70
     1
102
RTVSPost2010Prop38
140
0.0
102
RTVSPost2010PropOp38
 70
     1
102
RTVSPost2010Prop39
140
1.0
102
RTVSPost2010PropOp39
 70
     1
102
RTVSPost2010Prop40
 90
        0
102
RTVSPost2010PropOp40
 70
     1
102
RTVSPost2010Prop41ColorIndex
 90
       18
102
RTVSPost2010Prop41ColorRGB
 90
        0
102
RTVSPost2010PropOp41
 70
     1
102
RTVSPost2010Prop42
 90
       50
102
RTVSPost2010PropOp42
 70
     1
102
RTVSPost2010Prop43
 90
        3
102
RTVSPost2010PropOp43
 70
     1
102
RTVSPost2010Prop44ColorIndex
 90
        5
102
RTVSPost2010Prop44ColorRGB
 90
      255
102
RTVSPost2010PropOp44
 70
     1
102
RTVSPost2010Prop45
280
     0
102
RTVSPost2010PropOp45
 70
     1
102
RTVSPost2010Prop46
 90
       50
102
RTVSPost2010PropOp46
 70
     1
102
RTVSPost2010Prop47
 90
       50
102
RTVSPost2010PropOp47
 70
     1
102
RTVSPost2010Prop48
 90
       50
102
RTVSPost2010PropOp48
 70
     1
102
RTVSPost2010Prop49
280
     0
102
RTVSPost2010PropOp49
 70
     1
102
RTVSPost2010Prop50
 90
       50
102
RTVSPost2010PropOp50
 70
     1
102
RTVSPost2010Prop51ColorIndex
 90
      256
102
RTVSPost2010Prop51ColorRGB
 90
-16777216
102
RTVSPost2010PropOp51
 70
     0
102
RTVSPost2010Prop52
140
1.0
102
RTVSPost2010PropOp52
 70
     0
102
RTVSPost2010Prop53
 90
        2
102
RTVSPost2010PropOp53
 70
     1
102
RTVSPost2010Prop54
  1
strokes_ogs.tif
102
RTVSPost2010PropOp54
 70
     1
102
RTVSPost2010Prop55
280
     0
102
RTVSPost2010PropOp55
 70
     1
102
RTVSPost2010Prop56
140
1.0
102
RTVSPost2010PropOp56
 70
     1
102
RTVSPost2010Prop57
140
1.0
102
RTVSPost2010PropOp57
 70
     1
102
RTVSPropertyOp0
 70
     1
102
RTVSPropertyOp1
 70
     1
102
RTVSPropertyOp2
 70
     1
102
RTVSPropertyOp3
 70
     1
102
RTVSPropertyOp4
 70
     1
102
RTVSPropertyOp5
 70
     1
102
RTVSPropertyOp6
 70
     1
102
RTVSPropertyOp7
 70
     1
102
RTVSPropertyOp8
 70
     1
102
RTVSPropertyOp9
 70
     1
102
RTVSPropertyOp10
 70
     1
102
RTVSPropertyOp11
 70
     1
102
RTVSPropertyOp12
 70
     1
102
RTVSPropertyOp13
 70
     1
102
RTVSPropertyOp14
 70
     1
102
RTVSPropertyOp15
 70
     1
102
RTVSPropertyOp16
 70
     1
102
RTVSPropertyOp17
 70
     1
102
RTVSPropertyOp18
 70
     1
102
RTVSPropertyOp19
 70
     1
102
RTVSPropertyOp20
 70
     1
102
RTVSPropertyOp21
 70
     1
102
RTVSPropertyOp22
 70
     1
102
RTVSPropertyOp23
 70
     1
102
RTVSPropertyOp24
 70
     1
102
RTVSPropertyOp25
 70
     1
102
RTVSPropertyOp26
 70
     1
102
RTVSPropertyOp27
 70
     1
102
RTVSPropertyOp28
 70
     1
102
RTVSPropertyOp29
 70
     1
102
RTVSPropertyOp30
 70
     1
102
RTVSPropertyOp31
 70
     1
102
RTVSPropertyOp32
 70
     1
102
RTVSPropertyOp33
 70
     1
102
RTVSPropertyOp34
 70
     1
102
RTVSPropertyOp35
 70
     1
102
RTVSPropertyOp36
 70
     1
102
RTVSPropertyOp37
 70
     1
102
RTVSPropertyOp38
 70
     1
102
RTVSPropertyOp39
 70
     1
102
RTVSPropertyOp40
 70
     1
102
RTVSPropertyOp41
 70
     1
102
RTVSPropertyOp42
 70
     1
102
RTVSPropertyOp43
 70
     1
102
RTVSPropertyOp44
 70
     1
102
RTVSPropertyOp45
 70
     1
102
RTVSPropertyOp46
 70
     1
102
RTVSPropertyOp47
 70
     1
102
RTVSPropertyOp48
 70
     1
102
RTVSPropertyOp49
 70
     1
102
RTVSPropertyOp50
 70
     1
102
RTVSPropertyOp51
 70
     0
102
RTVSPropertyOp52
 70
     0
102
RTVSPropertyOp53
 70
     1
102
RTVSPropertyOp54
 70
     1
102
RTVSPropertyOp55
 70
     1
102
RTVSPropertyOp56
 70
     1
102
RTVSPropertyOp57
 70
     1
102
RTVSPropertyOp58
 70
     1
102
RTVSPropertyOp59
 70
     1
102
RTVSPropertyOp60
 70
     1
102
RTVSPropertyOp61
 70
     1
102
RTVSPropertyOp62
 70
     1
  0
XRECORD
  5
397
102
{ACAD_REACTORS
330
396
102
}
330
396
100
AcDbXrecord
280
     1
102
RTVSPost2010Prop28
280
     0
102
RTVSPost2010PropOp28
 70
     1
102
RTVSPost2010Prop29
280
     1
102
RTVSPost2010PropOp29
 70
     1
102
RTVSPost2010Prop30
280
     1
102
RTVSPost2010PropOp30
 70
     1
102
RTVSPost2010Prop31
280
     0
102
RTVSPost2010PropOp31
 70
     1
102
RTVSPost2010Prop32
280
     0
102
RTVSPost2010PropOp32
 70
     1
102
RTVSPost2010Prop33
280
     0
102
RTVSPost2010PropOp33
 70
     1
102
RTVSPost2010Prop34
280
     0
102
RTVSPost2010PropOp34
 70
     1
102
RTVSPost2010Prop35
280
     0
102
RTVSPost2010PropOp35
 70
     1
102
RTVSPost2010Prop36
280
     0
102
RTVSPost2010PropOp36
 70
     1
102
RTVSPost2010Prop37
 90
       50
102
RTVSPost2010PropOp37
 70
     1
102
RTVSPost2010Prop38
140
0.0
102
RTVSPost2010PropOp38
 70
     1
102
RTVSPost2010Prop39
140
1.0
102
RTVSPost2010PropOp39
 70
     1
102
RTVSPost2010Prop40
 90
        0
102
RTVSPost2010PropOp40
 70
     1
102
RTVSPost2010Prop41ColorIndex
 90
       18
102
RTVSPost2010Prop41ColorRGB
 90
        0
102
RTVSPost2010PropOp41
 70
     1
102
RTVSPost2010Prop42
 90
       50
102
RTVSPost2010PropOp42
 70
     1
102
RTVSPost2010Prop43
 90
        3
102
RTVSPost2010PropOp43
 70
     1
102
RTVSPost2010Prop44ColorIndex
 90
        5
102
RTVSPost2010Prop44ColorRGB
 90
      255
102
RTVSPost2010PropOp44
 70
     1
102
RTVSPost2010Prop45
280
     0
102
RTVSPost2010PropOp45
 70
     1
102
RTVSPost2010Prop46
 90
       50
102
RTVSPost2010PropOp46
 70
     1
102
RTVSPost2010Prop47
 90
       50
102
RTVSPost2010PropOp47
 70
     1
102
RTVSPost2010Prop48
 90
       50
102
RTVSPost2010PropOp48
 70
     1
102
RTVSPost2010Prop49
280
     0
102
RTVSPost2010PropOp49
 70
     1
102
RTVSPost2010Prop50
 90
       50
102
RTVSPost2010PropOp50
 70
     1
102
RTVSPost2010Prop51ColorIndex
 90
      256
102
RTVSPost2010Prop51ColorRGB
 90
-16777216
102
RTVSPost2010PropOp51
 70
     0
102
RTVSPost2010Prop52
140
1.0
102
RTVSPost2010PropOp52
 70
     0
102
RTVSPost2010Prop53
 90
        2
102
RTVSPost2010PropOp53
 70
     1
102
RTVSPost2010Prop54
  1
strokes_ogs.tif
102
RTVSPost2010PropOp54
 70
     1
102
RTVSPost2010Prop55
280
     0
102
RTVSPost2010PropOp55
 70
     1
102
RTVSPost2010Prop56
140
1.0
102
RTVSPost2010PropOp56
 70
     1
102
RTVSPost2010Prop57
140
1.0
102
RTVSPost2010PropOp57
 70
     1
102
RTVSPropertyOp0
 70
     1
102
RTVSPropertyOp1
 70
     1
102
RTVSPropertyOp2
 70
     1
102
RTVSPropertyOp3
 70
     1
102
RTVSPropertyOp4
 70
     1
102
RTVSPropertyOp5
 70
     1
102
RTVSPropertyOp6
 70
     1
102
RTVSPropertyOp7
 70
     1
102
RTVSPropertyOp8
 70
     1
102
RTVSPropertyOp9
 70
     1
102
RTVSPropertyOp10
 70
     1
102
RTVSPropertyOp11
 70
     1
102
RTVSPropertyOp12
 70
     1
102
RTVSPropertyOp13
 70
     1
102
RTVSPropertyOp14
 70
     1
102
RTVSPropertyOp15
 70
     1
102
RTVSPropertyOp16
 70
     1
102
RTVSPropertyOp17
 70
     1
102
RTVSPropertyOp18
 70
     1
102
RTVSPropertyOp19
 70
     1
102
RTVSPropertyOp20
 70
     1
102
RTVSPropertyOp21
 70
     1
102
RTVSPropertyOp22
 70
     1
102
RTVSPropertyOp23
 70
     1
102
RTVSPropertyOp24
 70
     1
102
RTVSPropertyOp25
 70
     1
102
RTVSPropertyOp26
 70
     1
102
RTVSPropertyOp27
 70
     1
102
RTVSPropertyOp28
 70
     1
102
RTVSPropertyOp29
 70
     1
102
RTVSPropertyOp30
 70
     1
102
RTVSPropertyOp31
 70
     1
102
RTVSPropertyOp32
 70
     1
102
RTVSPropertyOp33
 70
     1
102
RTVSPropertyOp34
 70
     1
102
RTVSPropertyOp35
 70
     1
102
RTVSPropertyOp36
 70
     1
102
RTVSPropertyOp37
 70
     1
102
RTVSPropertyOp38
 70
     1
102
RTVSPropertyOp39
 70
     1
102
RTVSPropertyOp40
 70
     1
102
RTVSPropertyOp41
 70
     1
102
RTVSPropertyOp42
 70
     1
102
RTVSPropertyOp43
 70
     1
102
RTVSPropertyOp44
 70
     1
102
RTVSPropertyOp45
 70
     1
102
RTVSPropertyOp46
 70
     1
102
RTVSPropertyOp47
 70
     1
102
RTVSPropertyOp48
 70
     1
102
RTVSPropertyOp49
 70
     1
102
RTVSPropertyOp50
 70
     1
102
RTVSPropertyOp51
 70
     0
102
RTVSPropertyOp52
 70
     0
102
RTVSPropertyOp53
 70
     1
102
RTVSPropertyOp54
 70
     1
102
RTVSPropertyOp55
 70
     1
102
RTVSPropertyOp56
 70
     1
102
RTVSPropertyOp57
 70
     1
102
RTVSPropertyOp58
 70
     1
102
RTVSPropertyOp59
 70
     1
102
RTVSPropertyOp60
 70
     1
102
RTVSPropertyOp61
 70
     1
102
RTVSPropertyOp62
 70
     1
  0
XRECORD
  5
391
102
{ACAD_REACTORS
330
390
102
}
330
390
100
AcDbXrecord
280
     1
102
RTVSPost2010Prop28
280
     0
102
RTVSPost2010PropOp28
 70
     1
102
RTVSPost2010Prop29
280
     1
102
RTVSPost2010PropOp29
 70
     1
102
RTVSPost2010Prop30
280
     1
102
RTVSPost2010PropOp30
 70
     1
102
RTVSPost2010Prop31
280
     0
102
RTVSPost2010PropOp31
 70
     1
102
RTVSPost2010Prop32
280
     0
102
RTVSPost2010PropOp32
 70
     1
102
RTVSPost2010Prop33
280
     0
102
RTVSPost2010PropOp33
 70
     1
102
RTVSPost2010Prop34
280
     0
102
RTVSPost2010PropOp34
 70
     1
102
RTVSPost2010Prop35
280
     0
102
RTVSPost2010PropOp35
 70
     1
102
RTVSPost2010Prop36
280
     0
102
RTVSPost2010PropOp36
 70
     1
102
RTVSPost2010Prop37
 90
       50
102
RTVSPost2010PropOp37
 70
     1
102
RTVSPost2010Prop38
140
0.0
102
RTVSPost2010PropOp38
 70
     1
102
RTVSPost2010Prop39
140
1.0
102
RTVSPost2010PropOp39
 70
     1
102
RTVSPost2010Prop40
 90
        0
102
RTVSPost2010PropOp40
 70
     1
102
RTVSPost2010Prop41ColorIndex
 90
       18
102
RTVSPost2010Prop41ColorRGB
 90
        0
102
RTVSPost2010PropOp41
 70
     1
102
RTVSPost2010Prop42
 90
       50
102
RTVSPost2010PropOp42
 70
     1
102
RTVSPost2010Prop43
 90
        3
102
RTVSPost2010PropOp43
 70
     1
102
RTVSPost2010Prop44ColorIndex
 90
        5
102
RTVSPost2010Prop44ColorRGB
 90
      255
102
RTVSPost2010PropOp44
 70
     1
102
RTVSPost2010Prop45
280
     0
102
RTVSPost2010PropOp45
 70
     1
102
RTVSPost2010Prop46
 90
       50
102
RTVSPost2010PropOp46
 70
     1
102
RTVSPost2010Prop47
 90
       50
102
RTVSPost2010PropOp47
 70
     1
102
RTVSPost2010Prop48
 90
       50
102
RTVSPost2010PropOp48
 70
     1
102
RTVSPost2010Prop49
280
     0
102
RTVSPost2010PropOp49
 70
     1
102
RTVSPost2010Prop50
 90
       50
102
RTVSPost2010PropOp50
 70
     1
102
RTVSPost2010Prop51ColorIndex
 90
      256
102
RTVSPost2010Prop51ColorRGB
 90
-16777216
102
RTVSPost2010PropOp51
 70
     0
102
RTVSPost2010Prop52
140
1.0
102
RTVSPost2010PropOp52
 70
     0
102
RTVSPost2010Prop53
 90
        2
102
RTVSPost2010PropOp53
 70
     1
102
RTVSPost2010Prop54
  1
strokes_ogs.tif
102
RTVSPost2010PropOp54
 70
     1
102
RTVSPost2010Prop55
280
     0
102
RTVSPost2010PropOp55
 70
     1
102
RTVSPost2010Prop56
140
1.0
102
RTVSPost2010PropOp56
 70
     1
102
RTVSPost2010Prop57
140
1.0
102
RTVSPost2010PropOp57
 70
     1
102
RTVSPropertyOp0
 70
     1
102
RTVSPropertyOp1
 70
     1
102
RTVSPropertyOp2
 70
     1
102
RTVSPropertyOp3
 70
     1
102
RTVSPropertyOp4
 70
     1
102
RTVSPropertyOp5
 70
     1
102
RTVSPropertyOp6
 70
     1
102
RTVSPropertyOp7
 70
     1
102
RTVSPropertyOp8
 70
     1
102
RTVSPropertyOp9
 70
     1
102
RTVSPropertyOp10
 70
     1
102
RTVSPropertyOp11
 70
     1
102
RTVSPropertyOp12
 70
     1
102
RTVSPropertyOp13
 70
     1
102
RTVSPropertyOp14
 70
     1
102
RTVSPropertyOp15
 70
     1
102
RTVSPropertyOp16
 70
     1
102
RTVSPropertyOp17
 70
     1
102
RTVSPropertyOp18
 70
     1
102
RTVSPropertyOp19
 70
     1
102
RTVSPropertyOp20
 70
     1
102
RTVSPropertyOp21
 70
     1
102
RTVSPropertyOp22
 70
     1
102
RTVSPropertyOp23
 70
     1
102
RTVSPropertyOp24
 70
     1
102
RTVSPropertyOp25
 70
     1
102
RTVSPropertyOp26
 70
     1
102
RTVSPropertyOp27
 70
     1
102
RTVSPropertyOp28
 70
     1
102
RTVSPropertyOp29
 70
     1
102
RTVSPropertyOp30
 70
     1
102
RTVSPropertyOp31
 70
     1
102
RTVSPropertyOp32
 70
     1
102
RTVSPropertyOp33
 70
     1
102
RTVSPropertyOp34
 70
     1
102
RTVSPropertyOp35
 70
     1
102
RTVSPropertyOp36
 70
     1
102
RTVSPropertyOp37
 70
     1
102
RTVSPropertyOp38
 70
     1
102
RTVSPropertyOp39
 70
     1
102
RTVSPropertyOp40
 70
     1
102
RTVSPropertyOp41
 70
     1
102
RTVSPropertyOp42
 70
     1
102
RTVSPropertyOp43
 70
     1
102
RTVSPropertyOp44
 70
     1
102
RTVSPropertyOp45
 70
     1
102
RTVSPropertyOp46
 70
     1
102
RTVSPropertyOp47
 70
     1
102
RTVSPropertyOp48
 70
     1
102
RTVSPropertyOp49
 70
     1
102
RTVSPropertyOp50
 70
     1
102
RTVSPropertyOp51
 70
     0
102
RTVSPropertyOp52
 70
     0
102
RTVSPropertyOp53
 70
     1
102
RTVSPropertyOp54
 70
     1
102
RTVSPropertyOp55
 70
     1
102
RTVSPropertyOp56
 70
     1
102
RTVSPropertyOp57
 70
     1
102
RTVSPropertyOp58
 70
     1
102
RTVSPropertyOp59
 70
     1
102
RTVSPropertyOp60
 70
     1
102
RTVSPropertyOp61
 70
     1
102
RTVSPropertyOp62
 70
     1
  0
XRECORD
  5
393
102
{ACAD_REACTORS
330
392
102
}
330
392
100
AcDbXrecord
280
     1
102
RTVSPost2010Prop28
280
     0
102
RTVSPost2010PropOp28
 70
     1
102
RTVSPost2010Prop29
280
     1
102
RTVSPost2010PropOp29
 70
     1
102
RTVSPost2010Prop30
280
     1
102
RTVSPost2010PropOp30
 70
     1
102
RTVSPost2010Prop31
280
     0
102
RTVSPost2010PropOp31
 70
     1
102
RTVSPost2010Prop32
280
     0
102
RTVSPost2010PropOp32
 70
     1
102
RTVSPost2010Prop33
280
     0
102
RTVSPost2010PropOp33
 70
     1
102
RTVSPost2010Prop34
280
     0
102
RTVSPost2010PropOp34
 70
     1
102
RTVSPost2010Prop35
280
     0
102
RTVSPost2010PropOp35
 70
     1
102
RTVSPost2010Prop36
280
     0
102
RTVSPost2010PropOp36
 70
     1
102
RTVSPost2010Prop37
 90
       50
102
RTVSPost2010PropOp37
 70
     1
102
RTVSPost2010Prop38
140
0.0
102
RTVSPost2010PropOp38
 70
     1
102
RTVSPost2010Prop39
140
1.0
102
RTVSPost2010PropOp39
 70
     1
102
RTVSPost2010Prop40
 90
        0
102
RTVSPost2010PropOp40
 70
     1
102
RTVSPost2010Prop41ColorIndex
 90
       18
102
RTVSPost2010Prop41ColorRGB
 90
        0
102
RTVSPost2010PropOp41
 70
     1
102
RTVSPost2010Prop42
 90
       50
102
RTVSPost2010PropOp42
 70
     1
102
RTVSPost2010Prop43
 90
        3
102
RTVSPost2010PropOp43
 70
     1
102
RTVSPost2010Prop44ColorIndex
 90
        5
102
RTVSPost2010Prop44ColorRGB
 90
      255
102
RTVSPost2010PropOp44
 70
     1
102
RTVSPost2010Prop45
280
     0
102
RTVSPost2010PropOp45
 70
     1
102
RTVSPost2010Prop46
 90
       50
102
RTVSPost2010PropOp46
 70
     1
102
RTVSPost2010Prop47
 90
       50
102
RTVSPost2010PropOp47
 70
     1
102
RTVSPost2010Prop48
 90
       50
102
RTVSPost2010PropOp48
 70
     1
102
RTVSPost2010Prop49
280
     0
102
RTVSPost2010PropOp49
 70
     1
102
RTVSPost2010Prop50
 90
       50
102
RTVSPost2010PropOp50
 70
     1
102
RTVSPost2010Prop51ColorIndex
 90
      256
102
RTVSPost2010Prop51ColorRGB
 90
-16777216
102
RTVSPost2010PropOp51
 70
     0
102
RTVSPost2010Prop52
140
1.0
102
RTVSPost2010PropOp52
 70
     0
102
RTVSPost2010Prop53
 90
        2
102
RTVSPost2010PropOp53
 70
     1
102
RTVSPost2010Prop54
  1
strokes_ogs.tif
102
RTVSPost2010PropOp54
 70
     1
102
RTVSPost2010Prop55
280
     0
102
RTVSPost2010PropOp55
 70
     1
102
RTVSPost2010Prop56
140
1.0
102
RTVSPost2010PropOp56
 70
     1
102
RTVSPost2010Prop57
140
1.0
102
RTVSPost2010PropOp57
 70
     1
102
RTVSPropertyOp0
 70
     1
102
RTVSPropertyOp1
 70
     1
102
RTVSPropertyOp2
 70
     1
102
RTVSPropertyOp3
 70
     1
102
RTVSPropertyOp4
 70
     1
102
RTVSPropertyOp5
 70
     1
102
RTVSPropertyOp6
 70
     1
102
RTVSPropertyOp7
 70
     1
102
RTVSPropertyOp8
 70
     1
102
RTVSPropertyOp9
 70
     1
102
RTVSPropertyOp10
 70
     1
102
RTVSPropertyOp11
 70
     1
102
RTVSPropertyOp12
 70
     1
102
RTVSPropertyOp13
 70
     1
102
RTVSPropertyOp14
 70
     1
102
RTVSPropertyOp15
 70
     1
102
RTVSPropertyOp16
 70
     1
102
RTVSPropertyOp17
 70
     1
102
RTVSPropertyOp18
 70
     1
102
RTVSPropertyOp19
 70
     1
102
RTVSPropertyOp20
 70
     1
102
RTVSPropertyOp21
 70
     1
102
RTVSPropertyOp22
 70
     1
102
RTVSPropertyOp23
 70
     1
102
RTVSPropertyOp24
 70
     1
102
RTVSPropertyOp25
 70
     1
102
RTVSPropertyOp26
 70
     1
102
RTVSPropertyOp27
 70
     1
102
RTVSPropertyOp28
 70
     1
102
RTVSPropertyOp29
 70
     1
102
RTVSPropertyOp30
 70
     1
102
RTVSPropertyOp31
 70
     1
102
RTVSPropertyOp32
 70
     1
102
RTVSPropertyOp33
 70
     1
102
RTVSPropertyOp34
 70
     1
102
RTVSPropertyOp35
 70
     1
102
RTVSPropertyOp36
 70
     1
102
RTVSPropertyOp37
 70
     1
102
RTVSPropertyOp38
 70
     1
102
RTVSPropertyOp39
 70
     1
102
RTVSPropertyOp40
 70
     1
102
RTVSPropertyOp41
 70
     1
102
RTVSPropertyOp42
 70
     1
102
RTVSPropertyOp43
 70
     1
102
RTVSPropertyOp44
 70
     1
102
RTVSPropertyOp45
 70
     1
102
RTVSPropertyOp46
 70
     1
102
RTVSPropertyOp47
 70
     1
102
RTVSPropertyOp48
 70
     1
102
RTVSPropertyOp49
 70
     1
102
RTVSPropertyOp50
 70
     1
102
RTVSPropertyOp51
 70
     0
102
RTVSPropertyOp52
 70
     0
102
RTVSPropertyOp53
 70
     1
102
RTVSPropertyOp54
 70
     1
102
RTVSPropertyOp55
 70
     1
102
RTVSPropertyOp56
 70
     1
102
RTVSPropertyOp57
 70
     1
102
RTVSPropertyOp58
 70
     1
102
RTVSPropertyOp59
 70
     1
102
RTVSPropertyOp60
 70
     1
102
RTVSPropertyOp61
 70
     1
102
RTVSPropertyOp62
 70
     1
  0
XRECORD
  5
383
102
{ACAD_REACTORS
330
382
102
}
330
382
100
AcDbXrecord
280
     1
102
RTVSPost2010Prop28
280
     0
102
RTVSPost2010PropOp28
 70
     1
102
RTVSPost2010Prop29
280
     1
102
RTVSPost2010PropOp29
 70
     1
102
RTVSPost2010Prop30
280
     1
102
RTVSPost2010PropOp30
 70
     1
102
RTVSPost2010Prop31
280
     0
102
RTVSPost2010PropOp31
 70
     1
102
RTVSPost2010Prop32
280
     0
102
RTVSPost2010PropOp32
 70
     1
102
RTVSPost2010Prop33
280
     0
102
RTVSPost2010PropOp33
 70
     1
102
RTVSPost2010Prop34
280
     0
102
RTVSPost2010PropOp34
 70
     1
102
RTVSPost2010Prop35
280
     0
102
RTVSPost2010PropOp35
 70
     1
102
RTVSPost2010Prop36
280
     0
102
RTVSPost2010PropOp36
 70
     1
102
RTVSPost2010Prop37
 90
       50
102
RTVSPost2010PropOp37
 70
     1
102
RTVSPost2010Prop38
140
0.0
102
RTVSPost2010PropOp38
 70
     1
102
RTVSPost2010Prop39
140
1.0
102
RTVSPost2010PropOp39
 70
     1
102
RTVSPost2010Prop40
 90
        0
102
RTVSPost2010PropOp40
 70
     1
102
RTVSPost2010Prop41ColorIndex
 90
       18
102
RTVSPost2010Prop41ColorRGB
 90
        0
102
RTVSPost2010PropOp41
 70
     1
102
RTVSPost2010Prop42
 90
       50
102
RTVSPost2010PropOp42
 70
     1
102
RTVSPost2010Prop43
 90
        3
102
RTVSPost2010PropOp43
 70
     1
102
RTVSPost2010Prop44ColorIndex
 90
        5
102
RTVSPost2010Prop44ColorRGB
 90
      255
102
RTVSPost2010PropOp44
 70
     1
102
RTVSPost2010Prop45
280
     0
102
RTVSPost2010PropOp45
 70
     1
102
RTVSPost2010Prop46
 90
       50
102
RTVSPost2010PropOp46
 70
     1
102
RTVSPost2010Prop47
 90
       50
102
RTVSPost2010PropOp47
 70
     1
102
RTVSPost2010Prop48
 90
       50
102
RTVSPost2010PropOp48
 70
     1
102
RTVSPost2010Prop49
280
     0
102
RTVSPost2010PropOp49
 70
     1
102
RTVSPost2010Prop50
 90
       50
102
RTVSPost2010PropOp50
 70
     1
102
RTVSPost2010Prop51ColorIndex
 90
      256
102
RTVSPost2010Prop51ColorRGB
 90
-16777216
102
RTVSPost2010PropOp51
 70
     0
102
RTVSPost2010Prop52
140
1.0
102
RTVSPost2010PropOp52
 70
     0
102
RTVSPost2010Prop53
 90
        2
102
RTVSPost2010PropOp53
 70
     1
102
RTVSPost2010Prop54
  1
strokes_ogs.tif
102
RTVSPost2010PropOp54
 70
     1
102
RTVSPost2010Prop55
280
     0
102
RTVSPost2010PropOp55
 70
     1
102
RTVSPost2010Prop56
140
1.0
102
RTVSPost2010PropOp56
 70
     1
102
RTVSPost2010Prop57
140
1.0
102
RTVSPost2010PropOp57
 70
     1
102
RTVSPropertyOp0
 70
     1
102
RTVSPropertyOp1
 70
     1
102
RTVSPropertyOp2
 70
     1
102
RTVSPropertyOp3
 70
     1
102
RTVSPropertyOp4
 70
     1
102
RTVSPropertyOp5
 70
     1
102
RTVSPropertyOp6
 70
     1
102
RTVSPropertyOp7
 70
     1
102
RTVSPropertyOp8
 70
     1
102
RTVSPropertyOp9
 70
     1
102
RTVSPropertyOp10
 70
     1
102
RTVSPropertyOp11
 70
     1
102
RTVSPropertyOp12
 70
     1
102
RTVSPropertyOp13
 70
     1
102
RTVSPropertyOp14
 70
     1
102
RTVSPropertyOp15
 70
     1
102
RTVSPropertyOp16
 70
     1
102
RTVSPropertyOp17
 70
     1
102
RTVSPropertyOp18
 70
     1
102
RTVSPropertyOp19
 70
     1
102
RTVSPropertyOp20
 70
     1
102
RTVSPropertyOp21
 70
     1
102
RTVSPropertyOp22
 70
     1
102
RTVSPropertyOp23
 70
     1
102
RTVSPropertyOp24
 70
     1
102
RTVSPropertyOp25
 70
     1
102
RTVSPropertyOp26
 70
     1
102
RTVSPropertyOp27
 70
     1
102
RTVSPropertyOp28
 70
     1
102
RTVSPropertyOp29
 70
     1
102
RTVSPropertyOp30
 70
     1
102
RTVSPropertyOp31
 70
     1
102
RTVSPropertyOp32
 70
     1
102
RTVSPropertyOp33
 70
     1
102
RTVSPropertyOp34
 70
     1
102
RTVSPropertyOp35
 70
     1
102
RTVSPropertyOp36
 70
     1
102
RTVSPropertyOp37
 70
     1
102
RTVSPropertyOp38
 70
     1
102
RTVSPropertyOp39
 70
     1
102
RTVSPropertyOp40
 70
     1
102
RTVSPropertyOp41
 70
     1
102
RTVSPropertyOp42
 70
     1
102
RTVSPropertyOp43
 70
     1
102
RTVSPropertyOp44
 70
     1
102
RTVSPropertyOp45
 70
     1
102
RTVSPropertyOp46
 70
     1
102
RTVSPropertyOp47
 70
     1
102
RTVSPropertyOp48
 70
     1
102
RTVSPropertyOp49
 70
     1
102
RTVSPropertyOp50
 70
     1
102
RTVSPropertyOp51
 70
     0
102
RTVSPropertyOp52
 70
     0
102
RTVSPropertyOp53
 70
     1
102
RTVSPropertyOp54
 70
     1
102
RTVSPropertyOp55
 70
     1
102
RTVSPropertyOp56
 70
     1
102
RTVSPropertyOp57
 70
     1
102
RTVSPropertyOp58
 70
     1
102
RTVSPropertyOp59
 70
     1
102
RTVSPropertyOp60
 70
     1
102
RTVSPropertyOp61
 70
     1
102
RTVSPropertyOp62
 70
     1
  0
XRECORD
  5
375
102
{ACAD_REACTORS
330
374
102
}
330
374
100
AcDbXrecord
280
     1
102
RTVSPost2010Prop28
280
     0
102
RTVSPost2010PropOp28
 70
     1
102
RTVSPost2010Prop29
280
     1
102
RTVSPost2010PropOp29
 70
     1
102
RTVSPost2010Prop30
280
     1
102
RTVSPost2010PropOp30
 70
     1
102
RTVSPost2010Prop31
280
     0
102
RTVSPost2010PropOp31
 70
     1
102
RTVSPost2010Prop32
280
     0
102
RTVSPost2010PropOp32
 70
     1
102
RTVSPost2010Prop33
280
     0
102
RTVSPost2010PropOp33
 70
     1
102
RTVSPost2010Prop34
280
     0
102
RTVSPost2010PropOp34
 70
     1
102
RTVSPost2010Prop35
280
     0
102
RTVSPost2010PropOp35
 70
     1
102
RTVSPost2010Prop36
280
     0
102
RTVSPost2010PropOp36
 70
     1
102
RTVSPost2010Prop37
 90
       50
102
RTVSPost2010PropOp37
 70
     1
102
RTVSPost2010Prop38
140
0.0
102
RTVSPost2010PropOp38
 70
     1
102
RTVSPost2010Prop39
140
1.0
102
RTVSPost2010PropOp39
 70
     1
102
RTVSPost2010Prop40
 90
        0
102
RTVSPost2010PropOp40
 70
     1
102
RTVSPost2010Prop41ColorIndex
 90
       18
102
RTVSPost2010Prop41ColorRGB
 90
        0
102
RTVSPost2010PropOp41
 70
     1
102
RTVSPost2010Prop42
 90
       50
102
RTVSPost2010PropOp42
 70
     1
102
RTVSPost2010Prop43
 90
        3
102
RTVSPost2010PropOp43
 70
     1
102
RTVSPost2010Prop44ColorIndex
 90
        5
102
RTVSPost2010Prop44ColorRGB
 90
      255
102
RTVSPost2010PropOp44
 70
     1
102
RTVSPost2010Prop45
280
     0
102
RTVSPost2010PropOp45
 70
     1
102
RTVSPost2010Prop46
 90
       50
102
RTVSPost2010PropOp46
 70
     1
102
RTVSPost2010Prop47
 90
       50
102
RTVSPost2010PropOp47
 70
     1
102
RTVSPost2010Prop48
 90
       50
102
RTVSPost2010PropOp48
 70
     1
102
RTVSPost2010Prop49
280
     0
102
RTVSPost2010PropOp49
 70
     1
102
RTVSPost2010Prop50
 90
       50
102
RTVSPost2010PropOp50
 70
     1
102
RTVSPost2010Prop51ColorIndex
 90
      256
102
RTVSPost2010Prop51ColorRGB
 90
-16777216
102
RTVSPost2010PropOp51
 70
     0
102
RTVSPost2010Prop52
140
1.0
102
RTVSPost2010PropOp52
 70
     0
102
RTVSPost2010Prop53
 90
        2
102
RTVSPost2010PropOp53
 70
     1
102
RTVSPost2010Prop54
  1
strokes_ogs.tif
102
RTVSPost2010PropOp54
 70
     1
102
RTVSPost2010Prop55
280
     0
102
RTVSPost2010PropOp55
 70
     1
102
RTVSPost2010Prop56
140
1.0
102
RTVSPost2010PropOp56
 70
     1
102
RTVSPost2010Prop57
140
1.0
102
RTVSPost2010PropOp57
 70
     1
102
RTVSPropertyOp0
 70
     1
102
RTVSPropertyOp1
 70
     1
102
RTVSPropertyOp2
 70
     1
102
RTVSPropertyOp3
 70
     1
102
RTVSPropertyOp4
 70
     1
102
RTVSPropertyOp5
 70
     1
102
RTVSPropertyOp6
 70
     1
102
RTVSPropertyOp7
 70
     1
102
RTVSPropertyOp8
 70
     1
102
RTVSPropertyOp9
 70
     1
102
RTVSPropertyOp10
 70
     1
102
RTVSPropertyOp11
 70
     1
102
RTVSPropertyOp12
 70
     1
102
RTVSPropertyOp13
 70
     1
102
RTVSPropertyOp14
 70
     1
102
RTVSPropertyOp15
 70
     1
102
RTVSPropertyOp16
 70
     1
102
RTVSPropertyOp17
 70
     1
102
RTVSPropertyOp18
 70
     1
102
RTVSPropertyOp19
 70
     1
102
RTVSPropertyOp20
 70
     1
102
RTVSPropertyOp21
 70
     1
102
RTVSPropertyOp22
 70
     1
102
RTVSPropertyOp23
 70
     1
102
RTVSPropertyOp24
 70
     1
102
RTVSPropertyOp25
 70
     1
102
RTVSPropertyOp26
 70
     1
102
RTVSPropertyOp27
 70
     1
102
RTVSPropertyOp28
 70
     1
102
RTVSPropertyOp29
 70
     1
102
RTVSPropertyOp30
 70
     1
102
RTVSPropertyOp31
 70
     1
102
RTVSPropertyOp32
 70
     1
102
RTVSPropertyOp33
 70
     1
102
RTVSPropertyOp34
 70
     1
102
RTVSPropertyOp35
 70
     1
102
RTVSPropertyOp36
 70
     1
102
RTVSPropertyOp37
 70
     1
102
RTVSPropertyOp38
 70
     1
102
RTVSPropertyOp39
 70
     1
102
RTVSPropertyOp40
 70
     1
102
RTVSPropertyOp41
 70
     1
102
RTVSPropertyOp42
 70
     1
102
RTVSPropertyOp43
 70
     1
102
RTVSPropertyOp44
 70
     1
102
RTVSPropertyOp45
 70
     1
102
RTVSPropertyOp46
 70
     1
102
RTVSPropertyOp47
 70
     1
102
RTVSPropertyOp48
 70
     1
102
RTVSPropertyOp49
 70
     1
102
RTVSPropertyOp50
 70
     1
102
RTVSPropertyOp51
 70
     0
102
RTVSPropertyOp52
 70
     0
102
RTVSPropertyOp53
 70
     1
102
RTVSPropertyOp54
 70
     1
102
RTVSPropertyOp55
 70
     1
102
RTVSPropertyOp56
 70
     1
102
RTVSPropertyOp57
 70
     1
102
RTVSPropertyOp58
 70
     1
102
RTVSPropertyOp59
 70
     1
102
RTVSPropertyOp60
 70
     1
102
RTVSPropertyOp61
 70
     1
102
RTVSPropertyOp62
 70
     1
  0
XRECORD
  5
395
102
{ACAD_REACTORS
330
394
102
}
330
394
100
AcDbXrecord
280
     1
102
RTVSPost2010Prop28
280
     0
102
RTVSPost2010PropOp28
 70
     1
102
RTVSPost2010Prop29
280
     1
102
RTVSPost2010PropOp29
 70
     1
102
RTVSPost2010Prop30
280
     1
102
RTVSPost2010PropOp30
 70
     1
102
RTVSPost2010Prop31
280
     0
102
RTVSPost2010PropOp31
 70
     1
102
RTVSPost2010Prop32
280
     0
102
RTVSPost2010PropOp32
 70
     1
102
RTVSPost2010Prop33
280
     0
102
RTVSPost2010PropOp33
 70
     1
102
RTVSPost2010Prop34
280
     0
102
RTVSPost2010PropOp34
 70
     1
102
RTVSPost2010Prop35
280
     0
102
RTVSPost2010PropOp35
 70
     1
102
RTVSPost2010Prop36
280
     0
102
RTVSPost2010PropOp36
 70
     1
102
RTVSPost2010Prop37
 90
       50
102
RTVSPost2010PropOp37
 70
     1
102
RTVSPost2010Prop38
140
0.0
102
RTVSPost2010PropOp38
 70
     1
102
RTVSPost2010Prop39
140
1.0
102
RTVSPost2010PropOp39
 70
     1
102
RTVSPost2010Prop40
 90
        0
102
RTVSPost2010PropOp40
 70
     1
102
RTVSPost2010Prop41ColorIndex
 90
       18
102
RTVSPost2010Prop41ColorRGB
 90
        0
102
RTVSPost2010PropOp41
 70
     1
102
RTVSPost2010Prop42
 90
       50
102
RTVSPost2010PropOp42
 70
     1
102
RTVSPost2010Prop43
 90
        3
102
RTVSPost2010PropOp43
 70
     1
102
RTVSPost2010Prop44ColorIndex
 90
        5
102
RTVSPost2010Prop44ColorRGB
 90
      255
102
RTVSPost2010PropOp44
 70
     1
102
RTVSPost2010Prop45
280
     0
102
RTVSPost2010PropOp45
 70
     1
102
RTVSPost2010Prop46
 90
       50
102
RTVSPost2010PropOp46
 70
     1
102
RTVSPost2010Prop47
 90
       50
102
RTVSPost2010PropOp47
 70
     1
102
RTVSPost2010Prop48
 90
       50
102
RTVSPost2010PropOp48
 70
     1
102
RTVSPost2010Prop49
280
     0
102
RTVSPost2010PropOp49
 70
     1
102
RTVSPost2010Prop50
 90
       50
102
RTVSPost2010PropOp50
 70
     1
102
RTVSPost2010Prop51ColorIndex
 90
      256
102
RTVSPost2010Prop51ColorRGB
 90
-16777216
102
RTVSPost2010PropOp51
 70
     0
102
RTVSPost2010Prop52
140
1.0
102
RTVSPost2010PropOp52
 70
     0
102
RTVSPost2010Prop53
 90
        2
102
RTVSPost2010PropOp53
 70
     1
102
RTVSPost2010Prop54
  1
strokes_ogs.tif
102
RTVSPost2010PropOp54
 70
     1
102
RTVSPost2010Prop55
280
     0
102
RTVSPost2010PropOp55
 70
     1
102
RTVSPost2010Prop56
140
1.0
102
RTVSPost2010PropOp56
 70
     1
102
RTVSPost2010Prop57
140
1.0
102
RTVSPost2010PropOp57
 70
     1
102
RTVSPropertyOp0
 70
     1
102
RTVSPropertyOp1
 70
     1
102
RTVSPropertyOp2
 70
     1
102
RTVSPropertyOp3
 70
     1
102
RTVSPropertyOp4
 70
     1
102
RTVSPropertyOp5
 70
     1
102
RTVSPropertyOp6
 70
     1
102
RTVSPropertyOp7
 70
     1
102
RTVSPropertyOp8
 70
     1
102
RTVSPropertyOp9
 70
     1
102
RTVSPropertyOp10
 70
     1
102
RTVSPropertyOp11
 70
     1
102
RTVSPropertyOp12
 70
     1
102
RTVSPropertyOp13
 70
     1
102
RTVSPropertyOp14
 70
     1
102
RTVSPropertyOp15
 70
     1
102
RTVSPropertyOp16
 70
     1
102
RTVSPropertyOp17
 70
     1
102
RTVSPropertyOp18
 70
     1
102
RTVSPropertyOp19
 70
     1
102
RTVSPropertyOp20
 70
     1
102
RTVSPropertyOp21
 70
     1
102
RTVSPropertyOp22
 70
     1
102
RTVSPropertyOp23
 70
     1
102
RTVSPropertyOp24
 70
     1
102
RTVSPropertyOp25
 70
     1
102
RTVSPropertyOp26
 70
     1
102
RTVSPropertyOp27
 70
     1
102
RTVSPropertyOp28
 70
     1
102
RTVSPropertyOp29
 70
     1
102
RTVSPropertyOp30
 70
     1
102
RTVSPropertyOp31
 70
     1
102
RTVSPropertyOp32
 70
     1
102
RTVSPropertyOp33
 70
     1
102
RTVSPropertyOp34
 70
     1
102
RTVSPropertyOp35
 70
     1
102
RTVSPropertyOp36
 70
     1
102
RTVSPropertyOp37
 70
     1
102
RTVSPropertyOp38
 70
     1
102
RTVSPropertyOp39
 70
     1
102
RTVSPropertyOp40
 70
     1
102
RTVSPropertyOp41
 70
     1
102
RTVSPropertyOp42
 70
     1
102
RTVSPropertyOp43
 70
     1
102
RTVSPropertyOp44
 70
     1
102
RTVSPropertyOp45
 70
     1
102
RTVSPropertyOp46
 70
     1
102
RTVSPropertyOp47
 70
     1
102
RTVSPropertyOp48
 70
     1
102
RTVSPropertyOp49
 70
     1
102
RTVSPropertyOp50
 70
     1
102
RTVSPropertyOp51
 70
     0
102
RTVSPropertyOp52
 70
     0
102
RTVSPropertyOp53
 70
     1
102
RTVSPropertyOp54
 70
     1
102
RTVSPropertyOp55
 70
     1
102
RTVSPropertyOp56
 70
     1
102
RTVSPropertyOp57
 70
     1
102
RTVSPropertyOp58
 70
     1
102
RTVSPropertyOp59
 70
     1
102
RTVSPropertyOp60
 70
     1
102
RTVSPropertyOp61
 70
     1
102
RTVSPropertyOp62
 70
     1
  0
ENDSEC
  0
EOF
