  0
SECTION
  2
HEADER
  9
$ACADVER
  1
AC1018
  9
$ACADMAINTVER
 70
   104
  9
$DWGCODEPAGE
  3
ANSI_1250
  9
$LASTSAVEDBY
  1
hc7230
  9
$INSBASE
 10
0.0
 20
0.0
 30
0.0
  9
$EXTMIN
 10
132.7877923333334
 20
213.1691216666665
 30
0.0
  9
$EXTMAX
 10
305.240891
 20
303.7261226666667
 30
0.0
  9
$LIMMIN
 10
-0.5
 20
-0.5
  9
$LIMMAX
 10
5.0
 20
5.0
  9
$ORTHOMODE
 70
     0
  9
$REGENMODE
 70
     1
  9
$FILLMODE
 70
     1
  9
$QTEXTMODE
 70
     0
  9
$MIRRTEXT
 70
     1
  9
$LTSCALE
 40
1.0
  9
$ATTMODE
 70
     1
  9
$TEXTSIZE
 40
0.2
  9
$TRACEWID
 40
0.05
  9
$TEXTSTYLE
  7
Standard
  9
$CLAYER
  8
0
  9
$CELTYPE
  6
ByLayer
  9
$CECOLOR
 62
   256
  9
$CELTSCALE
 40
1.0
  9
$DISPSILH
 70
     0
  9
$DIMSCALE
 40
1.0
  9
$DIMASZ
 40
0.18
  9
$DIMEXO
 40
0.0625
  9
$DIMDLI
 40
0.38
  9
$DIMRND
 40
0.0
  9
$DIMDLE
 40
0.0
  9
$DIMEXE
 40
0.18
  9
$DIMTP
 40
0.0
  9
$DIMTM
 40
0.0
  9
$DIMTXT
 40
0.18
  9
$DIMCEN
 40
0.09
  9
$DIMTSZ
 40
0.0
  9
$DIMTOL
 70
     0
  9
$DIMLIM
 70
     0
  9
$DIMTIH
 70
     1
  9
$DIMTOH
 70
     1
  9
$DIMSE1
 70
     0
  9
$DIMSE2
 70
     0
  9
$DIMTAD
 70
     0
  9
$DIMZIN
 70
     0
  9
$DIMBLK
  1

  9
$DIMASO
 70
     1
  9
$DIMSHO
 70
     1
  9
$DIMPOST
  1

  9
$DIMAPOST
  1

  9
$DIMALT
 70
     0
  9
$DIMALTD
 70
     2
  9
$DIMALTF
 40
25.4
  9
$DIMLFAC
 40
1.0
  9
$DIMTOFL
 70
     0
  9
$DIMTVP
 40
0.0
  9
$DIMTIX
 70
     0
  9
$DIMSOXD
 70
     0
  9
$DIMSAH
 70
     0
  9
$DIMBLK1
  1

  9
$DIMBLK2
  1

  9
$DIMSTYLE
  2
Standard
  9
$DIMCLRD
 70
     0
  9
$DIMCLRE
 70
     0
  9
$DIMCLRT
 70
     0
  9
$DIMTFAC
 40
1.0
  9
$DIMGAP
 40
0.09
  9
$DIMJUST
 70
     0
  9
$DIMSD1
 70
     0
  9
$DIMSD2
 70
     0
  9
$DIMTOLJ
 70
     1
  9
$DIMTZIN
 70
     0
  9
$DIMALTZ
 70
     0
  9
$DIMALTTZ
 70
     0
  9
$DIMUPT
 70
     0
  9
$DIMDEC
 70
     4
  9
$DIMTDEC
 70
     4
  9
$DIMALTU
 70
     2
  9
$DIMALTTD
 70
     2
  9
$DIMTXSTY
  7
Standard
  9
$DIMAUNIT
 70
     0
  9
$DIMADEC
 70
     0
  9
$DIMALTRND
 40
0.0
  9
$DIMAZIN
 70
     0
  9
$DIMDSEP
 70
    46
  9
$DIMATFIT
 70
     3
  9
$DIMFRAC
 70
     0
  9
$DIMLDRBLK
  1

  9
$DIMLUNIT
 70
     2
  9
$DIMLWD
 70
    -2
  9
$DIMLWE
 70
    -2
  9
$DIMTMOVE
 70
     0
  9
$LUNITS
 70
     2
  9
$LUPREC
 70
     4
  9
$SKETCHINC
 40
0.1
  9
$FILLETRAD
 40
0.5
  9
$AUNITS
 70
     0
  9
$AUPREC
 70
     0
  9
$MENU
  1
.
  9
$ELEVATION
 40
0.0
  9
$PELEVATION
 40
0.0
  9
$THICKNESS
 40
0.0
  9
$LIMCHECK
 70
     0
  9
$CHAMFERA
 40
0.0
  9
$CHAMFERB
 40
0.0
  9
$CHAMFERC
 40
0.0
  9
$CHAMFERD
 40
0.0
  9
$SKPOLY
 70
     0
  9
$TDCREATE
 40
2458835.517395834
  9
$TDUCREATE
 40
2458835.475736458
  9
$TDUPDATE
 40
2458835.520208333
  9
$TDUUPDATE
 40
2458835.478541667
  9
$TDINDWG
 40
0.0007176042
  9
$TDUSRTIMER
 40
0.0007176042
  9
$USRTIMER
 70
     1
  9
$ANGBASE
 50
0.0
  9
$ANGDIR
 70
     0
  9
$PDMODE
 70
     0
  9
$PDSIZE
 40
0.0
  9
$PLINEWID
 40
0.0
  9
$SPLFRAME
 70
     0
  9
$SPLINETYPE
 70
     6
  9
$SPLINESEGS
 70
     8
  9
$HANDSEED
  5
39F
  9
$SURFTAB1
 70
     6
  9
$SURFTAB2
 70
     6
  9
$SURFTYPE
 70
     6
  9
$SURFU
 70
     6
  9
$SURFV
 70
     6
  9
$UCSBASE
  2

  9
$UCSNAME
  2

  9
$UCSORG
 10
203.144248
 20
243.731161
 30
0.0
  9
$UCSXDIR
 10
1.0
 20
0.0
 30
0.0
  9
$UCSYDIR
 10
0.0
 20
1.0
 30
0.0
  9
$UCSORTHOREF
  2

  9
$UCSORTHOVIEW
 70
     0
  9
$UCSORGTOP
 10
0.0
 20
0.0
 30
0.0
  9
$UCSORGBOTTOM
 10
0.0
 20
0.0
 30
0.0
  9
$UCSORGLEFT
 10
0.0
 20
0.0
 30
0.0
  9
$UCSORGRIGHT
 10
0.0
 20
0.0
 30
0.0
  9
$UCSORGFRONT
 10
0.0
 20
0.0
 30
0.0
  9
$UCSORGBACK
 10
0.0
 20
0.0
 30
0.0
  9
$PUCSBASE
  2

  9
$PUCSNAME
  2

  9
$PUCSORG
 10
0.0
 20
0.0
 30
0.0
  9
$PUCSXDIR
 10
1.0
 20
0.0
 30
0.0
  9
$PUCSYDIR
 10
0.0
 20
1.0
 30
0.0
  9
$PUCSORTHOREF
  2

  9
$PUCSORTHOVIEW
 70
     0
  9
$PUCSORGTOP
 10
0.0
 20
0.0
 30
0.0
  9
$PUCSORGBOTTOM
 10
0.0
 20
0.0
 30
0.0
  9
$PUCSORGLEFT
 10
0.0
 20
0.0
 30
0.0
  9
$PUCSORGRIGHT
 10
0.0
 20
0.0
 30
0.0
  9
$PUCSORGFRONT
 10
0.0
 20
0.0
 30
0.0
  9
$PUCSORGBACK
 10
0.0
 20
0.0
 30
0.0
  9
$USERI1
 70
     0
  9
$USERI2
 70
     0
  9
$USERI3
 70
     0
  9
$USERI4
 70
     0
  9
$USERI5
 70
     0
  9
$USERR1
 40
0.0
  9
$USERR2
 40
0.0
  9
$USERR3
 40
0.0
  9
$USERR4
 40
0.0
  9
$USERR5
 40
0.0
  9
$WORLDVIEW
 70
     1
  9
$SHADEDGE
 70
     3
  9
$SHADEDIF
 70
    70
  9
$TILEMODE
 70
     1
  9
$MAXACTVP
 70
    64
  9
$PINSBASE
 10
0.0
 20
0.0
 30
0.0
  9
$PLIMCHECK
 70
     0
  9
$PEXTMIN
 10
-0.5
 20
-0.5
 30
-0.5
  9
$PEXTMAX
 10
5.0
 20
5.0
 30
5.0
  9
$PLIMMIN
 10
-0.5
 20
-0.5
  9
$PLIMMAX
 10
5.0
 20
5.0
  9
$UNITMODE
 70
     0
  9
$VISRETAIN
 70
     1
  9
$PLINEGEN
 70
     0
  9
$PSLTSCALE
 70
     1
  9
$TREEDEPTH
 70
  3020
  9
$CMLSTYLE
  2
Standard
  9
$CMLJUST
 70
     0
  9
$CMLSCALE
 40
1.0
  9
$PROXYGRAPHICS
 70
     1
  9
$MEASUREMENT
 70
     1
  9
$CELWEIGHT
370
    13
  9
$ENDCAPS
280
     0
  9
$JOINSTYLE
280
     0
  9
$LWDISPLAY
290
     0
  9
$INSUNITS
 70
     4
  9
$HYPERLINKBASE
  1

  9
$STYLESHEET
  1

  9
$XEDIT
290
     1
  9
$CEPSNTYPE
380
     0
  9
$PSTYLEMODE
290
     1
  9
$FINGERPRINTGUID
  2
{D4E2986B-DC13-46D2-BCA0-BE6E992B9D0B}
  9
$VERSIONGUID
  2
{0B2CDFEE-4C03-5A46-B26A-CC2DD0890085}
  9
$EXTNAMES
290
     1
  9
$PSVPSCALE
 40
0.0
  9
$OLESTARTUP
290
     0
  9
$SORTENTS
280
   127
  9
$INDEXCTL
280
     0
  9
$HIDETEXT
280
     1
  9
$XCLIPFRAME
290
     0
  9
$HALOGAP
280
     0
  9
$OBSCOLOR
 70
   257
  9
$OBSLTYPE
280
     0
  9
$INTERSECTIONDISPLAY
280
     0
  9
$INTERSECTIONCOLOR
 70
   257
  9
$DIMASSOC
280
     2
  9
$PROJECTNAME
  1

  0
ENDSEC
  0
SECTION
  2
CLASSES
  0
CLASS
  1
ACDBDICTIONARYWDFLT
  2
AcDbDictionaryWithDefault
  3
ObjectDBX Classes
 90
        0
 91
        1
280
     0
281
     0
  0
CLASS
  1
VISUALSTYLE
  2
AcDbVisualStyle
  3
ObjectDBX Classes
 90
     4095
 91
       24
280
     0
281
     0
  0
CLASS
  1
MATERIAL
  2
AcDbMaterial
  3
ObjectDBX Classes
 90
     1153
 91
        3
280
     0
281
     0
  0
CLASS
  1
SCALE
  2
AcDbScale
  3
ObjectDBX Classes
 90
     1153
 91
       33
280
     0
281
     0
  0
CLASS
  1
TABLESTYLE
  2
AcDbTableStyle
  3
ObjectDBX Classes
 90
     4095
 91
        1
280
     0
281
     0
  0
CLASS
  1
MLEADERSTYLE
  2
AcDbMLeaderStyle
  3
ACDB_MLEADERSTYLE_CLASS
 90
     4095
 91
        1
280
     0
281
     0
  0
CLASS
  1
SUN
  2
AcDbSun
  3
SCENEOE
 90
     1153
 91
        0
280
     0
281
     0
  0
CLASS
  1
DIMASSOC
  2
AcDbDimAssoc
  3
"AcDbDimAssoc|Product Desc:     AcDim ARX App For Dimension|Company:          Autodesk, Inc.|WEB Address:      www.autodesk.com"
 90
        0
 91
        6
280
     0
281
     0
  0
CLASS
  1
DICTIONARYVAR
  2
AcDbDictionaryVar
  3
ObjectDBX Classes
 90
        0
 91
        8
280
     0
281
     0
  0
CLASS
  1
CELLSTYLEMAP
  2
AcDbCellStyleMap
  3
ObjectDBX Classes
 90
     1152
 91
        2
280
     0
281
     0
  0
CLASS
  1
ACDBSECTIONVIEWSTYLE
  2
AcDbSectionViewStyle
  3
ObjectDBX Classes
 90
     1025
 91
        1
280
     0
281
     0
  0
CLASS
  1
ACDBDETAILVIEWSTYLE
  2
AcDbDetailViewStyle
  3
ObjectDBX Classes
 90
     1025
 91
        1
280
     0
281
     0
  0
CLASS
  1
SORTENTSTABLE
  2
AcDbSortentsTable
  3
ObjectDBX Classes
 90
        0
 91
        1
280
     0
281
     0
  0
ENDSEC
  0
SECTION
  2
TABLES
  0
TABLE
  2
VPORT
  5
8
330
0
100
AcDbSymbolTable
 70
    16
  0
VPORT
  5
29
330
8
100
AcDbSymbolTableRecord
100
AcDbViewportTableRecord
  2
*Active
 70
     0
 10
0.0
 20
0.0
 11
1.0
 21
1.0
 12
215.8829509457959
 22
272.8991037264678
 13
0.0
 23
0.0
 14
0.5
 24
0.5
 15
0.5
 25
0.5
 16
0.0
 26
0.0
 36
1.0
 17
0.0
 27
0.0
 37
0.0
 40
206.2283046783524
 41
2.283154121863799
 42
50.0
 43
296.283597
 44
-296.283597
 50
0.0
 51
0.0
 71
     0
 72
   100
 73
     1
 74
     3
 75
     0
 76
     0
 77
     0
 78
     0
281
     0
 65
     1
110
203.144248
120
243.731161
130
0.0
111
1.0
121
0.0
131
0.0
112
0.0
122
1.0
132
0.0
 79
     0
146
0.0
1001
ACAD_NAV_VCDISPLAY
1070
     3
  0
VPORT
  5
26E
330
8
100
AcDbSymbolTableRecord
100
AcDbViewportTableRecord
  2
L1
 70
     0
 10
0.0
 20
0.0
 11
1.0
 21
1.0
 12
218.510139
 22
258.456787
 13
0.0
 23
0.0
 14
0.5
 24
0.5
 15
0.5
 25
0.5
 16
0.0
 26
0.0
 36
1.0
 17
0.0
 27
0.0
 37
0.0
 40
209.020833
 41
0.084952
 42
50.0
 43
296.283597
 44
-296.283597
 50
0.0
 51
0.0
 71
     0
 72
   100
 73
     1
 74
     3
 75
     0
 76
     0
 77
     0
 78
     0
281
     0
 65
     1
110
0.0
120
0.0
130
0.0
111
1.0
121
0.0
131
0.0
112
0.0
122
1.0
132
0.0
 79
     0
146
0.0
  0
VPORT
  5
26F
330
8
100
AcDbSymbolTableRecord
100
AcDbViewportTableRecord
  2
L2
 70
     0
 10
0.0
 20
0.0
 11
0.5
 21
1.0
 12
0.0
 22
0.0
 13
0.0
 23
0.0
 14
0.5
 24
0.5
 15
0.5
 25
0.5
 16
0.0
 26
-1.0
 36
0.0
 17
0.0
 27
0.0
 37
0.0
 40
1485.861838
 41
0.01195
 42
50.0
 43
769.0441269999999
 44
-769.0441269999999
 50
0.0
 51
0.0
 71
     0
 72
   100
 73
     1
 74
     3
 75
     0
 76
     0
 77
     0
 78
     0
281
     0
 65
     1
110
0.0
120
0.0
130
0.0
111
1.0
121
0.0
131
0.0
112
0.0
122
1.0
132
0.0
 79
     0
146
0.0
  0
VPORT
  5
270
330
8
100
AcDbSymbolTableRecord
100
AcDbViewportTableRecord
  2
L2
 70
     0
 10
0.5
 20
0.0
 11
1.0
 21
1.0
 12
0.0
 22
0.0
 13
0.0
 23
0.0
 14
0.5
 24
0.5
 15
0.5
 25
0.5
 16
1.0
 26
0.0
 36
0.0
 17
0.0
 27
0.0
 37
0.0
 40
1485.861838
 41
0.01195
 42
50.0
 43
750.245812
 44
-750.245812
 50
0.0
 51
0.0
 71
     0
 72
   100
 73
     1
 74
     3
 75
     0
 76
     0
 77
     0
 78
     0
281
     0
 65
     1
110
0.0
120
0.0
130
0.0
111
1.0
121
0.0
131
0.0
112
0.0
122
1.0
132
0.0
 79
     0
146
0.0
  0
VPORT
  5
271
330
8
100
AcDbSymbolTableRecord
100
AcDbViewportTableRecord
  2
L3
 70
     0
 10
0.0
 20
0.5
 11
1.0
 21
1.0
 12
218.510139
 22
258.456787
 13
0.0
 23
0.0
 14
0.5
 24
0.5
 15
0.5
 25
0.5
 16
0.0
 26
0.0
 36
1.0
 17
0.0
 27
0.0
 37
0.0
 40
209.020833
 41
0.084952
 42
50.0
 43
296.283597
 44
-296.283597
 50
0.0
 51
0.0
 71
     0
 72
   100
 73
     1
 74
     3
 75
     0
 76
     0
 77
     0
 78
     0
281
     0
 65
     1
110
0.0
120
0.0
130
0.0
111
1.0
121
0.0
131
0.0
112
0.0
122
1.0
132
0.0
 79
     0
146
0.0
  0
VPORT
  5
272
330
8
100
AcDbSymbolTableRecord
100
AcDbViewportTableRecord
  2
L3
 70
     0
 10
0.0
 20
0.0
 11
1.0
 21
0.5
 12
0.0
 22
0.0
 13
0.0
 23
0.0
 14
0.5
 24
0.5
 15
0.5
 25
0.5
 16
0.0
 26
-1.0
 36
0.0
 17
0.0
 27
0.0
 37
0.0
 40
1485.861838
 41
0.01195
 42
50.0
 43
769.0441269999999
 44
-769.0441269999999
 50
0.0
 51
0.0
 71
     0
 72
   100
 73
     1
 74
     3
 75
     0
 76
     0
 77
     0
 78
     0
281
     0
 65
     1
110
0.0
120
0.0
130
0.0
111
1.0
121
0.0
131
0.0
112
0.0
122
1.0
132
0.0
 79
     0
146
0.0
  0
VPORT
  5
273
330
8
100
AcDbSymbolTableRecord
100
AcDbViewportTableRecord
  2
L4
 70
     0
 10
0.0
 20
0.5
 11
0.5
 21
1.0
 12
218.510139
 22
258.456787
 13
0.0
 23
0.0
 14
0.5
 24
0.5
 15
0.5
 25
0.5
 16
0.0
 26
0.0
 36
1.0
 17
0.0
 27
0.0
 37
0.0
 40
209.020833
 41
0.084952
 42
50.0
 43
296.283597
 44
-296.283597
 50
0.0
 51
0.0
 71
     0
 72
   100
 73
     1
 74
     3
 75
     0
 76
     0
 77
     0
 78
     0
281
     0
 65
     1
110
0.0
120
0.0
130
0.0
111
1.0
121
0.0
131
0.0
112
0.0
122
1.0
132
0.0
 79
     0
146
0.0
  0
VPORT
  5
274
330
8
100
AcDbSymbolTableRecord
100
AcDbViewportTableRecord
  2
L4
 70
     0
 10
0.0
 20
0.0
 11
0.5
 21
0.5
 12
0.0
 22
0.0
 13
0.0
 23
0.0
 14
0.5
 24
0.5
 15
0.5
 25
0.5
 16
0.0
 26
-1.0
 36
0.0
 17
0.0
 27
0.0
 37
0.0
 40
1485.861838
 41
0.01195
 42
50.0
 43
769.0441269999999
 44
-769.0441269999999
 50
0.0
 51
0.0
 71
     0
 72
   100
 73
     1
 74
     3
 75
     0
 76
     0
 77
     0
 78
     0
281
     0
 65
     1
110
0.0
120
0.0
130
0.0
111
1.0
121
0.0
131
0.0
112
0.0
122
1.0
132
0.0
 79
     0
146
0.0
  0
VPORT
  5
275
330
8
100
AcDbSymbolTableRecord
100
AcDbViewportTableRecord
  2
L4
 70
     0
 10
0.5
 20
0.0
 11
1.0
 21
0.5
 12
0.0
 22
0.0
 13
0.0
 23
0.0
 14
0.5
 24
0.5
 15
0.5
 25
0.5
 16
1.0
 26
0.0
 36
0.0
 17
0.0
 27
0.0
 37
0.0
 40
1485.861838
 41
0.01195
 42
50.0
 43
750.245812
 44
-750.245812
 50
0.0
 51
0.0
 71
     0
 72
   100
 73
     1
 74
     3
 75
     0
 76
     0
 77
     0
 78
     0
281
     0
 65
     1
110
0.0
120
0.0
130
0.0
111
1.0
121
0.0
131
0.0
112
0.0
122
1.0
132
0.0
 79
     0
146
0.0
  0
VPORT
  5
276
330
8
100
AcDbSymbolTableRecord
100
AcDbViewportTableRecord
  2
L4
 70
     0
 10
0.5
 20
0.5
 11
1.0
 21
1.0
 12
0.0
 22
0.0
 13
0.0
 23
0.0
 14
0.5
 24
0.5
 15
0.5
 25
0.5
 16
0.5773502691896259
 26
-0.5773502691896259
 36
0.5773502691896259
 17
0.0
 27
0.0
 37
0.0
 40
1460.77308
 41
0.012156
 42
50.0
 43
761.2052339999999
 44
-761.2052339999999
 50
0.0
 51
0.0
 71
     0
 72
   100
 73
     1
 74
     3
 75
     0
 76
     0
 77
     0
 78
     0
281
     0
 65
     1
110
0.0
120
0.0
130
0.0
111
1.0
121
0.0
131
0.0
112
0.0
122
1.0
132
0.0
 79
     0
146
0.0
  0
VPORT
  5
277
330
8
100
AcDbSymbolTableRecord
100
AcDbViewportTableRecord
  2
L6
 70
     0
 10
0.0
 20
0.5
 11
0.333333
 21
1.0
 12
0.0
 22
0.0
 13
0.0
 23
0.0
 14
0.5
 24
0.5
 15
0.5
 25
0.5
 16
0.7188730927569434
 26
-0.5850486126764433
 36
0.3754192287502549
 17
0.0
 27
0.0
 37
0.0
 40
1542.425587
 41
0.011512
 42
50.0
 43
798.3761809999999
 44
-798.3761809999999
 50
0.0
 51
0.0
 71
     0
 72
   100
 73
     1
 74
     3
 75
     0
 76
     0
 77
     0
 78
     0
281
     0
 65
     1
110
0.0
120
0.0
130
0.0
111
1.0
121
0.0
131
0.0
112
0.0
122
1.0
132
0.0
 79
     0
146
0.0
  0
VPORT
  5
278
330
8
100
AcDbSymbolTableRecord
100
AcDbViewportTableRecord
  2
L6
 70
     0
 10
0.0
 20
0.0
 11
0.333333
 21
0.5
 12
0.0
 22
0.0
 13
0.0
 23
0.0
 14
0.5
 24
0.5
 15
0.5
 25
0.5
 16
-1.0
 26
0.0
 36
0.0
 17
0.0
 27
0.0
 37
0.0
 40
1485.861838
 41
0.01195
 42
50.0
 43
750.245812
 44
-750.245812
 50
0.0
 51
0.0
 71
     0
 72
   100
 73
     1
 74
     3
 75
     0
 76
     0
 77
     0
 78
     0
281
     0
 65
     1
110
0.0
120
0.0
130
0.0
111
1.0
121
0.0
131
0.0
112
0.0
122
1.0
132
0.0
 79
     0
146
0.0
  0
VPORT
  5
279
330
8
100
AcDbSymbolTableRecord
100
AcDbViewportTableRecord
  2
L6
 70
     0
 10
0.333333
 20
0.5
 11
0.666667
 21
1.0
 12
218.510139
 22
258.456787
 13
0.0
 23
0.0
 14
0.5
 24
0.5
 15
0.5
 25
0.5
 16
0.0
 26
0.0
 36
1.0
 17
0.0
 27
0.0
 37
0.0
 40
209.020833
 41
0.084952
 42
50.0
 43
296.283597
 44
-296.283597
 50
0.0
 51
0.0
 71
     0
 72
   100
 73
     1
 74
     3
 75
     0
 76
     0
 77
     0
 78
     0
281
     0
 65
     1
110
0.0
120
0.0
130
0.0
111
1.0
121
0.0
131
0.0
112
0.0
122
1.0
132
0.0
 79
     0
146
0.0
  0
VPORT
  5
27A
330
8
100
AcDbSymbolTableRecord
100
AcDbViewportTableRecord
  2
L6
 70
     0
 10
0.333333
 20
0.0
 11
0.666667
 21
0.5
 12
0.0
 22
0.0
 13
0.0
 23
0.0
 14
0.5
 24
0.5
 15
0.5
 25
0.5
 16
0.0
 26
-1.0
 36
0.0
 17
0.0
 27
0.0
 37
0.0
 40
1485.861838
 41
0.01195
 42
50.0
 43
769.0441269999999
 44
-769.0441269999999
 50
0.0
 51
0.0
 71
     0
 72
   100
 73
     1
 74
     3
 75
     0
 76
     0
 77
     0
 78
     0
281
     0
 65
     1
110
0.0
120
0.0
130
0.0
111
1.0
121
0.0
131
0.0
112
0.0
122
1.0
132
0.0
 79
     0
146
0.0
  0
VPORT
  5
27B
330
8
100
AcDbSymbolTableRecord
100
AcDbViewportTableRecord
  2
L6
 70
     0
 10
0.666667
 20
0.5
 11
1.0
 21
1.0
 12
0.0
 22
0.0
 13
0.0
 23
0.0
 14
0.5
 24
0.5
 15
0.5
 25
0.5
 16
0.5773502691896259
 26
-0.5773502691896259
 36
0.5773502691896259
 17
0.0
 27
0.0
 37
0.0
 40
1460.77308
 41
0.012156
 42
50.0
 43
761.2052339999999
 44
-761.2052339999999
 50
0.0
 51
0.0
 71
     0
 72
   100
 73
     1
 74
     3
 75
     0
 76
     0
 77
     0
 78
     0
281
     0
 65
     1
110
0.0
120
0.0
130
0.0
111
1.0
121
0.0
131
0.0
112
0.0
122
1.0
132
0.0
 79
     0
146
0.0
  0
VPORT
  5
27C
330
8
100
AcDbSymbolTableRecord
100
AcDbViewportTableRecord
  2
L6
 70
     0
 10
0.666667
 20
0.0
 11
1.0
 21
0.5
 12
0.0
 22
0.0
 13
0.0
 23
0.0
 14
0.5
 24
0.5
 15
0.5
 25
0.5
 16
1.0
 26
0.0
 36
0.0
 17
0.0
 27
0.0
 37
0.0
 40
1485.861838
 41
0.01195
 42
50.0
 43
750.245812
 44
-750.245812
 50
0.0
 51
0.0
 71
     0
 72
   100
 73
     1
 74
     3
 75
     0
 76
     0
 77
     0
 78
     0
281
     0
 65
     1
110
0.0
120
0.0
130
0.0
111
1.0
121
0.0
131
0.0
112
0.0
122
1.0
132
0.0
 79
     0
146
0.0
  0
ENDTAB
  0
TABLE
  2
LTYPE
  5
5
330
0
100
AcDbSymbolTable
 70
     7
  0
LTYPE
  5
14
330
5
100
AcDbSymbolTableRecord
100
AcDbLinetypeTableRecord
  2
ByBlock
 70
     0
  3

 72
    65
 73
     0
 40
0.0
  0
LTYPE
  5
15
330
5
100
AcDbSymbolTableRecord
100
AcDbLinetypeTableRecord
  2
ByLayer
 70
     0
  3

 72
    65
 73
     0
 40
0.0
  0
LTYPE
  5
16
330
5
100
AcDbSymbolTableRecord
100
AcDbLinetypeTableRecord
  2
Continuous
 70
     0
  3
Solid line
 72
    65
 73
     0
 40
0.0
  0
LTYPE
  5
6E
330
5
100
AcDbSymbolTableRecord
100
AcDbLinetypeTableRecord
  2
CENTER
 70
     0
  3
____ _ ____ _ ____ _ ____
 72
    65
 73
     4
 40
47.4
 49
22.0
 74
     4
 75
     0
340
0
 46
0.0
 50
0.0
 44
0.0
 45
0.0
 49
-8.5
 74
     4
 75
     0
340
0
 46
0.0
 50
0.0
 44
0.0
 45
0.0
 49
8.5
 74
     4
 75
     0
340
0
 46
0.0
 50
0.0
 44
0.0
 45
0.0
 49
-8.5
 74
     4
 75
     0
340
0
 46
0.0
 50
0.0
 44
0.0
 45
0.0
  0
LTYPE
  5
6F
330
5
100
AcDbSymbolTableRecord
100
AcDbLinetypeTableRecord
  2
DASHDOT
 70
     0
  3
_._._._._._._._._._._._._._._._.
 72
    65
 73
     4
 40
70.0
 49
31.0
 74
     4
 75
     0
340
0
 46
0.0
 50
0.0
 44
0.0
 45
0.0
 49
-13.0
 74
     4
 75
     0
340
0
 46
0.0
 50
0.0
 44
0.0
 45
0.0
 49
13.0
 74
     4
 75
     0
340
0
 46
0.0
 50
0.0
 44
0.0
 45
0.0
 49
-13.0
 74
     4
 75
     0
340
0
 46
0.0
 50
0.0
 44
0.0
 45
0.0
  0
LTYPE
  5
70
330
5
100
AcDbSymbolTableRecord
100
AcDbLinetypeTableRecord
  2
DASHED
 70
     0
  3
__ __ __ __ __ __ __ __ __
 72
    65
 73
     2
 40
25.72
 49
12.86
 74
     4
 75
     0
340
0
 46
0.0
 50
0.0
 44
0.0
 45
0.0
 49
-12.86
 74
     4
 75
     0
340
0
 46
0.0
 50
0.0
 44
0.0
 45
0.0
  0
LTYPE
  5
71
330
5
100
AcDbSymbolTableRecord
100
AcDbLinetypeTableRecord
  2
DOT
 70
     0
  3
.........................
 72
    65
 73
     2
 40
10.0
 49
0.0
 74
     4
 75
     0
340
0
 46
0.0
 50
0.0
 44
0.0
 45
0.0
 49
-10.0
 74
     4
 75
     0
340
0
 46
0.0
 50
0.0
 44
0.0
 45
0.0
  0
LTYPE
  5
72
330
5
100
AcDbSymbolTableRecord
100
AcDbLinetypeTableRecord
  2
PHANTOM
 70
     0
  3
____ _ _ ____ _ _ _____ _ _ ____
 72
    65
 73
     6
 40
50.5
 49
18.0
 74
     4
 75
     0
340
0
 46
0.0
 50
0.0
 44
0.0
 45
0.0
 49
-6.5
 74
     4
 75
     0
340
0
 46
0.0
 50
0.0
 44
0.0
 45
0.0
 49
6.5
 74
     4
 75
     0
340
0
 46
0.0
 50
0.0
 44
0.0
 45
0.0
 49
-6.5
 74
     4
 75
     0
340
0
 46
0.0
 50
0.0
 44
0.0
 45
0.0
 49
6.5
 74
     4
 75
     0
340
0
 46
0.0
 50
0.0
 44
0.0
 45
0.0
 49
-6.5
 74
     4
 75
     0
340
0
 46
0.0
 50
0.0
 44
0.0
 45
0.0
  0
LTYPE
  5
341
330
5
100
AcDbSymbolTableRecord
100
AcDbLinetypeTableRecord
  2
CENTER2
 70
     0
  3
Center (.5x) ___ _ ___ _ ___ _ ___ _ ___ _ ___
 72
    65
 73
     4
 40
1.125
 49
0.75
 74
     0
 49
-0.125
 74
     0
 49
0.125
 74
     0
 49
-0.125
 74
     0
  0
ENDTAB
  0
TABLE
  2
LAYER
  5
2
330
0
100
AcDbSymbolTable
 70
    21
  0
LAYER
  5
10
102
{ACAD_XDICTIONARY
360
34C
102
}
330
2
100
AcDbSymbolTableRecord
100
AcDbLayerTableRecord
  2
0
 70
     0
 62
     7
  6
Continuous
370
    -3
390
F
  0
LAYER
  5
1DF
330
2
100
AcDbSymbolTableRecord
100
AcDbLayerTableRecord
  2
Defpoints
 70
     0
 62
     7
  6
Continuous
290
     0
370
    -3
390
F
  0
LAYER
  5
33E
102
{ACAD_XDICTIONARY
360
34E
102
}
330
2
100
AcDbSymbolTableRecord
100
AcDbLayerTableRecord
  2
1
 70
     0
 62
     4
  6
Continuous
370
    -3
390
F
  0
LAYER
  5
33F
102
{ACAD_XDICTIONARY
360
350
102
}
330
2
100
AcDbSymbolTableRecord
100
AcDbLayerTableRecord
  2
2
 70
     0
 62
     7
  6
Continuous
370
    -3
390
F
  0
LAYER
  5
340
102
{ACAD_XDICTIONARY
360
352
102
}
330
2
100
AcDbSymbolTableRecord
100
AcDbLayerTableRecord
  2
4
 70
     0
 62
     2
  6
CENTER2
370
    -3
390
F
  0
LAYER
  5
342
102
{ACAD_XDICTIONARY
360
354
102
}
330
2
100
AcDbSymbolTableRecord
100
AcDbLayerTableRecord
  2
SK1
 70
     0
 62
     4
  6
Continuous
370
    -3
390
F
  0
LAYER
  5
343
102
{ACAD_XDICTIONARY
360
356
102
}
330
2
100
AcDbSymbolTableRecord
100
AcDbLayerTableRecord
  2
SK2
 70
     0
 62
     7
  6
Continuous
370
    -3
390
F
  0
LAYER
  5
345
102
{ACAD_XDICTIONARY
360
358
102
}
330
2
100
AcDbSymbolTableRecord
100
AcDbLayerTableRecord
  2
SK4
 70
     0
 62
     2
  6
CENTER2
370
    -3
390
F
  0
LAYER
  5
346
102
{ACAD_XDICTIONARY
360
35A
102
}
330
2
100
AcDbSymbolTableRecord
100
AcDbLayerTableRecord
  2
SK6
 70
     0
 62
     5
  6
Continuous
370
    -3
390
F
  0
LAYER
  5
347
102
{ACAD_XDICTIONARY
360
35C
102
}
330
2
100
AcDbSymbolTableRecord
100
AcDbLayerTableRecord
  2
CUT
 70
     0
 62
     1
  6
Continuous
370
    -3
390
F
  0
LAYER
  5
348
102
{ACAD_XDICTIONARY
360
35E
102
}
330
2
100
AcDbSymbolTableRecord
100
AcDbLayerTableRecord
  2
NOCUT
 70
     0
 62
     7
  6
Continuous
370
    -3
390
F
  0
LAYER
  5
349
102
{ACAD_XDICTIONARY
360
360
102
}
330
2
100
AcDbSymbolTableRecord
100
AcDbLayerTableRecord
  2
80
 70
     0
 62
     6
  6
Continuous
370
    -3
390
F
  0
LAYER
  5
34A
102
{ACAD_XDICTIONARY
360
362
102
}
330
2
100
AcDbSymbolTableRecord
100
AcDbLayerTableRecord
  2
81
 70
     0
 62
     3
  6
Continuous
370
    -3
390
F
  0
ENDTAB
  0
TABLE
  2
STYLE
  5
3
330
0
100
AcDbSymbolTable
 70
     3
  0
STYLE
  5
11
330
3
100
AcDbSymbolTableRecord
100
AcDbTextStyleTableRecord
  2
Standard
 70
     0
 40
0.0
 41
1.0
 50
0.0
 71
     0
 42
0.2
  3
txt
  4

  0
STYLE
  5
1D9
330
3
100
AcDbSymbolTableRecord
100
AcDbTextStyleTableRecord
  2
cesky
 70
     0
 40
0.0
 41
1.0
 50
0.0
 71
     0
 42
0.2
  3
simplex.shx
  4

  0
STYLE
  5
1DA
330
3
100
AcDbSymbolTableRecord
100
AcDbTextStyleTableRecord
  2
DWGDirectTextStyle
 70
     0
 40
0.0
 41
1.0
 50
0.0
 71
     0
 42
0.2
  3
simplex
  4

  0
ENDTAB
  0
TABLE
  2
VIEW
  5
6
330
0
100
AcDbSymbolTable
 70
     0
  0
ENDTAB
  0
TABLE
  2
UCS
  5
7
330
0
100
AcDbSymbolTable
 70
     0
  0
ENDTAB
  0
TABLE
  2
APPID
  5
9
330
0
100
AcDbSymbolTable
 70
     7
  0
APPID
  5
12
330
9
100
AcDbSymbolTableRecord
100
AcDbRegAppTableRecord
  2
ACAD
 70
     0
  0
APPID
  5
1DB
330
9
100
AcDbSymbolTableRecord
100
AcDbRegAppTableRecord
  2
ACAD_DSTYLE_DIMBREAK
 70
     0
  0
APPID
  5
27D
330
9
100
AcDbSymbolTableRecord
100
AcDbRegAppTableRecord
  2
ACAD_DSTYLE_DIM_LINETYPE
 70
     0
  0
APPID
  5
27E
330
9
100
AcDbSymbolTableRecord
100
AcDbRegAppTableRecord
  2
ACAD_DSTYLE_DIM_EXT1_LINETYPE
 70
     0
  0
APPID
  5
27F
330
9
100
AcDbSymbolTableRecord
100
AcDbRegAppTableRecord
  2
ACAD_DSTYLE_DIM_EXT2_LINETYPE
 70
     0
  0
APPID
  5
2BF
330
9
100
AcDbSymbolTableRecord
100
AcDbRegAppTableRecord
  2
ACAD_MLEADERVER
 70
     0
  0
APPID
  5
367
330
9
100
AcDbSymbolTableRecord
100
AcDbRegAppTableRecord
  2
ACAD_NAV_VCDISPLAY
 70
     0
  0
ENDTAB
  0
TABLE
  2
DIMSTYLE
  5
A
330
0
100
AcDbSymbolTable
 70
     1
100
AcDbDimStyleTable
 71
     0
  0
DIMSTYLE
105
27
330
A
100
AcDbSymbolTableRecord
100
AcDbDimStyleTableRecord
  2
Standard
 70
     0
340
11
1001
ACAD_DSTYLE_DIMBREAK
1070
   391
1040
6.349999999999999
  0
ENDTAB
  0
TABLE
  2
BLOCK_RECORD
  5
1
330
0
100
AcDbSymbolTable
 70
    13
  0
BLOCK_RECORD
  5
1F
102
{ACAD_XDICTIONARY
360
2CF
102
}
330
1
100
AcDbSymbolTableRecord
100
AcDbBlockTableRecord
  2
*Model_Space
340
22
  0
BLOCK_RECORD
  5
1B
330
1
100
AcDbSymbolTableRecord
100
AcDbBlockTableRecord
  2
*Paper_Space
340
1E
  0
BLOCK_RECORD
  5
23
330
1
100
AcDbSymbolTableRecord
100
AcDbBlockTableRecord
  2
*Paper_Space0
340
26
  0
BLOCK_RECORD
  5
1E0
330
1
100
AcDbSymbolTableRecord
100
AcDbBlockTableRecord
  2
*D1
340
0
  0
BLOCK_RECORD
  5
1EB
330
1
100
AcDbSymbolTableRecord
100
AcDbBlockTableRecord
  2
_U0
340
0
  0
BLOCK_RECORD
  5
1F6
330
1
100
AcDbSymbolTableRecord
100
AcDbBlockTableRecord
  2
*D3
340
0
  0
BLOCK_RECORD
  5
202
330
1
100
AcDbSymbolTableRecord
100
AcDbBlockTableRecord
  2
_U1
340
0
  0
BLOCK_RECORD
  5
20F
330
1
100
AcDbSymbolTableRecord
100
AcDbBlockTableRecord
  2
*D5
340
0
  0
BLOCK_RECORD
  5
21B
330
1
100
AcDbSymbolTableRecord
100
AcDbBlockTableRecord
  2
_U2
340
0
  0
BLOCK_RECORD
  5
227
330
1
100
AcDbSymbolTableRecord
100
AcDbBlockTableRecord
  2
*D7
340
0
  0
BLOCK_RECORD
  5
233
330
1
100
AcDbSymbolTableRecord
100
AcDbBlockTableRecord
  2
_U3
340
0
  0
BLOCK_RECORD
  5
23F
330
1
100
AcDbSymbolTableRecord
100
AcDbBlockTableRecord
  2
*D9
340
0
  0
BLOCK_RECORD
  5
24B
330
1
100
AcDbSymbolTableRecord
100
AcDbBlockTableRecord
  2
_U4
340
0
  0
BLOCK_RECORD
  5
257
330
1
100
AcDbSymbolTableRecord
100
AcDbBlockTableRecord
  2
*D11
340
0
  0
BLOCK_RECORD
  5
265
330
1
100
AcDbSymbolTableRecord
100
AcDbBlockTableRecord
  2
_U5
340
0
  0
ENDTAB
  0
ENDSEC
  0
SECTION
  2
BLOCKS
  0
BLOCK
  5
20
330
1F
100
AcDbEntity
  8
0
100
AcDbBlockBegin
  2
*Model_Space
 70
     0
 10
0.0
 20
0.0
 30
0.0
  3
*Model_Space
  1

  0
ENDBLK
  5
21
330
1F
100
AcDbEntity
  8
0
100
AcDbBlockEnd
  0
BLOCK
  5
1C
330
1B
100
AcDbEntity
 67
     1
  8
0
100
AcDbBlockBegin
  2
*Paper_Space
 70
     0
 10
0.0
 20
0.0
 30
0.0
  3
*Paper_Space
  1

  0
ENDBLK
  5
1D
330
1B
100
AcDbEntity
 67
     1
  8
0
100
AcDbBlockEnd
  0
BLOCK
  5
24
330
23
100
AcDbEntity
 67
     1
  8
0
100
AcDbBlockBegin
  2
*Paper_Space0
 70
     0
 10
0.0
 20
0.0
 30
0.0
  3
*Paper_Space0
  1

  0
ENDBLK
  5
25
330
23
100
AcDbEntity
 67
     1
  8
0
100
AcDbBlockEnd
  0
BLOCK
  5
1E1
330
1E0
100
AcDbEntity
  8
0
100
AcDbBlockBegin
  2
*D1
 70
     1
 10
0.0
 20
0.0
 30
0.0
  3
*D1
  1

  0
LINE
  5
1E3
330
1E0
100
AcDbEntity
  8
0
 62
   254
370
    -2
100
AcDbLine
 10
148.144248
 20
243.731161
 30
0.0
 11
305.240891
 21
243.731161
 31
0.0
  0
LINE
  5
1E4
330
1E0
100
AcDbEntity
  8
0
 62
   254
370
    -2
100
AcDbLine
 10
289.144248
 20
256.231161
 30
0.0
 11
305.240891
 21
256.231161
 31
0.0
  0
LINE
  5
1E5
330
1E0
100
AcDbEntity
  8
0
 62
   254
370
    -2
100
AcDbLine
 10
304.240891
 20
259.731161
 30
0.0
 11
304.240891
 21
263.231161
 31
0.0
  0
SOLID
  5
1E6
330
1E0
100
AcDbEntity
  8
0
 62
   254
100
AcDbTrace
 10
303.657558
 20
259.731161
 30
0.0
 11
304.824224
 21
259.731161
 31
0.0
 12
304.240891
 22
256.231161
 32
0.0
 13
304.240891
 23
256.231161
 33
0.0
  0
MTEXT
  5
1E7
330
1E0
100
AcDbEntity
  8
0
 62
   254
370
    13
100
AcDbMText
 10
298.990891
 20
230.397828
 30
0.0
 40
3.5
 41
0.0
 71
     5
 72
     1
  1
\A1;25
  7
cesky
 11
0.0
 21
1.0
 31
0.0
 73
     1
 44
1.0
  0
POINT
  5
1E8
330
1E0
100
AcDbEntity
  8
Defpoints
 62
     0
100
AcDbPoint
 10
148.144248
 20
243.731161
 30
0.0
  0
POINT
  5
1E9
330
1E0
100
AcDbEntity
  8
Defpoints
 62
     0
100
AcDbPoint
 10
289.144248
 20
256.231161
 30
0.0
  0
POINT
  5
1EA
330
1E0
100
AcDbEntity
  8
Defpoints
 62
     0
100
AcDbPoint
 10
304.240891
 20
256.231161
 30
0.0
  0
ENDBLK
  5
1E2
330
1E0
100
AcDbEntity
  8
0
100
AcDbBlockEnd
  0
BLOCK
  5
1F1
330
1EB
100
AcDbEntity
  8
0
100
AcDbBlockBegin
  2
_U0
 70
     0
 10
0.0
 20
0.0
 30
0.0
  3
_U0
  1

  0
ENDBLK
  5
1F2
330
1EB
100
AcDbEntity
  8
0
100
AcDbBlockEnd
  0
BLOCK
  5
1F7
330
1F6
100
AcDbEntity
  8
0
100
AcDbBlockBegin
  2
*D3
 70
     1
 10
0.0
 20
0.0
 30
0.0
  3
*D3
  1

  0
LINE
  5
1F9
330
1F6
100
AcDbEntity
  8
0
 62
    95
370
    -2
100
AcDbLine
 10
179.4985669999999
 20
256.231161
 30
0.0
 11
136.641876
 21
256.231161
 31
0.0
  0
LINE
  5
1FA
330
1F6
100
AcDbEntity
  8
0
 62
    95
370
    -2
100
AcDbLine
 10
181.161452
 20
231.231161
 30
0.0
 11
136.641876
 21
231.231161
 31
0.0
  0
LINE
  5
1FB
330
1F6
100
AcDbEntity
  8
0
 62
    95
370
    -2
100
AcDbLine
 10
137.641876
 20
252.731161
 30
0.0
 11
137.641876
 21
234.731161
 31
0.0
  0
SOLID
  5
1FC
330
1F6
100
AcDbEntity
  8
0
 62
    95
100
AcDbTrace
 10
138.225209
 20
252.731161
 30
0.0
 11
137.058542
 21
252.731161
 31
0.0
 12
137.641876
 22
256.231161
 32
0.0
 13
137.641876
 23
256.231161
 33
0.0
  0
SOLID
  5
1FD
330
1F6
100
AcDbEntity
  8
0
 62
    95
100
AcDbTrace
 10
137.058542
 20
234.731161
 30
0.0
 11
138.225209
 21
234.731161
 31
0.0
 12
137.641876
 22
231.231161
 32
0.0
 13
137.641876
 23
231.231161
 33
0.0
  0
MTEXT
  5
1FE
330
1F6
100
AcDbEntity
  8
0
 62
    95
370
    13
100
AcDbMText
 10
132.391876
 20
243.731161
 30
0.0
 40
3.5
 41
0.0
 71
     5
 72
     1
  1
\A1;25
  7
cesky
 11
0.0
 21
1.0
 31
0.0
 73
     1
 44
1.0
  0
POINT
  5
1FF
330
1F6
100
AcDbEntity
  8
Defpoints
 62
     0
100
AcDbPoint
 10
179.4985669999999
 20
256.231161
 30
0.0
  0
POINT
  5
200
330
1F6
100
AcDbEntity
  8
Defpoints
 62
     0
100
AcDbPoint
 10
181.161452
 20
231.231161
 30
0.0
  0
POINT
  5
201
330
1F6
100
AcDbEntity
  8
Defpoints
 62
     0
100
AcDbPoint
 10
137.641876
 20
231.231161
 30
0.0
  0
ENDBLK
  5
1F8
330
1F6
100
AcDbEntity
  8
0
100
AcDbBlockEnd
  0
BLOCK
  5
20A
330
202
100
AcDbEntity
  8
0
100
AcDbBlockBegin
  2
_U1
 70
     0
 10
0.0
 20
0.0
 30
0.0
  3
_U1
  1

  0
ENDBLK
  5
20B
330
202
100
AcDbEntity
  8
0
100
AcDbBlockEnd
  0
BLOCK
  5
210
330
20F
100
AcDbEntity
  8
0
100
AcDbBlockBegin
  2
*D5
 70
     1
 10
0.0
 20
0.0
 30
0.0
  3
*D5
  1

  0
LINE
  5
212
330
20F
100
AcDbEntity
  8
0
 62
   254
370
    -2
100
AcDbLine
 10
237.144248
 20
243.731161
 30
0.0
 11
237.144248
 21
277.644584
 31
0.0
  0
LINE
  5
213
330
20F
100
AcDbEntity
  8
0
 62
   254
370
    -2
100
AcDbLine
 10
287.144248
 20
258.231161
 30
0.0
 11
287.144248
 21
277.644584
 31
0.0
  0
LINE
  5
214
330
20F
100
AcDbEntity
  8
0
 62
   254
370
    -2
100
AcDbLine
 10
240.644248
 20
276.644584
 30
0.0
 11
283.644248
 21
276.644584
 31
0.0
  0
SOLID
  5
215
330
20F
100
AcDbEntity
  8
0
 62
   254
100
AcDbTrace
 10
240.644248
 20
277.227918
 30
0.0
 11
240.644248
 21
276.061251
 31
0.0
 12
237.144248
 22
276.644584
 32
0.0
 13
237.144248
 23
276.644584
 33
0.0
  0
SOLID
  5
216
330
20F
100
AcDbEntity
  8
0
 62
   254
100
AcDbTrace
 10
283.644248
 20
276.061251
 30
0.0
 11
283.644248
 21
277.227918
 31
0.0
 12
287.144248
 22
276.644584
 32
0.0
 13
287.144248
 23
276.644584
 33
0.0
  0
MTEXT
  5
217
330
20F
100
AcDbEntity
  8
0
 62
   254
370
    13
100
AcDbMText
 10
262.144248
 20
281.894584
 30
0.0
 40
3.5
 41
0.0
 71
     5
 72
     1
  1
\A1;50
  7
cesky
 73
     1
 44
1.0
  0
POINT
  5
218
330
20F
100
AcDbEntity
  8
Defpoints
 62
     0
100
AcDbPoint
 10
237.144248
 20
243.731161
 30
0.0
  0
POINT
  5
219
330
20F
100
AcDbEntity
  8
Defpoints
 62
     0
100
AcDbPoint
 10
287.144248
 20
258.231161
 30
0.0
  0
POINT
  5
21A
330
20F
100
AcDbEntity
  8
Defpoints
 62
     0
100
AcDbPoint
 10
287.144248
 20
276.644584
 30
0.0
  0
ENDBLK
  5
211
330
20F
100
AcDbEntity
  8
0
100
AcDbBlockEnd
  0
BLOCK
  5
222
330
21B
100
AcDbEntity
  8
0
100
AcDbBlockBegin
  2
_U2
 70
     0
 10
0.0
 20
0.0
 30
0.0
  3
_U2
  1

  0
ENDBLK
  5
223
330
21B
100
AcDbEntity
  8
0
100
AcDbBlockEnd
  0
BLOCK
  5
228
330
227
100
AcDbEntity
  8
0
100
AcDbBlockBegin
  2
*D7
 70
     1
 10
0.0
 20
0.0
 30
0.0
  3
*D7
  1

  0
LINE
  5
22A
330
227
100
AcDbEntity
  8
0
 62
    95
370
    -2
100
AcDbLine
 10
147.144248
 20
255.231161
 30
0.0
 11
147.144248
 21
300.185289
 31
0.0
  0
LINE
  5
22B
330
227
100
AcDbEntity
  8
0
 62
    95
370
    -2
100
AcDbLine
 10
287.144248
 20
256.231161
 30
0.0
 11
287.144248
 21
300.185289
 31
0.0
  0
LINE
  5
22C
330
227
100
AcDbEntity
  8
0
 62
    95
370
    -2
100
AcDbLine
 10
150.644248
 20
299.185289
 30
0.0
 11
283.644248
 21
299.185289
 31
0.0
  0
SOLID
  5
22D
330
227
100
AcDbEntity
  8
0
 62
    95
100
AcDbTrace
 10
150.644248
 20
299.768623
 30
0.0
 11
150.644248
 21
298.601956
 31
0.0
 12
147.144248
 22
299.185289
 32
0.0
 13
147.144248
 23
299.185289
 33
0.0
  0
SOLID
  5
22E
330
227
100
AcDbEntity
  8
0
 62
    95
100
AcDbTrace
 10
283.644248
 20
298.601956
 30
0.0
 11
283.644248
 21
299.768623
 31
0.0
 12
287.144248
 22
299.185289
 32
0.0
 13
287.144248
 23
299.185289
 33
0.0
  0
MTEXT
  5
22F
330
227
100
AcDbEntity
  8
0
 62
    95
370
    13
100
AcDbMText
 10
217.144248
 20
304.435289
 30
0.0
 40
3.5
 41
0.0
 71
     5
 72
     1
  1
\A1;140
  7
cesky
 73
     1
 44
1.0
  0
POINT
  5
230
330
227
100
AcDbEntity
  8
Defpoints
 62
     0
100
AcDbPoint
 10
147.144248
 20
255.231161
 30
0.0
  0
POINT
  5
231
330
227
100
AcDbEntity
  8
Defpoints
 62
     0
100
AcDbPoint
 10
287.144248
 20
256.231161
 30
0.0
  0
POINT
  5
232
330
227
100
AcDbEntity
  8
Defpoints
 62
     0
100
AcDbPoint
 10
287.144248
 20
299.185289
 30
0.0
  0
ENDBLK
  5
229
330
227
100
AcDbEntity
  8
0
100
AcDbBlockEnd
  0
BLOCK
  5
23A
330
233
100
AcDbEntity
  8
0
100
AcDbBlockBegin
  2
_U3
 70
     0
 10
0.0
 20
0.0
 30
0.0
  3
_U3
  1

  0
ENDBLK
  5
23B
330
233
100
AcDbEntity
  8
0
100
AcDbBlockEnd
  0
BLOCK
  5
240
330
23F
100
AcDbEntity
  8
0
100
AcDbBlockBegin
  2
*D9
 70
     1
 10
0.0
 20
0.0
 30
0.0
  3
*D9
  1

  0
LINE
  5
242
330
23F
100
AcDbEntity
  8
0
 62
    95
370
    -2
100
AcDbLine
 10
287.144248
 20
258.231161
 30
0.0
 11
287.144248
 21
286.792925
 31
0.0
  0
LINE
  5
243
330
23F
100
AcDbEntity
  8
0
 62
    95
370
    -2
100
AcDbLine
 10
203.144248
 20
242.731588
 30
0.0
 11
203.144248
 21
286.792925
 31
0.0
  0
LINE
  5
244
330
23F
100
AcDbEntity
  8
0
 62
    95
370
    -2
100
AcDbLine
 10
283.644248
 20
285.792925
 30
0.0
 11
206.644248
 21
285.792925
 31
0.0
  0
SOLID
  5
245
330
23F
100
AcDbEntity
  8
0
 62
    95
100
AcDbTrace
 10
283.644248
 20
285.209591
 30
0.0
 11
283.644248
 21
286.376258
 31
0.0
 12
287.144248
 22
285.792925
 32
0.0
 13
287.144248
 23
285.792925
 33
0.0
  0
SOLID
  5
246
330
23F
100
AcDbEntity
  8
0
 62
    95
100
AcDbTrace
 10
206.644248
 20
286.376258
 30
0.0
 11
206.644248
 21
285.209591
 31
0.0
 12
203.144248
 22
285.792925
 32
0.0
 13
203.144248
 23
285.792925
 33
0.0
  0
MTEXT
  5
247
330
23F
100
AcDbEntity
  8
0
 62
    95
370
    13
100
AcDbMText
 10
245.144248
 20
291.042925
 30
0.0
 40
3.5
 41
0.0
 71
     5
 72
     1
  1
\A1;84
  7
cesky
 73
     1
 44
1.0
  0
POINT
  5
248
330
23F
100
AcDbEntity
  8
Defpoints
 62
     0
100
AcDbPoint
 10
287.144248
 20
258.231161
 30
0.0
  0
POINT
  5
249
330
23F
100
AcDbEntity
  8
Defpoints
 62
     0
100
AcDbPoint
 10
203.144248
 20
242.731588
 30
0.0
  0
POINT
  5
24A
330
23F
100
AcDbEntity
  8
Defpoints
 62
     0
100
AcDbPoint
 10
203.144248
 20
285.792925
 30
0.0
  0
ENDBLK
  5
241
330
23F
100
AcDbEntity
  8
0
100
AcDbBlockEnd
  0
BLOCK
  5
252
330
24B
100
AcDbEntity
  8
0
100
AcDbBlockBegin
  2
_U4
 70
     0
 10
0.0
 20
0.0
 30
0.0
  3
_U4
  1

  0
ENDBLK
  5
253
330
24B
100
AcDbEntity
  8
0
100
AcDbBlockEnd
  0
BLOCK
  5
258
330
257
100
AcDbEntity
  8
0
100
AcDbBlockBegin
  2
*D11
 70
     1
 10
0.0
 20
0.0
 30
0.0
  3
*D11
  1

  0
LINE
  5
25A
330
257
100
AcDbEntity
  8
0
 62
   254
370
    -2
100
AcDbLine
 10
287.144248
 20
254.231161
 30
0.0
 11
287.144248
 21
261.208648
 31
0.0
  0
LINE
  5
25B
330
257
100
AcDbEntity
  8
0
 62
   254
370
    -2
100
AcDbLine
 10
286.129046
 20
255.94649
 30
0.0
 11
286.129046
 21
261.208648
 31
0.0
  0
LINE
  5
25C
330
257
100
AcDbEntity
  8
0
 62
   254
370
    -2
100
AcDbLine
 10
286.129046
 20
260.208648
 30
0.0
 11
271.295713
 21
260.208648
 31
0.0
  0
LINE
  5
25D
330
257
100
AcDbEntity
  8
0
 62
   254
370
    -2
100
AcDbLine
 10
290.644248
 20
260.208648
 30
0.0
 11
294.144248
 21
260.208648
 31
0.0
  0
LINE
  5
25E
330
257
100
AcDbEntity
  8
0
 62
   254
370
    -2
100
AcDbLine
 10
282.629046
 20
260.208648
 30
0.0
 11
279.129046
 21
260.208648
 31
0.0
  0
SOLID
  5
25F
330
257
100
AcDbEntity
  8
0
 62
   254
100
AcDbTrace
 10
290.644248
 20
260.791981
 30
0.0
 11
290.644248
 21
259.625315
 31
0.0
 12
287.144248
 22
260.208648
 32
0.0
 13
287.144248
 23
260.208648
 33
0.0
  0
SOLID
  5
260
330
257
100
AcDbEntity
  8
0
 62
   254
100
AcDbTrace
 10
282.629046
 20
259.625315
 30
0.0
 11
282.629046
 21
260.791981
 31
0.0
 12
286.129046
 22
260.208648
 32
0.0
 13
286.129046
 23
260.208648
 33
0.0
  0
MTEXT
  5
261
330
257
100
AcDbEntity
  8
0
 62
   254
370
    13
100
AcDbMText
 10
275.21238
 20
265.458648
 30
0.0
 40
3.5
 41
0.0
 71
     5
 72
     1
  1
\A1;1
  7
cesky
 73
     1
 44
1.0
  0
POINT
  5
262
330
257
100
AcDbEntity
  8
Defpoints
 62
     0
100
AcDbPoint
 10
287.144248
 20
254.231161
 30
0.0
  0
POINT
  5
263
330
257
100
AcDbEntity
  8
Defpoints
 62
     0
100
AcDbPoint
 10
286.129046
 20
255.94649
 30
0.0
  0
POINT
  5
264
330
257
100
AcDbEntity
  8
Defpoints
 62
     0
100
AcDbPoint
 10
286.129046
 20
260.208648
 30
0.0
  0
ENDBLK
  5
259
330
257
100
AcDbEntity
  8
0
100
AcDbBlockEnd
  0
BLOCK
  5
26C
330
265
100
AcDbEntity
  8
0
100
AcDbBlockBegin
  2
_U5
 70
     0
 10
0.0
 20
0.0
 30
0.0
  3
_U5
  1

  0
ENDBLK
  5
26D
330
265
100
AcDbEntity
  8
0
100
AcDbBlockEnd
  0
ENDSEC
  0
SECTION
  2
ENTITIES
  0
POINT
  5
73
102
{ACAD_REACTORS
330
34B
102
}
330
1F
100
AcDbEntity
  8
80
100
AcDbPoint
 10
203.144248
 20
243.731161
 30
0.0
  0
POINT
  5
75
330
1F
100
AcDbEntity
  8
SK6
 60
     1
100
AcDbPoint
 10
148.144248
 20
243.731161
 30
0.0
  0
POINT
  5
77
330
1F
100
AcDbEntity
  8
SK6
 60
     1
100
AcDbPoint
 10
237.144248
 20
243.731161
 30
0.0
  0
POINT
  5
78
330
1F
100
AcDbEntity
  8
SK6
 60
     1
100
AcDbPoint
 10
237.144248
 20
243.731161
 30
0.0
  0
POINT
  5
79
330
1F
100
AcDbEntity
  8
SK6
 60
     1
100
AcDbPoint
 10
148.144248
 20
243.731161
 30
0.0
  0
POINT
  5
7A
330
1F
100
AcDbEntity
  8
SK6
 60
     1
100
AcDbPoint
 10
237.144248
 20
243.731161
 30
0.0
  0
LINE
  5
7B
330
1F
100
AcDbEntity
  8
SK1
100
AcDbLine
 10
237.144248
 20
231.231161
 30
0.0
 11
237.144248
 21
256.231161
 31
0.0
  0
LINE
  5
7D
330
1F
100
AcDbEntity
  8
SK1
100
AcDbLine
 10
148.144248
 20
231.231161
 30
0.0
 11
148.144248
 21
256.231161
 31
0.0
  0
LINE
  5
7E
330
1F
100
AcDbEntity
  8
1
100
AcDbLine
 10
287.150294
 20
240.390193
 30
0.0
 11
287.094621
 21
240.025642
 31
0.0
  0
LINE
  5
80
330
1F
100
AcDbEntity
  8
1
100
AcDbLine
 10
286.615723
 20
237.960934
 30
0.0
 11
286.493347
 21
237.488527
 31
0.0
  0
LINE
  5
81
330
1F
100
AcDbEntity
  8
1
100
AcDbLine
 10
286.489094
 20
237.97989
 30
0.0
 11
286.549758
 21
237.981047
 31
0.0
  0
LINE
  5
82
330
1F
100
AcDbEntity
  8
1
100
AcDbLine
 10
286.481045
 20
236.210235
 30
0.0
 11
286.481045
 21
236.880237
 31
0.0
  0
LINE
  5
83
330
1F
100
AcDbEntity
  8
1
100
AcDbLine
 10
281.538435
 20
232.87889
 30
0.0
 11
278.999428
 21
232.87889
 31
0.0
  0
LINE
  5
84
330
1F
100
AcDbEntity
  8
1
100
AcDbLine
 10
280.262305
 20
239.747955
 30
0.0
 11
279.658157
 21
239.801931
 31
0.0
  0
LINE
  5
85
330
1F
100
AcDbEntity
  8
1
100
AcDbLine
 10
279.999451
 20
240.058088
 30
0.0
 11
279.851899
 21
239.790658
 31
0.0
  0
LINE
  5
86
330
1F
100
AcDbEntity
  8
1
100
AcDbLine
 10
281.0647410000001
 20
240.985446
 30
0.0
 11
281.397702
 21
241.818659
 31
0.0
  0
LINE
  5
87
330
1F
100
AcDbEntity
  8
1
100
AcDbLine
 10
281.209139
 20
241.681802
 30
0.0
 11
281.165875
 21
241.573539
 31
0.0
  0
LINE
  5
88
330
1F
100
AcDbEntity
  8
1
100
AcDbLine
 10
276.6969759999999
 20
251.108955
 30
0.0
 11
276.6969759999999
 21
240.065191
 31
0.0
  0
LINE
  5
89
330
1F
100
AcDbEntity
  8
1
100
AcDbLine
 10
281.538435
 20
241.827019
 30
0.0
 11
281.538435
 21
250.96119
 31
0.0
  0
LINE
  5
8A
330
1F
100
AcDbEntity
  8
1
100
AcDbLine
 10
286.481045
 20
242.606286
 30
0.0
 11
286.481045
 21
249.843977
 31
0.0
  0
LINE
  5
8B
330
1F
100
AcDbEntity
  8
1
100
AcDbLine
 10
279.658157
 20
239.801931
 30
0.0
 11
278.999428
 21
232.87889
 31
0.0
  0
LINE
  5
8C
330
1F
100
AcDbEntity
  8
1
100
AcDbLine
 10
287.142347
 20
239.673944
 30
0.0
 11
286.924185
 21
241.281742
 31
0.0
  0
LINE
  5
8D
330
1F
100
AcDbEntity
  8
1
100
AcDbLine
 10
280.377626
 20
240.008122
 30
0.0
 11
280.317137
 21
239.879136
 31
0.0
  0
LINE
  5
8E
330
1F
100
AcDbEntity
  8
1
100
AcDbLine
 10
283.632234
 20
253.323227
 30
0.0
 11
283.62691
 21
253.326917
 31
0.0
  0
LINE
  5
90
330
1F
100
AcDbEntity
  8
1
100
AcDbLine
 10
283.479917
 20
253.436845
 30
0.0
 11
283.626913
 21
253.326912
 31
0.0
  0
LINE
  5
91
330
1F
100
AcDbEntity
  8
1
100
AcDbLine
 10
282.898904
 20
252.3038
 30
0.0
 11
282.751792
 21
252.413818
 31
0.0
  0
LINE
  5
92
330
1F
100
AcDbEntity
  8
80
100
AcDbLine
 10
202.144675
 20
243.731161
 30
0.0
 11
204.143822
 21
243.731161
 31
0.0
  0
LINE
  5
93
330
1F
100
AcDbEntity
  8
SK1
100
AcDbLine
 10
148.144248
 20
231.231161
 30
0.0
 11
237.144248
 21
231.231161
 31
0.0
  0
LINE
  5
94
330
1F
100
AcDbEntity
  8
80
100
AcDbLine
 10
203.144248
 20
242.731588
 30
0.0
 11
203.144248
 21
244.730735
 31
0.0
  0
LINE
  5
95
330
1F
100
AcDbEntity
  8
81
100
AcDbLine
 10
285.144248
 20
256.231161
 30
0.0
 11
289.144248
 21
256.231161
 31
0.0
  0
LINE
  5
96
330
1F
100
AcDbEntity
  8
81
100
AcDbLine
 10
287.144248
 20
254.231161
 30
0.0
 11
287.144248
 21
258.231161
 31
0.0
  0
LINE
  5
97
330
1F
100
AcDbEntity
  8
1
100
AcDbLine
 10
287.150294
 20
239.55789
 30
0.0
 11
286.99178
 21
240.729957
 31
0.0
  0
LINE
  5
98
330
1F
100
AcDbEntity
  8
1
100
AcDbLine
 10
280.212814
 20
239.629563
 30
0.0
 11
280.374175
 21
239.973807
 31
0.0
  0
LINE
  5
99
330
1F
100
AcDbEntity
  8
1
100
AcDbLine
 10
280.141828
 20
239.232571
 30
0.0
 11
280.494283
 21
239.992712
 31
0.0
  0
LINE
  5
9A
330
1F
100
AcDbEntity
  8
1
100
AcDbLine
 10
284.430078
 20
252.757502
 30
0.0
 11
284.57719
 21
252.647483
 31
0.0
  0
LINE
  5
9B
330
1F
100
AcDbEntity
  8
1
100
AcDbLine
 10
283.848951
 20
251.624543
 30
0.0
 11
283.701954
 21
251.734475
 31
0.0
  0
LINE
  5
9C
330
1F
100
AcDbEntity
  8
1
100
AcDbLine
 10
287.108152
 20
239.925948
 30
0.0
 11
287.120505
 21
240.006127
 31
0.0
  0
LINE
  5
9D
330
1F
100
AcDbEntity
  8
1
100
AcDbLine
 10
286.493356
 20
249.793401
 30
0.0
 11
286.493356
 21
250.11767
 31
0.0
  0
LINE
  5
9E
330
1F
100
AcDbEntity
  8
1
100
AcDbLine
 10
285.556701
 20
232.392973
 30
0.0
 11
285.556701
 21
232.224968
 31
0.0
  0
LINE
  5
9F
330
1F
100
AcDbEntity
  8
1
100
AcDbLine
 10
282.147782
 20
232.6435299999999
 30
0.0
 11
285.556701
 21
232.224968
 31
0.0
  0
LINE
  5
A0
330
1F
100
AcDbEntity
  8
1
100
AcDbLine
 10
282.147782
 20
232.6435299999999
 30
0.0
 11
282.147782
 21
232.839003
 31
0.0
  0
LINE
  5
A1
330
1F
100
AcDbEntity
  8
1
100
AcDbLine
 10
281.538435
 20
232.6808
 30
0.0
 11
281.538435
 21
232.87889
 31
0.0
  0
LINE
  5
A2
330
1F
100
AcDbEntity
  8
1
100
AcDbLine
 10
276.6969759999999
 20
232.6808
 30
0.0
 11
281.538435
 21
232.6808
 31
0.0
  0
LINE
  5
A3
330
1F
100
AcDbEntity
  8
1
100
AcDbLine
 10
285.889568
 20
232.475801
 30
0.0
 11
285.889568
 21
232.659849
 31
0.0
  0
LINE
  5
A4
330
1F
100
AcDbEntity
  8
1
100
AcDbLine
 10
285.889568
 20
232.475801
 30
0.0
 11
286.481045
 21
236.210235
 31
0.0
  0
LINE
  5
A5
330
1F
100
AcDbEntity
  8
1
100
AcDbLine
 10
286.493356
 20
236.36667
 30
0.0
 11
286.493356
 21
237.077586
 31
0.0
  0
LINE
  5
A6
330
1F
100
AcDbEntity
  8
1
100
AcDbLine
 10
286.493356
 20
237.079147
 30
0.0
 11
286.493356
 21
237.948294
 31
0.0
  0
LINE
  5
A7
330
1F
100
AcDbEntity
  8
1
100
AcDbLine
 10
286.312508
 20
237.813691
 30
0.0
 11
286.312508
 21
237.946025
 31
0.0
  0
LINE
  5
A8
330
1F
100
AcDbEntity
  8
1
100
AcDbLine
 10
286.493356
 20
242.674185
 30
0.0
 11
286.493356
 21
249.793403
 31
0.0
  0
LINE
  5
A9
330
1F
100
AcDbEntity
  8
1
100
AcDbLine
 10
285.556701
 20
241.074147
 30
0.0
 11
285.556701
 21
246.60232
 31
0.0
  0
LINE
  5
AA
330
1F
100
AcDbEntity
  8
1
100
AcDbLine
 10
285.556701
 20
247.510679
 30
0.0
 11
285.556701
 21
251.096863
 31
0.0
  0
LINE
  5
AB
330
1F
100
AcDbEntity
  8
1
100
AcDbLine
 10
282.147782
 20
250.972327
 30
0.0
 11
282.147782
 21
241.725076
 31
0.0
  0
LINE
  5
AC
330
1F
100
AcDbEntity
  8
1
100
AcDbLine
 10
285.889568
 20
251.022348
 30
0.0
 11
285.889568
 21
241.131897
 31
0.0
  0
LINE
  5
AD
330
1F
100
AcDbEntity
  8
1
100
AcDbLine
 10
276.391591
 20
240.09071
 30
0.0
 11
276.391591
 21
251.152405
 31
0.0
  0
LINE
  5
AE
330
1F
100
AcDbEntity
  8
1
100
AcDbLine
 10
280.424706
 20
251.203729
 30
0.0
 11
279.896825
 21
254.590803
 31
0.0
  0
LINE
  5
AF
330
1F
100
AcDbEntity
  8
1
100
AcDbLine
 10
280.3502640000001
 20
250.961223
 30
0.0
 11
279.851899
 21
254.642173
 31
0.0
  0
LINE
  5
B0
330
1F
100
AcDbEntity
  8
1
100
AcDbLine
 10
280.593683
 20
251.232694
 30
0.0
 11
280.424706
 21
251.203729
 31
0.0
  0
LINE
  5
B1
330
1F
100
AcDbEntity
  8
1
100
AcDbLine
 10
281.538435
 20
250.96119
 30
0.0
 11
278.999428
 21
250.96119
 31
0.0
  0
LINE
  5
B2
330
1F
100
AcDbEntity
  8
1
100
AcDbLine
 10
276.6969759999999
 20
232.6808
 30
0.0
 11
276.6969759999999
 21
232.91773
 31
0.0
  0
LINE
  5
B3
330
1F
100
AcDbEntity
  8
1
100
AcDbLine
 10
276.391591
 20
232.92448
 30
0.0
 11
276.391591
 21
232.676135
 31
0.0
  0
LINE
  5
B4
330
1F
100
AcDbEntity
  8
SK1
100
AcDbLine
 10
147.144248
 20
232.231161
 30
0.0
 11
147.144248
 21
255.231161
 31
0.0
  0
LINE
  5
B5
330
1F
100
AcDbEntity
  8
1
100
AcDbLine
 10
238.09681
 20
231.506124
 30
0.0
 11
238.09681
 21
255.956199
 31
0.0
  0
LINE
  5
B6
330
1F
100
AcDbEntity
  8
1
100
AcDbLine
 10
284.735909
 20
253.914636
 30
0.0
 11
284.677021
 21
253.958675
 31
0.0
  0
LINE
  5
B7
330
1F
100
AcDbEntity
  8
1
100
AcDbLine
 10
282.58087
 20
251.155793
 30
0.0
 11
282.639758
 21
251.111753
 31
0.0
  0
LINE
  5
B8
330
1F
100
AcDbEntity
  8
1
100
AcDbLine
 10
286.615723
 20
242.652859
 30
0.0
 11
285.937739
 21
240.981417
 31
0.0
  0
LINE
  5
B9
330
1F
100
AcDbEntity
  8
1
100
AcDbLine
 10
286.493308
 20
242.691242
 30
0.0
 11
286.549758
 21
242.680362
 31
0.0
  0
LINE
  5
BA
330
1F
100
AcDbEntity
  8
1
100
AcDbLine
 10
281.544692
 20
241.812783
 30
0.0
 11
281.549702
 21
241.825136
 31
0.0
  0
LINE
  5
BB
330
1F
100
AcDbEntity
  8
1
100
AcDbLine
 10
285.891313
 20
240.960252
 30
0.0
 11
281.610657
 21
241.78528
 31
0.0
  0
LINE
  5
BC
330
1F
100
AcDbEntity
  8
1
100
AcDbLine
 10
285.13162
 20
237.766388
 30
0.0
 11
285.304471
 21
239.032233
 31
0.0
  0
LINE
  5
BD
330
1F
100
AcDbEntity
  8
1
100
AcDbLine
 10
284.142903
 20
237.921788
 30
0.0
 11
284.213847
 21
238.327239
 31
0.0
  0
LINE
  5
BE
330
1F
100
AcDbEntity
  8
1
100
AcDbLine
 10
287.079308
 20
239.160897
 30
0.0
 11
287.02933
 21
239.544654
 31
0.0
  0
LINE
  5
BF
330
1F
100
AcDbEntity
  8
1
100
AcDbLine
 10
283.485017
 20
253.433324
 30
0.0
 11
283.632234
 21
253.323227
 31
0.0
  0
LINE
  5
C0
330
1F
100
AcDbEntity
  8
1
100
AcDbLine
 10
282.637843
 20
252.867946
 30
0.0
 11
282.777662
 21
252.763382
 31
0.0
  0
LINE
  5
C1
330
1F
100
AcDbEntity
  8
1
100
AcDbLine
 10
282.73775
 20
252.902074
 30
0.0
 11
282.881832
 21
252.794321
 31
0.0
  0
LINE
  5
C2
330
1F
100
AcDbEntity
  8
1
100
AcDbLine
 10
282.597342
 20
252.480394
 30
0.0
 11
282.667481
 21
252.427941
 31
0.0
  0
LINE
  5
C3
330
1F
100
AcDbEntity
  8
1
100
AcDbLine
 10
283.015809
 20
253.290455
 30
0.0
 11
283.159891
 21
253.182702
 31
0.0
  0
LINE
  5
C4
330
1F
100
AcDbEntity
  8
1
100
AcDbLine
 10
282.805606
 20
252.90668
 30
0.0
 11
282.952823
 21
252.796583
 31
0.0
  0
LINE
  5
C5
330
1F
100
AcDbEntity
  8
1
100
AcDbLine
 10
283.033354
 20
253.224789
 30
0.0
 11
283.180571
 21
253.114692
 31
0.0
  0
LINE
  5
C6
330
1F
100
AcDbEntity
  8
1
100
AcDbLine
 10
283.015876
 20
253.395966
 30
0.0
 11
283.155694
 21
253.291401
 31
0.0
  0
LINE
  5
C7
330
1F
100
AcDbEntity
  8
1
100
AcDbLine
 10
282.753926
 20
252.412166
 30
0.0
 11
282.901143
 21
252.30207
 31
0.0
  0
LINE
  5
C8
330
1F
100
AcDbEntity
  8
1
100
AcDbLine
 10
283.369846
 20
253.559395
 30
0.0
 11
283.444684
 21
253.503427
 31
0.0
  0
LINE
  5
C9
330
1F
100
AcDbEntity
  8
1
100
AcDbLine
 10
282.9115240000001
 20
252.059016
 30
0.0
 11
283.058741
 21
251.948919
 31
0.0
  0
LINE
  5
CA
330
1F
100
AcDbEntity
  8
1
100
AcDbLine
 10
282.880713
 20
251.997747
 30
0.0
 11
283.024796
 21
251.889995
 31
0.0
  0
LINE
  5
CB
330
1F
100
AcDbEntity
  8
1
100
AcDbLine
 10
282.858933
 20
251.894211
 30
0.0
 11
282.998752
 21
251.789647
 31
0.0
  0
LINE
  5
CC
330
1F
100
AcDbEntity
  8
1
100
AcDbLine
 10
283.870363
 20
253.398282
 30
0.0
 11
284.01758
 21
253.288186
 31
0.0
  0
LINE
  5
CD
330
1F
100
AcDbEntity
  8
1
100
AcDbLine
 10
283.918442
 20
253.447204
 30
0.0
 11
284.062525
 21
253.339451
 31
0.0
  0
LINE
  5
CE
330
1F
100
AcDbEntity
  8
1
100
AcDbLine
 10
284.009469
 20
253.501231
 30
0.0
 11
284.149288
 21
253.396667
 31
0.0
  0
LINE
  5
CF
330
1F
100
AcDbEntity
  8
1
100
AcDbLine
 10
283.733898
 20
251.681333
 30
0.0
 11
283.827091
 21
251.611639
 31
0.0
  0
LINE
  5
D0
330
1F
100
AcDbEntity
  8
1
100
AcDbLine
 10
284.493569
 20
252.742409
 30
0.0
 11
284.592405
 21
252.668494
 31
0.0
  0
LINE
  5
D1
330
1F
100
AcDbEntity
  8
1
100
AcDbLine
 10
280.3019700000001
 20
254.810492
 30
0.0
 11
280.190442
 21
254.821307
 31
0.0
  0
LINE
  5
D2
330
1F
100
AcDbEntity
  8
1
100
AcDbLine
 10
280.254626
 20
254.132831
 30
0.0
 11
280.141828
 21
254.126573
 31
0.0
  0
LINE
  5
D3
330
1F
100
AcDbEntity
  8
1
100
AcDbLine
 10
280.324394
 20
253.15804
 30
0.0
 11
280.212814
 21
253.134751
 31
0.0
  0
LINE
  5
D4
330
1F
100
AcDbEntity
  8
1
100
AcDbLine
 10
280.472258
 20
255.026039
 30
0.0
 11
280.436277
 21
255.132484
 31
0.0
  0
LINE
  5
D5
330
1F
100
AcDbEntity
  8
1
100
AcDbLine
 10
284.153835
 20
256.027527
 30
0.0
 11
284.142903
 21
256.140876
 31
0.0
  0
LINE
  5
D6
330
1F
100
AcDbEntity
  8
1
100
AcDbLine
 10
285.125574
 20
256.111784
 30
0.0
 11
285.13162
 21
256.226605
 31
0.0
  0
LINE
  5
D7
330
1F
100
AcDbEntity
  8
1
100
AcDbLine
 10
285.799717
 20
256.074075
 30
0.0
 11
285.822741
 21
256.187864
 31
0.0
  0
LINE
  5
D8
330
1F
100
AcDbEntity
  8
1
100
AcDbLine
 10
286.011895
 20
255.906174
 30
0.0
 11
286.129046
 21
255.945481
 31
0.0
  0
LINE
  5
D9
330
1F
100
AcDbEntity
  8
1
100
AcDbLine
 10
286.955636
 20
252.222978
 30
0.0
 11
287.079308
 21
252.237224
 31
0.0
  0
LINE
  5
DA
330
1F
100
AcDbEntity
  8
1
100
AcDbLine
 10
287.150294
 20
251.245402
 30
0.0
 11
287.025404
 21
251.248187
 31
0.0
  0
LINE
  5
DB
330
1F
100
AcDbEntity
  8
1
100
AcDbLine
 10
286.97806
 20
250.570526
 30
0.0
 11
287.101674
 21
250.550672
 31
0.0
  0
LINE
  5
DC
330
1F
100
AcDbEntity
  8
1
100
AcDbLine
 10
286.807772
 20
250.354979
 30
0.0
 11
286.85584
 21
250.239495
 31
0.0
  0
LINE
  5
DD
330
1F
100
AcDbEntity
  8
1
100
AcDbLine
 10
267.435928
 20
255.059807
 30
0.0
 11
238.09681
 21
255.956199
 31
0.0
  0
LINE
  5
DE
330
1F
100
AcDbEntity
  8
1
100
AcDbLine
 10
238.09681
 20
231.506124
 30
0.0
 11
276.391591
 21
232.676135
 31
0.0
  0
LINE
  5
DF
330
1F
100
AcDbEntity
  8
SK1
100
AcDbLine
 10
147.144248
 20
232.231161
 30
0.0
 11
148.144248
 21
231.231161
 31
0.0
  0
LINE
  5
E0
330
1F
100
AcDbEntity
  8
SK1
100
AcDbLine
 10
148.144248
 20
256.231161
 30
0.0
 11
147.144248
 21
255.231161
 31
0.0
  0
LINE
  5
E1
330
1F
100
AcDbEntity
  8
SK1
100
AcDbLine
 10
237.144248
 20
256.231161
 30
0.0
 11
148.144248
 21
256.231161
 31
0.0
  0
LINE
  5
E2
330
1F
100
AcDbEntity
  8
NOCUT
100
AcDbLine
 10
258.876299
 20
243.731161
 30
0.0
 11
285.044248
 21
243.731161
 31
0.0
  0
LINE
  5
E4
330
1F
100
AcDbEntity
  8
NOCUT
100
AcDbLine
 10
258.876299
 20
243.731161
 30
0.0
 11
257.144248
 21
246.731161
 31
0.0
  0
LINE
  5
E5
330
1F
100
AcDbEntity
  8
NOCUT
100
AcDbLine
 10
149.144248
 20
246.731161
 30
0.0
 11
147.144248
 21
247.885862
 31
0.0
  0
LINE
  5
E6
330
1F
100
AcDbEntity
  8
NOCUT
100
AcDbLine
 10
147.144248
 20
247.885862
 30
0.0
 11
147.144248
 21
255.231161
 31
0.0
  0
LINE
  5
E7
330
1F
100
AcDbEntity
  8
NOCUT
100
AcDbLine
 10
147.144248
 20
255.231161
 30
0.0
 11
148.144248
 21
256.231161
 31
0.0
  0
LINE
  5
E8
330
1F
100
AcDbEntity
  8
NOCUT
100
AcDbLine
 10
238.09681
 20
255.956199
 30
0.0
 11
276.391591
 21
254.786187
 31
0.0
  0
LINE
  5
E9
330
1F
100
AcDbEntity
  8
NOCUT
100
AcDbLine
 10
282.147782
 20
254.818792
 30
0.0
 11
285.556701
 21
255.237355
 31
0.0
  0
LINE
  5
EA
330
1F
100
AcDbEntity
  8
NOCUT
100
AcDbLine
 10
285.889568
 20
254.986521
 30
0.0
 11
286.481045
 21
251.252087
 31
0.0
  0
LINE
  5
EB
330
1F
100
AcDbEntity
  8
NOCUT
100
AcDbLine
 10
286.312508
 20
250.522076
 30
0.0
 11
285.225096
 21
248.969091
 31
0.0
  0
LINE
  5
EC
330
1F
100
AcDbEntity
  8
NOCUT
100
AcDbLine
 10
148.144248
 20
256.231161
 30
0.0
 11
237.144248
 21
256.231161
 31
0.0
  0
LINE
  5
ED
330
1F
100
AcDbEntity
  8
NOCUT
100
AcDbLine
 10
257.144248
 20
246.731161
 30
0.0
 11
149.144248
 21
246.731161
 31
0.0
  0
LINE
  5
EE
330
1F
100
AcDbEntity
  8
NOCUT
100
AcDbLine
 10
276.6969759999999
 20
254.781523
 30
0.0
 11
281.538435
 21
254.781523
 31
0.0
  0
LINE
  5
EF
330
1F
100
AcDbEntity
  8
NOCUT
100
AcDbLine
 10
285.044248
 20
248.395514
 30
0.0
 11
285.044248
 21
243.731161
 31
0.0
  0
ARC
  5
F0
330
1F
100
AcDbEntity
  8
1
100
AcDbCircle
 10
285.593262
 20
232.522732
 30
0.0
 40
0.3
100
AcDbArc
 50
263.0
 51
351.0
  0
ARC
  5
F1
330
1F
100
AcDbEntity
  8
1
100
AcDbCircle
 10
281.538435
 20
227.6808
 30
0.0
 40
5.0
100
AcDbArc
 50
83.0
 51
90.0
  0
ARC
  5
F2
330
1F
100
AcDbEntity
  8
1
100
AcDbCircle
 10
276.6969759999999
 20
222.6808
 30
0.0
 40
10.0
100
AcDbArc
 50
90.0
 51
91.75
  0
ARC
  5
F3
330
1F
100
AcDbEntity
  8
1
100
AcDbCircle
 10
238.157887
 20
229.507057
 30
0.0
 40
2.000000000000002
100
AcDbArc
 50
91.75
 51
120.452209
  0
ARC
  5
F4
330
1F
100
AcDbEntity
  8
1
100
AcDbCircle
 10
238.157887
 20
257.955266
 30
0.0
 40
2.000000000000002
100
AcDbArc
 50
239.547791
 51
268.25
  0
ARC
  5
F5
330
1F
100
AcDbEntity
  8
1
100
AcDbCircle
 10
285.493356
 20
236.36667
 30
0.0
 40
1.0
100
AcDbArc
 50
351.0
 51
0.0
  0
ARC
  5
F6
330
1F
100
AcDbEntity
  8
NOCUT
100
AcDbCircle
 10
238.157887
 20
257.955266
 30
0.0
 40
2.000000000000002
100
AcDbArc
 50
239.547791
 51
268.25
  0
ARC
  5
F7
330
1F
100
AcDbEntity
  8
NOCUT
100
AcDbCircle
 10
281.538435
 20
259.781523
 30
0.0
 40
5.0
100
AcDbArc
 50
270.0
 51
277.0
  0
ARC
  5
F8
330
1F
100
AcDbEntity
  8
NOCUT
100
AcDbCircle
 10
285.593262
 20
254.939591
 30
0.0
 40
0.3
100
AcDbArc
 50
9.0
 51
97.0
  0
ARC
  5
F9
330
1F
100
AcDbEntity
  8
NOCUT
100
AcDbCircle
 10
285.493356
 20
251.095653
 30
0.0
 40
1.0
100
AcDbArc
 50
325.0
 51
9.0
  0
ARC
  5
FA
330
1F
100
AcDbEntity
  8
NOCUT
100
AcDbCircle
 10
286.044248
 20
248.395514
 30
0.0
 40
1.0
100
AcDbArc
 50
145.0
 51
180.0
  0
ARC
  5
FB
330
1F
100
AcDbEntity
  8
NOCUT
100
AcDbCircle
 10
276.6969759999999
 20
264.781523
 30
0.0
 40
10.0
100
AcDbArc
 50
268.25
 51
270.0
  0
ELLIPSE
  5
FC
330
1F
100
AcDbEntity
  8
1
100
AcDbEllipse
 10
283.640015
 20
252.690509
 30
0.0
 11
1.169297635852484
 21
1.563534193868085
 31
0.0
210
0.0
220
0.0
230
0.9999999999999998
 40
0.9849479999999999
 41
4.34608974131684
 42
6.283185307179585
  0
ELLIPSE
  5
FD
330
1F
100
AcDbEntity
  8
1
100
AcDbEllipse
 10
283.640015
 20
252.690509
 30
0.0
 11
1.169297635852484
 21
1.563534193868085
 31
0.0
210
0.0
220
0.0
230
0.9999999999999998
 40
0.9849479999999999
 41
0.0
 42
3.279616867197848
  0
ELLIPSE
  5
FE
330
1F
100
AcDbEntity
  8
1
100
AcDbEllipse
 10
280.8363
 20
216.468086
 30
0.0
 11
-6.252687745098103
 21
-23.24637198111578
 31
0.0
210
0.0
220
0.0
230
1.0
 40
0.001688
 41
2.695252341425852
 42
2.830644170123816
  0
ELLIPSE
  5
FF
330
1F
100
AcDbEntity
  8
1
100
AcDbEllipse
 10
285.750252
 20
211.891287
 30
0.0
 11
-2.425793684159554
 21
28.83275184021675
 31
0.0
210
0.0
220
0.0
230
1.0
 40
0.235268
 41
5.835275597519917
 42
5.837439400282106
  0
ELLIPSE
  5
100
330
1F
100
AcDbEntity
  8
1
100
AcDbEllipse
 10
266.1004660000001
 20
243.73116
 30
0.0
 11
-119.8505254555322
 21
10.713335880409
 31
0.0
210
0.0
220
0.0
230
0.9999999999999996
 40
0.022597
 41
1.661346082280544
 42
1.687807491499325
  0
ELLIPSE
  5
101
330
1F
100
AcDbEntity
  8
1
100
AcDbEllipse
 10
281.507851
 20
243.731171
 30
0.0
 11
-2.135008504720953
 21
-11.04891959526486
 31
0.0
210
0.0
220
0.0
230
1.0
 40
0.08407
 41
5.066172163678038
 42
5.093253609347521
  0
ELLIPSE
  5
102
330
1F
100
AcDbEntity
  8
1
100
AcDbEllipse
 10
286.320501
 20
243.73116
 30
0.0
 11
-79.05846604647013
 21
10.12694961562868
 31
0.0
210
0.0
220
0.0
230
1.0
 40
0.055935
 41
1.496621379079375
 42
1.504238669503499
  0
ELLIPSE
  5
103
330
1F
100
AcDbEntity
  8
1
100
AcDbEllipse
 10
281.896311
 20
243.731161
 30
0.0
 11
-6.114612310766518
 21
-11.04631253894489
 31
0.0
210
0.0
220
0.0
230
1.0
 40
0.048919
 41
1.252711742332182
 42
1.346764842228926
  0
ELLIPSE
  5
104
330
1F
100
AcDbEntity
  8
1
100
AcDbEllipse
 10
282.524632
 20
243.731161
 30
0.0
 11
-2.135004750414763
 21
-11.04890434741727
 31
0.0
210
0.0
220
0.0
230
1.0
 40
0.08407
 41
4.925148511065816
 42
4.979735914188318
  0
ELLIPSE
  5
105
330
1F
100
AcDbEntity
  8
1
100
AcDbEllipse
 10
279.658157
 20
236.096257
 30
0.0
 11
14.93255581247959
 21
-1.42083669265056
 31
0.0
210
0.0
220
0.0
230
1.0
 40
0.246001
 41
1.594199160909886
 42
1.825799483095261
  0
ELLIPSE
  5
106
330
1F
100
AcDbEntity
  8
1
100
AcDbEllipse
 10
279.658157
 20
236.096257
 30
0.0
 11
14.93255581247959
 21
-1.42083669265056
 31
0.0
210
0.0
220
0.0
230
1.0
 40
0.246001
 41
2.054537942958989
 42
2.562559153229212
  0
ELLIPSE
  5
107
330
1F
100
AcDbEntity
  8
1
100
AcDbEllipse
 10
294.398042
 20
263.717925
 30
0.0
 11
-14.0313889609075
 21
-23.81339409605539
 31
0.0
210
0.0
220
0.0
230
0.9999999999999998
 40
0.01532
 41
6.198944276362829
 42
6.215384837267737
  0
ELLIPSE
  5
108
330
1F
100
AcDbEntity
  8
1
100
AcDbEllipse
 10
285.770622
 20
249.110651
 30
0.0
 11
-5.39934176259917
 21
-9.163501461640244
 31
0.0
210
0.0
220
0.0
230
1.0
 40
0.01532
 41
6.21538483727059
 42
6.578599881706807
  0
ELLIPSE
  5
109
330
1F
100
AcDbEntity
  8
1
100
AcDbEllipse
 10
668.9682969999999
 20
196.716826
 30
0.0
 11
-419.1349118243858
 21
53.55700245107648
 31
0.0
210
0.0
220
0.0
230
0.9999999999999996
 40
0.026727
 41
0.3986743584941834
 42
0.4192890850868573
  0
ELLIPSE
  5
10A
330
1F
100
AcDbEntity
  8
1
100
AcDbEllipse
 10
220.198159
 20
247.832217
 30
0.0
 11
-138.5220135138811
 21
12.38166414711588
 31
0.0
210
0.0
220
0.0
230
1.0
 40
0.021321
 41
1.936112824641501
 42
1.990406715869391
  0
ELLIPSE
  5
10B
330
1F
100
AcDbEntity
  8
1
100
AcDbEllipse
 10
286.320525
 20
243.731126
 30
0.0
 11
-79.06047040370158
 21
-1.177827592866341
 31
0.0
210
0.0
220
0.0
230
1.0
 40
0.138975
 41
4.788233354139764
 42
4.79165851009182
  0
ELLIPSE
  5
10C
330
1F
100
AcDbEntity
  8
1
100
AcDbEllipse
 10
266.100462
 20
243.731161
 30
0.0
 11
-119.8504924270864
 21
-3.013448966020802
 31
0.0
210
0.0
220
0.0
230
0.9999999999999996
 40
0.088707
 41
4.595167369237504
 42
4.621628773959252
  0
ELLIPSE
  5
10D
330
1F
100
AcDbEntity
  8
1
100
AcDbEllipse
 10
281.507846
 20
243.731166
 30
0.0
 11
-1.921784678146577
 21
11.04799087837254
 31
0.0
210
0.0
220
0.0
230
0.9999999999999998
 40
0.118977
 41
6.076432714816896
 42
6.103514201125942
  0
ELLIPSE
  5
10E
330
1F
100
AcDbEntity
  8
1
100
AcDbEllipse
 10
280.2170680000001
 20
251.359012
 30
0.0
 11
-0.2534233923529275
 21
1.478437210100022
 31
0.0
210
0.0
220
0.0
230
1.0
 40
0.119892
 41
4.419440677880433
 42
4.586636994298316
  0
ELLIPSE
  5
10F
330
1F
100
AcDbEntity
  8
1
100
AcDbEllipse
 10
279.805056
 20
263.037722
 30
0.0
 11
-12.68371773298697
 21
-4.322418821668255
 31
0.0
210
0.0
220
0.0
230
1.0
 40
0.9586379999999998
 41
0.3652284586532816
 42
0.6155288401419368
  0
ELLIPSE
  5
110
330
1F
100
AcDbEntity
  8
1
100
AcDbEllipse
 10
220.198159
 20
242.586109
 30
0.0
 11
-138.52195882375
 21
-3.479880506373954
 31
0.0
210
0.0
220
0.0
230
1.0
 40
0.083695
 41
4.292581773040892
 42
4.346875664286098
  0
ELLIPSE
  5
111
330
1F
100
AcDbEntity
  8
1
100
AcDbEllipse
 10
284.646224
 20
250.103067
 30
0.0
 11
-2.326836348852743
 21
10.64964172872099
 31
0.0
210
0.0
220
0.0
230
0.9999999999999998
 40
0.057517
 41
3.260609977789016
 42
3.623825022236728
  0
ELLIPSE
  5
112
330
1F
100
AcDbEntity
  8
1
100
AcDbEllipse
 10
285.351261
 20
247.285659
 30
0.0
 11
-1.627426203522661
 21
7.448528131811834
 31
0.0
210
0.0
220
0.0
230
1.0
 40
0.057517
 41
3.623825021822096
 42
3.789817710728473
  0
ELLIPSE
  5
113
330
1F
100
AcDbEntity
  8
1
100
AcDbEllipse
 10
286.24186
 20
249.705792
 30
0.0
 11
-2.117981114961267
 21
-11.36850701621806
 31
0.0
210
0.0
220
0.0
230
1.0
 40
0.231102
 41
0.0337897085100407
 42
0.3970047529632483
  0
ELLIPSE
  5
114
330
1F
100
AcDbEntity
  8
1
100
AcDbEllipse
 10
285.960096
 20
246.49749
 30
0.0
 11
-1.481349541276703
 21
-7.951313889418027
 31
0.0
210
0.0
220
0.0
230
1.0
 40
0.231102
 41
0.3970047528943161
 42
0.5629959472141227
  0
ELLIPSE
  5
115
330
1F
100
AcDbEntity
  8
1
100
AcDbEllipse
 10
289.484091
 20
267.896938
 30
0.0
 11
-5.504044408537867
 21
-29.54359084420731
 31
0.0
210
0.0
220
0.0
230
1.0
 40
0.231102
 41
5.849120916115139
 42
6.316975015689576
  0
ELLIPSE
  5
116
330
1F
100
AcDbEntity
  8
1
100
AcDbEllipse
 10
280.8363
 20
266.983036
 30
0.0
 11
-6.046801128057762
 21
27.6754597075642
 31
0.0
210
0.0
220
0.0
230
1.0
 40
0.057517
 41
2.792758612324901
 42
3.260609977790548
  0
ELLIPSE
  5
117
330
1F
100
AcDbEntity
  8
1
100
AcDbEllipse
 10
283.687833
 20
252.513194
 30
0.0
 11
1.048075552891555
 21
1.401441270774862
 31
0.0
210
0.0
220
0.0
230
1.0
 40
0.9849479999999999
 41
4.357674389734752
 42
6.283176024596404
  0
ELLIPSE
  5
118
330
1F
100
AcDbEntity
  8
1
100
AcDbEllipse
 10
283.687833
 20
252.513194
 30
0.0
 11
1.048075552891555
 21
1.401441270774862
 31
0.0
210
0.0
220
0.0
230
1.0
 40
0.9849479999999999
 41
3.141681350057173
 42
3.269406554463129
  0
ELLIPSE
  5
119
330
1F
100
AcDbEntity
  8
1
100
AcDbEllipse
 10
283.6289450000001
 20
252.557234
 30
0.0
 11
-1.048075552891559
 21
-1.401441270774859
 31
0.0
210
0.0
220
0.0
230
1.0
 40
0.9849479999999999
 41
3.162690688398384
 42
6.283185307179585
  0
ELLIPSE
  5
11A
330
1F
100
AcDbEntity
  8
1
100
AcDbEllipse
 10
283.6289450000001
 20
252.557234
 30
0.0
 11
-1.048075552891559
 21
-1.401441270774859
 31
0.0
210
0.0
220
0.0
230
1.0
 40
0.9849479999999999
 41
0.0
 42
0.1751343633009259
  0
ELLIPSE
  5
11B
330
1F
100
AcDbEntity
  8
1
100
AcDbEllipse
 10
283.6289450000001
 20
252.557234
 30
0.0
 11
-1.048075552891559
 21
-1.401441270774859
 31
0.0
210
0.0
220
0.0
230
1.0
 40
0.9849479999999999
 41
1.156293321488548
 42
3.162691268555861
  0
ELLIPSE
  5
11C
330
1F
100
AcDbEntity
  8
1
100
AcDbEllipse
 10
283.840569
 20
253.476084
 30
0.0
 11
0.050441870526483
 21
0.0674486862477269
 31
0.0
210
0.0
220
0.0
230
0.9999999999999998
 40
0.9849479999999999
 41
4.156258478260286
 42
4.995286670437973
  0
ELLIPSE
  5
11D
330
1F
100
AcDbEntity
  8
1
100
AcDbEllipse
 10
283.996316
 20
253.418324
 30
0.0
 11
0.0504418705264831
 21
0.0674486862477269
 31
0.0
210
0.0
220
0.0
230
0.9999999999999996
 40
0.9849479999999999
 41
0.4910670490721553
 42
1.8536940168481
  0
ELLIPSE
  5
11E
330
1F
100
AcDbEntity
  8
1
100
AcDbEllipse
 10
283.942009
 20
253.076025
 30
0.0
 11
0.2587019613218363
 21
0.3459250665913936
 31
0.0
210
0.0
220
0.0
230
0.9999999999999998
 40
0.9849479999999999
 41
5.83431486261565
 42
6.774252356251755
  0
ELLIPSE
  5
11F
330
1F
100
AcDbEntity
  8
1
100
AcDbEllipse
 10
284.248664
 20
253.237901
 30
0.0
 11
0.050441870526483
 21
0.0674486862477268
 31
0.0
210
0.0
220
0.0
230
0.9999999999999998
 40
0.9849479999999999
 41
4.471687894839688
 42
5.834314862615655
  0
ELLIPSE
  5
120
330
1F
100
AcDbEntity
  8
1
100
AcDbEllipse
 10
284.3536509999999
 20
253.109243
 30
0.0
 11
0.050441870526483
 21
0.0674486862477268
 31
0.0
210
0.0
220
0.0
230
1.0
 40
0.9849479999999999
 41
1.330095241249894
 42
2.169123433427516
  0
ELLIPSE
  5
121
330
1F
100
AcDbEntity
  8
1
100
AcDbEllipse
 10
284.697592
 20
253.096607
 30
0.0
 11
0.2587019613218361
 21
0.3459250665913936
 31
0.0
210
0.0
220
0.0
230
0.9999999999999998
 40
0.9849479999999999
 41
2.169123433427554
 42
3.109060927063681
  0
ELLIPSE
  5
122
330
1F
100
AcDbEntity
  8
1
100
AcDbEllipse
 10
284.48052
 20
252.82495
 30
0.0
 11
0.050441870526483
 21
0.0674486862477269
 31
0.0
210
0.0
220
0.0
230
0.9999999999999998
 40
0.9849479999999999
 41
3.10906092706383
 42
3.948089119241358
  0
ELLIPSE
  5
123
330
1F
100
AcDbEntity
  8
1
100
AcDbEllipse
 10
284.506618
 20
252.659868
 30
0.0
 11
0.0504418705264831
 21
0.0674486862477269
 31
0.0
210
0.0
220
0.0
230
0.9999999999999996
 40
0.9849479999999999
 41
5.727054805055236
 42
7.089681772831152
  0
ELLIPSE
  5
124
330
1F
100
AcDbEntity
  8
1
100
AcDbEllipse
 10
284.184946
 20
252.531644
 30
0.0
 11
0.2587019613218363
 21
0.3459250665913936
 31
0.0
210
0.0
220
0.0
230
0.9999999999999998
 40
0.9849479999999999
 41
4.787117311419061
 42
5.727054805055147
  0
ELLIPSE
  5
125
330
1F
100
AcDbEntity
  8
1
100
AcDbEllipse
 10
284.474013
 20
252.347882
 30
0.0
 11
0.050441870526483
 21
0.0674486862477268
 31
0.0
210
0.0
220
0.0
230
0.9999999999999998
 40
0.9849479999999999
 41
3.4244903436431
 42
4.787117311419036
  0
ELLIPSE
  5
126
330
1F
100
AcDbEntity
  8
1
100
AcDbEllipse
 10
284.414228
 20
252.19061
 30
0.0
 11
0.050441870526483
 21
0.0674486862477268
 31
0.0
210
0.0
220
0.0
230
1.0
 40
0.9849479999999999
 41
0.2828976900533308
 42
1.121925882231018
  0
ELLIPSE
  5
127
330
1F
100
AcDbEntity
  8
1
100
AcDbEllipse
 10
284.570967
 20
251.88496
 30
0.0
 11
0.2587019613218361
 21
0.3459250665913936
 31
0.0
210
0.0
220
0.0
230
0.9999999999999998
 40
0.9849479999999999
 41
1.121925882230971
 42
2.061863375867055
  0
ELLIPSE
  5
128
330
1F
100
AcDbEntity
  8
1
100
AcDbEllipse
 10
284.230886
 20
251.934526
 30
0.0
 11
0.050441870526483
 21
0.0674486862477269
 31
0.0
210
0.0
220
0.0
230
0.9999999999999998
 40
0.9849479999999999
 41
2.061863375867071
 42
2.900891568044676
  0
ELLIPSE
  5
129
330
1F
100
AcDbEntity
  8
1
100
AcDbEllipse
 10
284.101238
 20
251.827204
 30
0.0
 11
0.0504418705264831
 21
0.0674486862477269
 31
0.0
210
0.0
220
0.0
230
0.9999999999999996
 40
0.9849479999999999
 41
4.679857253858566
 42
6.042484221634468
  0
ELLIPSE
  5
12A
330
1F
100
AcDbEntity
  8
1
100
AcDbEllipse
 10
283.833872
 20
252.041279
 30
0.0
 11
0.2587019613218363
 21
0.3459250665913936
 31
0.0
210
0.0
220
0.0
230
0.9999999999999998
 40
0.9849479999999999
 41
3.739919760222455
 42
4.679857253858558
  0
ELLIPSE
  5
12B
330
1F
100
AcDbEntity
  8
1
100
AcDbEllipse
 10
283.816285
 20
251.69564
 30
0.0
 11
0.050441870526483
 21
0.0674486862477268
 31
0.0
210
0.0
220
0.0
230
0.9999999999999998
 40
0.9849479999999999
 41
2.377292792446415
 42
3.739919760222533
  0
ELLIPSE
  5
12C
330
1F
100
AcDbEntity
  8
1
100
AcDbEllipse
 10
283.6515120000001
 20
251.667026
 30
0.0
 11
0.050441870526483
 21
0.0674486862477268
 31
0.0
210
0.0
220
0.0
230
1.0
 40
0.9849479999999999
 41
5.518885446036265
 42
6.357913638214002
  0
ELLIPSE
  5
12D
330
1F
100
AcDbEntity
  8
1
100
AcDbEllipse
 10
283.464311
 20
251.374013
 30
0.0
 11
0.2587019613218361
 21
0.3459250665913936
 31
0.0
210
0.0
220
0.0
230
0.9999999999999998
 40
0.9849479999999999
 41
0.0747283310343853
 42
1.014665824670478
  0
ELLIPSE
  5
12E
330
1F
100
AcDbEntity
  8
1
100
AcDbEllipse
 10
283.341301
 20
251.695235
 30
0.0
 11
0.050441870526483
 21
0.0674486862477269
 31
0.0
210
0.0
220
0.0
230
0.9999999999999998
 40
0.9849479999999999
 41
1.014665824670421
 42
1.853694016848169
  0
ELLIPSE
  5
12F
330
1F
100
AcDbEntity
  8
1
100
AcDbEllipse
 10
283.185555
 20
251.752995
 30
0.0
 11
0.0504418705264831
 21
0.0674486862477269
 31
0.0
210
0.0
220
0.0
230
0.9999999999999996
 40
0.9849479999999999
 41
3.632659702661948
 42
4.995286670437928
  0
ELLIPSE
  5
130
330
1F
100
AcDbEntity
  8
1
100
AcDbEllipse
 10
283.239862
 20
252.095295
 30
0.0
 11
0.2587019613218363
 21
0.3459250665913936
 31
0.0
210
0.0
220
0.0
230
0.9999999999999998
 40
0.9849479999999999
 41
2.692722209025872
 42
3.632659702661955
  0
ELLIPSE
  5
131
330
1F
100
AcDbEntity
  8
1
100
AcDbEllipse
 10
282.933207
 20
251.933418
 30
0.0
 11
0.050441870526483
 21
0.0674486862477268
 31
0.0
210
0.0
220
0.0
230
0.9999999999999998
 40
0.9849479999999999
 41
1.330095241249823
 42
2.692722209025899
  0
ELLIPSE
  5
132
330
1F
100
AcDbEntity
  8
1
100
AcDbEllipse
 10
282.828219
 20
252.062076
 30
0.0
 11
0.050441870526483
 21
0.0674486862477268
 31
0.0
210
0.0
220
0.0
230
1.0
 40
0.9849479999999999
 41
4.471687894839616
 42
5.310716087017358
  0
ELLIPSE
  5
133
330
1F
100
AcDbEntity
  8
1
100
AcDbEllipse
 10
282.484279
 20
252.074712
 30
0.0
 11
0.2587019613218361
 21
0.3459250665913936
 31
0.0
210
0.0
220
0.0
230
0.9999999999999998
 40
0.9849479999999999
 41
5.310716087017378
 42
6.250653580653474
  0
ELLIPSE
  5
134
330
1F
100
AcDbEntity
  8
1
100
AcDbEllipse
 10
282.70135
 20
252.346369
 30
0.0
 11
0.050441870526483
 21
0.0674486862477269
 31
0.0
210
0.0
220
0.0
230
0.9999999999999998
 40
0.9849479999999999
 41
6.25065358065362
 42
7.089681772831242
  0
ELLIPSE
  5
135
330
1F
100
AcDbEntity
  8
1
100
AcDbEllipse
 10
282.675253
 20
252.511451
 30
0.0
 11
0.0504418705264831
 21
0.0674486862477269
 31
0.0
210
0.0
220
0.0
230
0.9999999999999996
 40
0.9849479999999999
 41
2.585462151465324
 42
3.948089119241301
  0
ELLIPSE
  5
136
330
1F
100
AcDbEntity
  8
1
100
AcDbEllipse
 10
282.996925
 20
252.639676
 30
0.0
 11
0.2587019613218363
 21
0.3459250665913936
 31
0.0
210
0.0
220
0.0
230
0.9999999999999998
 40
0.9849479999999999
 41
1.645524657829266
 42
2.585462151465355
  0
ELLIPSE
  5
137
330
1F
100
AcDbEntity
  8
1
100
AcDbEllipse
 10
282.707857
 20
252.823438
 30
0.0
 11
0.050441870526483
 21
0.0674486862477268
 31
0.0
210
0.0
220
0.0
230
0.9999999999999998
 40
0.9849479999999999
 41
0.2828976900532897
 42
1.645524657829244
  0
ELLIPSE
  5
138
330
1F
100
AcDbEntity
  8
1
100
AcDbEllipse
 10
282.767643
 20
252.98071
 30
0.0
 11
0.050441870526483
 21
0.0674486862477268
 31
0.0
210
0.0
220
0.0
230
1.0
 40
0.9849479999999999
 41
3.424490343643081
 42
4.26351853582087
  0
ELLIPSE
  5
139
330
1F
100
AcDbEntity
  8
1
100
AcDbEllipse
 10
282.610903
 20
253.286359
 30
0.0
 11
0.2587019613218361
 21
0.3459250665913936
 31
0.0
210
0.0
220
0.0
230
0.9999999999999998
 40
0.9849479999999999
 41
4.263518535820786
 42
5.203456029456888
  0
ELLIPSE
  5
13A
330
1F
100
AcDbEntity
  8
1
100
AcDbEllipse
 10
282.950984
 20
253.236794
 30
0.0
 11
0.050441870526483
 21
0.0674486862477269
 31
0.0
210
0.0
220
0.0
230
0.9999999999999998
 40
0.9849479999999999
 41
5.203456029456769
 42
6.042484221634532
  0
ELLIPSE
  5
13B
330
1F
100
AcDbEntity
  8
1
100
AcDbEllipse
 10
283.0806330000001
 20
253.344115
 30
0.0
 11
0.0504418705264831
 21
0.0674486862477269
 31
0.0
210
0.0
220
0.0
230
0.9999999999999996
 40
0.9849479999999999
 41
1.538264600268773
 42
2.900891568044801
  0
ELLIPSE
  5
13C
330
1F
100
AcDbEntity
  8
1
100
AcDbEllipse
 10
283.347999
 20
253.130041
 30
0.0
 11
0.2587019613218363
 21
0.3459250665913936
 31
0.0
210
0.0
220
0.0
230
0.9999999999999998
 40
0.9849479999999999
 41
0.5983271066326711
 42
1.538264600268782
  0
ELLIPSE
  5
13D
330
1F
100
AcDbEntity
  8
1
100
AcDbEllipse
 10
283.365586
 20
253.475679
 30
0.0
 11
0.050441870526483
 21
0.0674486862477268
 31
0.0
210
0.0
220
0.0
230
0.9999999999999998
 40
0.9849479999999999
 41
5.518885446036293
 42
6.881512413812279
  0
ELLIPSE
  5
13E
330
1F
100
AcDbEntity
  8
1
100
AcDbEllipse
 10
283.530359
 20
253.504293
 30
0.0
 11
0.050441870526483
 21
0.0674486862477268
 31
0.0
210
0.0
220
0.0
230
1.0
 40
0.9849479999999999
 41
2.377292792446505
 42
3.216320984624075
  0
ELLIPSE
  5
13F
330
1F
100
AcDbEntity
  8
1
100
AcDbEllipse
 10
283.71756
 20
253.797307
 30
0.0
 11
0.2587019613218361
 21
0.3459250665913936
 31
0.0
210
0.0
220
0.0
230
0.9999999999999998
 40
0.9849479999999999
 41
3.21632098462418
 42
4.156258478260279
  0
ELLIPSE
  5
140
330
1F
100
AcDbEntity
  8
1
100
AcDbEllipse
 10
283.590935
 20
252.58566
 30
0.0
 11
-0.6887353633287388
 21
-0.9209471207949068
 31
0.0
210
0.0
220
0.0
230
0.9999999999999998
 40
0.9849479999999999
 41
0.0
 42
6.283185307179585
  0
ELLIPSE
  5
141
330
1F
100
AcDbEntity
  8
1
100
AcDbEllipse
 10
283.785724
 20
252.581539
 30
0.0
 11
-1.098269728626824
 21
-1.468558750267489
 31
0.0
210
0.0
220
0.0
230
1.0
 40
0.9849479999999999
 41
2.482536009440144
 42
4.519368025198952
  0
ELLIPSE
  5
142
330
1F
100
AcDbEntity
  8
1
100
AcDbEllipse
 10
283.765997
 20
252.596293
 30
0.0
 11
-1.140732149930879
 21
-1.525337662349115
 31
0.0
210
0.0
220
0.0
230
0.9999999999999996
 40
0.9849479999999999
 41
2.87818039230435
 42
3.430216883768039
  0
ELLIPSE
  5
143
330
1F
100
AcDbEntity
  8
1
100
AcDbEllipse
 10
283.765997
 20
252.596293
 30
0.0
 11
-1.140732149930879
 21
-1.525337662349115
 31
0.0
210
0.0
220
0.0
230
0.9999999999999996
 40
0.9849479999999999
 41
3.430217416141779
 42
6.031161524326693
  0
ELLIPSE
  5
144
330
1F
100
AcDbEntity
  8
1
100
AcDbEllipse
 10
283.765997
 20
252.596293
 30
0.0
 11
-1.140732149930879
 21
-1.525337662349115
 31
0.0
210
0.0
220
0.0
230
0.9999999999999996
 40
0.9849479999999999
 41
6.031161524326702
 42
6.283185307179585
  0
ELLIPSE
  5
145
330
1F
100
AcDbEntity
  8
1
100
AcDbEllipse
 10
283.765997
 20
252.596293
 30
0.0
 11
-1.140732149930879
 21
-1.525337662349115
 31
0.0
210
0.0
220
0.0
230
0.9999999999999996
 40
0.9849479999999999
 41
0.0
 42
0.0757818444046985
  0
SPLINE
  5
146
330
1F
100
AcDbEntity
  8
1
100
AcDbSpline
210
0.0
220
0.0
230
1.0
 70
     8
 71
     3
 72
    11
 73
     7
 74
     0
 42
0.000000001
 43
0.0000000001
 40
0.0
 40
0.0
 40
0.0
 40
0.0
 40
0.2499999999999969
 40
0.5
 40
0.7500000000000031
 40
1.0
 40
1.0
 40
1.0
 40
1.0
 10
280.4722583190679
 20
255.0260388577907
 30
0.0
 10
280.4474651544975
 20
255.0161738337643
 30
0.0
 10
280.4071445448585
 20
254.9937738429084
 30
0.0
 10
280.3549658105944
 20
254.9436746816187
 30
0.0
 10
280.3183083832458
 20
254.8813772896045
 30
0.0
 10
280.305849735984
 20
254.8369340215942
 30
0.0
 10
280.3019697495633
 20
254.8104915769234
 30
0.0
  0
SPLINE
  5
147
330
1F
100
AcDbEntity
  8
1
100
AcDbSpline
210
0.0
220
0.0
230
1.0
 70
    12
 71
     3
 72
     8
 73
     4
 74
     0
 42
0.000000001
 43
0.0000000001
 40
0.0
 40
0.0
 40
0.0
 40
0.0
 40
1.0
 40
1.0
 40
1.0
 40
1.0
 10
280.3019697495633
 20
254.8104915769234
 30
0.0
 41
1.0
 10
280.2702451500368
 20
254.5844219489274
 30
0.0
 41
0.9983588147778219
 10
280.254626437516
 20
254.3610840791941
 30
0.0
 41
0.9983588147778219
 10
280.254626437516
 20
254.1328311063386
 30
0.0
 41
1.0
  0
SPLINE
  5
148
330
1F
100
AcDbEntity
  8
1
100
AcDbSpline
210
0.0
220
0.0
230
1.0
 70
    12
 71
     3
 72
     8
 73
     4
 74
     0
 42
0.000000001
 43
0.0000000001
 40
0.0
 40
0.0
 40
0.0
 40
0.0
 40
1.0
 40
1.0
 40
1.0
 40
1.0
 10
280.254626437516
 20
254.1328311063386
 30
0.0
 41
1.0
 10
280.254626437516
 20
253.8045966079402
 30
0.0
 41
0.9982883558074163
 10
280.277699158224
 20
253.4822258604537
 30
0.0
 41
0.9982883558074162
 10
280.3243941788047
 20
253.1580401749049
 30
0.0
 41
1.0
  0
SPLINE
  5
149
330
1F
100
AcDbEntity
  8
1
100
AcDbSpline
210
0.0
220
0.0
230
1.0
 70
    12
 71
     3
 72
     8
 73
     4
 74
     0
 42
0.000000001
 43
0.0000000001
 40
0.0
 40
0.0
 40
0.0
 40
0.0
 40
1.0
 40
1.0
 40
1.0
 40
1.0
 10
280.3243941788047
 20
253.1580401749049
 30
0.0
 41
1.0
 10
280.4315402720113
 20
252.4141657906954
 30
0.0
 41
0.9977269091002572
 10
280.5849586362189
 20
251.6813077361334
 30
0.0
 41
0.9967938762772606
 10
280.784844796123
 20
250.9597462253689
 30
0.0
 41
0.9972009015310103
  0
SPLINE
  5
14A
330
1F
100
AcDbEntity
  8
1
100
AcDbSpline
210
0.0
220
0.0
230
1.0
 70
    12
 71
     3
 72
     8
 73
     4
 74
     0
 42
0.000000001
 43
0.0000000001
 40
0.0
 40
0.0
 40
0.0
 40
0.0
 40
1.0
 40
1.0
 40
1.0
 40
1.0
 10
286.3210841994224
 20
250.172774845551
 30
0.0
 41
0.9986425098760467
 10
286.4840970431654
 20
250.2311275797379
 30
0.0
 41
0.9990239033861447
 10
286.6463263919648
 20
250.2918647444818
 30
0.0
 41
0.9994764000941291
 10
286.8077716588986
 20
250.3549790017942
 30
0.0
 41
1.0
  0
SPLINE
  5
14B
330
1F
100
AcDbEntity
  8
1
100
AcDbSpline
210
0.0
220
0.0
230
1.0
 70
     8
 71
     3
 72
     8
 73
     4
 74
     0
 42
0.000000001
 43
0.0000000001
 40
0.0
 40
0.0
 40
0.0
 40
0.0
 40
1.0
 40
1.0
 40
1.0
 40
1.0
 10
287.1502942095997
 20
240.3901925646206
 30
0.0
 10
287.1502942095997
 20
240.263109611252
 30
0.0
 10
287.1403477752513
 20
240.1349493504168
 30
0.0
 10
287.1205135616457
 20
240.0062032792455
 30
0.0
  0
SPLINE
  5
14C
330
1F
100
AcDbEntity
  8
1
100
AcDbSpline
210
0.0
220
0.0
230
1.0
 70
     8
 71
     3
 72
    10
 73
     6
 74
     0
 42
0.000000001
 43
0.0000000001
 40
0.0
 40
0.0
 40
0.0
 40
0.0
 40
0.5
 40
0.5
 40
1.0
 40
1.0
 40
1.0
 40
1.0
 10
287.1027485678151
 20
240.7906308110062
 30
0.0
 10
287.1185748291438
 20
240.7252045578601
 30
0.0
 10
287.1304562251996
 20
240.659084205598
 30
0.0
 10
287.1463238274707
 20
240.5254657872738
 30
0.0
 10
287.1502942095997
 20
240.4580627723076
 30
0.0
 10
287.1502942095997
 20
240.3901925646206
 30
0.0
  0
SPLINE
  5
14D
330
1F
100
AcDbEntity
  8
1
100
AcDbSpline
210
0.0
220
0.0
230
1.0
 70
     8
 71
     3
 72
    10
 73
     6
 74
     0
 42
0.000000001
 43
0.0000000001
 40
0.0
 40
0.0
 40
0.0
 40
0.0
 40
0.4438253659081698
 40
0.8826086502557132
 40
1.0
 40
1.0
 40
1.0
 40
1.0
 10
287.1027485679471
 20
240.790630812254
 30
0.0
 10
287.0955569687797
 20
240.7228992413453
 30
0.0
 10
287.0812554706638
 20
240.5882055645721
 30
0.0
 10
287.0647970836421
 20
240.4356031400613
 30
0.0
 10
287.0555748870192
 20
240.3507315844581
 30
0.0
 10
287.0536252079204
 20
240.3328179075617
 30
0.0
  0
SPLINE
  5
14E
330
1F
100
AcDbEntity
  8
1
100
AcDbSpline
210
0.0
220
0.0
230
1.0
 70
     8
 71
     3
 72
     8
 73
     4
 74
     0
 42
0.000000001
 43
0.0000000001
 40
0.0
 40
0.0
 40
0.0
 40
0.0
 40
1.0
 40
1.0
 40
1.0
 40
1.0
 10
287.1016741405857
 20
240.7948936139405
 30
0.0
 10
287.1020621959655
 20
240.7934704773554
 30
0.0
 10
287.1024281789537
 20
240.7920486408134
 30
0.0
 10
287.102771939033
 20
240.7906284612597
 30
0.0
  0
SPLINE
  5
14F
330
1F
100
AcDbEntity
  8
1
100
AcDbSpline
210
0.0
220
0.0
230
1.0
 70
     8
 71
     3
 72
    17
 73
    13
 74
     0
 42
0.000000001
 43
0.0000000001
 40
0.0
 40
0.0
 40
0.0
 40
0.0
 40
0.0542860662961168
 40
0.0542860662961168
 40
0.2434288530369047
 40
0.4325716397776925
 40
0.4325716397776925
 40
0.527143033148083
 40
0.527143033148083
 40
0.6217144265184736
 40
0.6217144265184736
 40
1.0
 40
1.0
 40
1.0
 40
1.0
 10
286.9740416398494
 20
240.9195638927005
 30
0.0
 10
286.9777372157998
 20
240.9180424407896
 30
0.0
 10
286.9813674853842
 20
240.9164738581076
 30
0.0
 10
286.9973082781838
 20
240.9092443849331
 30
0.0
 10
287.0203506480443
 20
240.8969439222582
 30
0.0
 10
287.0399966937857
 20
240.8824937964918
 30
0.0
 10
287.0534205674884
 20
240.870847345233
 30
0.0
 10
287.0576791776685
 20
240.866823520148
 30
0.0
 10
287.0656278615575
 20
240.8586291059345
 30
0.0
 10
287.0693357067448
 20
240.8544442511841
 30
0.0
 10
287.0865716086581
 20
240.8330940696108
 30
0.0
 10
287.0962553526888
 20
240.8146696215493
 30
0.0
 10
287.1016741405857
 20
240.7948936139405
 30
0.0
  0
SPLINE
  5
150
330
1F
100
AcDbEntity
  8
1
100
AcDbSpline
210
0.0
220
0.0
230
1.0
 70
     8
 71
     3
 72
     8
 73
     4
 74
     0
 42
0.000000001
 43
0.0000000001
 40
0.0
 40
0.0
 40
0.0
 40
0.0
 40
1.0
 40
1.0
 40
1.0
 40
1.0
 10
286.5015354727496
 20
238.1270067142543
 30
0.0
 10
286.5039662707803
 20
238.144921192882
 30
0.0
 10
286.5063970688109
 20
238.1628356715097
 30
0.0
 10
286.5088256614669
 20
238.1807505217159
 30
0.0
  0
SPLINE
  5
151
330
1F
100
AcDbEntity
  8
1
100
AcDbSpline
210
0.0
220
0.0
230
1.0
 70
     8
 71
     3
 72
    12
 73
     8
 74
     0
 42
0.000000001
 43
0.0000000001
 40
0.0
 40
0.0
 40
0.0
 40
0.0
 40
0.0267933239103767
 40
0.0267933239103767
 40
0.5133966619551885
 40
0.5133966619551885
 40
1.0
 40
1.0
 40
1.0
 40
1.0
 10
286.7735922080149
 20
238.5489399594687
 30
0.0
 10
286.7722184108582
 20
238.5438284471521
 30
0.0
 10
286.7708432849749
 20
238.5387117889757
 30
0.0
 10
286.7444696454425
 20
238.4405753298199
 30
0.0
 10
286.7190586795871
 20
238.345958193808
 30
0.0
 10
286.6677277353728
 20
238.1547526303397
 30
0.0
 10
286.6418006792164
 20
238.058136889277
 30
0.0
 10
286.6157181288375
 20
237.9609143720487
 30
0.0
  0
SPLINE
  5
152
330
1F
100
AcDbEntity
  8
1
100
AcDbSpline
210
0.0
220
0.0
230
1.0
 70
     8
 71
     3
 72
    12
 73
     8
 74
     0
 42
0.000000001
 43
0.0000000001
 40
0.0
 40
0.0
 40
0.0
 40
0.0
 40
0.5000000000000265
 40
0.5000000000000265
 40
0.7500000000000133
 40
0.7500000000000133
 40
1.0
 40
1.0
 40
1.0
 40
1.0
 10
286.5497728443847
 20
237.9810221729664
 30
0.0
 10
286.544766364878
 20
238.0061036611852
 30
0.0
 10
286.5389232539335
 20
238.0309793979589
 30
0.0
 10
286.5277041744406
 20
238.0676893931972
 30
0.0
 10
286.5235500268751
 20
238.079824132162
 30
0.0
 10
286.5138777718059
 20
238.103758173583
 30
0.0
 10
286.5084054091678
 20
238.1155687260017
 30
0.0
 10
286.5015451147278
 20
238.1270379465495
 30
0.0
  0
SPLINE
  5
153
330
1F
100
AcDbEntity
  8
1
100
AcDbSpline
210
0.0
220
0.0
230
1.0
 70
     8
 71
     2
 72
     7
 73
     4
 74
     0
 42
0.000000001
 43
0.0000000001
 40
0.0
 40
0.0
 40
0.0
 40
0.376016849189758
 40
1.0
 40
1.0
 40
1.0
 10
286.6157136463814
 20
237.9609376314955
 30
0.0
 10
286.6040920688491
 20
237.9656024551439
 30
0.0
 10
286.5717102593022
 20
237.9762621931714
 30
0.0
 10
286.5497649053085
 20
237.9810456405606
 30
0.0
  0
SPLINE
  5
154
330
1F
100
AcDbEntity
  8
1
100
AcDbSpline
210
0.0
220
0.0
230
1.0
 70
     8
 71
     3
 72
    16
 73
    12
 74
     0
 42
0.000000001
 43
0.0000000001
 40
0.0
 40
0.0
 40
0.0
 40
0.0
 40
0.0869649853130093
 40
0.0869649853130093
 40
0.269571988250408
 40
0.269571988250408
 40
0.6347859941252009
 40
0.6347859941252009
 40
0.8173929970626005
 40
0.8173929970626005
 40
1.0
 40
1.0
 40
1.0
 40
1.0
 10
286.4638803152573
 20
238.1217548750272
 30
0.0
 10
286.4650269102578
 20
238.117511326073
 30
0.0
 10
286.4661467617882
 20
238.1133030939454
 30
0.0
 10
286.4695170856407
 20
238.1004227987169
 30
0.0
 10
286.4716534467888
 20
238.0919467536183
 30
0.0
 10
286.4776202947811
 20
238.0672488885809
 30
0.0
 10
286.4810088961059
 20
238.0517494370987
 30
0.0
 10
286.4851949657756
 20
238.0300270456214
 30
0.0
 10
286.4864409303603
 20
238.0230337396909
 30
0.0
 10
286.4885891925024
 20
238.0098837744888
 30
0.0
 10
286.4894999834649
 20
238.0036856685149
 30
0.0
 10
286.4902601445811
 20
237.9978637398677
 30
0.0
  0
SPLINE
  5
155
330
1F
100
AcDbEntity
  8
1
100
AcDbSpline
210
0.0
220
0.0
230
1.0
 70
     8
 71
     3
 72
     8
 73
     4
 74
     0
 42
0.000000001
 43
0.0000000001
 40
0.0
 40
0.0
 40
0.0
 40
0.0
 40
1.0
 40
1.0
 40
1.0
 40
1.0
 10
282.1477819012656
 20
232.8390029783936
 30
0.0
 10
281.9455910352916
 20
232.8655630313692
 30
0.0
 10
281.7424776576682
 20
232.8788902804796
 30
0.0
 10
281.5384351842399
 20
232.8788902804796
 30
0.0
  0
SPLINE
  5
156
330
1F
100
AcDbEntity
  8
1
100
AcDbSpline
210
0.0
220
0.0
230
1.0
 70
     8
 71
     3
 72
     8
 73
     4
 74
     0
 42
0.000000001
 43
0.0000000001
 40
0.0
 40
0.0
 40
0.0
 40
0.0
 40
1.0
 40
1.0
 40
1.0
 40
1.0
 10
285.5567010818569
 20
232.3929725639967
 30
0.0
 10
284.4203175076178
 20
232.5410954118953
 30
0.0
 10
283.2840075877168
 20
232.6897469065181
 30
0.0
 10
282.1477819012656
 20
232.8390029783935
 30
0.0
  0
SPLINE
  5
157
330
1F
100
AcDbEntity
  8
1
100
AcDbSpline
210
0.0
220
0.0
230
1.0
 70
     8
 71
     3
 72
    29
 73
    25
 74
     0
 42
0.000000001
 43
0.0000000001
 40
0.0
 40
0.0
 40
0.0
 40
0.0
 40
0.0624999999999833
 40
0.0624999999999833
 40
0.1249999999999666
 40
0.18749999999995
 40
0.18749999999995
 40
0.2499999999999333
 40
0.2499999999999333
 40
0.374999999999941
 40
0.374999999999941
 40
0.4374999999999451
 40
0.4374999999999451
 40
0.4999999999999491
 40
0.4999999999999491
 40
0.6249999999999571
 40
0.6249999999999571
 40
0.7499999999999652
 40
0.7499999999999652
 40
0.8124999999999738
 40
0.8124999999999738
 40
0.8749999999999825
 40
0.8749999999999825
 40
1.0
 40
1.0
 40
1.0
 40
1.0
 10
285.5567010818569
 20
232.3929725639968
 30
0.0
 10
285.5666189414972
 20
232.3916798124573
 30
0.0
 10
285.5767225834153
 20
232.39090549383
 30
0.0
 10
285.5967433701777
 20
232.3904428568971
 30
0.0
 10
285.6166601263852
 20
232.3910443623195
 30
0.0
 10
285.6363734403333
 20
232.3937269056217
 30
0.0
 10
285.6559842739015
 20
232.3974577343338
 30
0.0
 10
285.6657961029993
 20
232.399867154663
 30
0.0
 10
285.6945259738532
 20
232.4085476557425
 30
0.0
 10
285.7127870583337
 20
232.4162327805121
 30
0.0
 10
285.7389070630595
 20
232.4304659115742
 30
0.0
 10
285.747442593504
 20
232.435695063902
 30
0.0
 10
285.7638520311978
 20
232.4469179888706
 30
0.0
 10
285.7717100226101
 20
232.452893021105
 30
0.0
 10
285.7942946731176
 20
232.4718554980242
 30
0.0
 10
285.8080594318178
 20
232.4858950645916
 30
0.0
 10
285.8329319598712
 20
232.516582565237
 30
0.0
 10
285.8437217582589
 20
232.532827491292
 30
0.0
 10
285.8576310083456
 20
232.5584403227414
 30
0.0
 10
285.8618853174098
 20
232.5671870758366
 30
0.0
 10
285.8696309286693
 20
232.5850982058497
 30
0.0
 10
285.873123704986
 20
232.5942801173242
 30
0.0
 10
285.8822881081906
 20
232.6219601673086
 30
0.0
 10
285.8867309680087
 20
232.6407451284959
 30
0.0
 10
285.889568387057
 20
232.6598494884129
 30
0.0
  0
SPLINE
  5
158
330
1F
100
AcDbEntity
  8
1
100
AcDbSpline
210
0.0
220
0.0
230
1.0
 70
     8
 71
     3
 72
    12
 73
     8
 74
     0
 42
0.000000001
 43
0.0000000001
 40
0.0
 40
0.0
 40
0.0
 40
0.0
 40
0.2500000000000007
 40
0.2500000000000007
 40
0.5000000000000009
 40
0.5000000000000009
 40
1.0
 40
1.0
 40
1.0
 40
1.0
 10
286.4810446584916
 20
236.8802368532704
 30
0.0
 10
286.4360880824619
 20
236.5279522204268
 30
0.0
 10
286.3895443958918
 20
236.1758821095695
 30
0.0
 10
286.2941919485237
 20
235.4720480468841
 30
0.0
 10
286.2453792356694
 20
235.1202846292361
 30
0.0
 10
286.0964585201006
 20
234.0653299341103
 30
0.0
 10
285.9939225679529
 20
233.3624668307084
 30
0.0
 10
285.889568387057
 20
232.6598494884129
 30
0.0
  0
SPLINE
  5
159
330
1F
100
AcDbEntity
  8
1
100
AcDbSpline
210
0.0
220
0.0
230
1.0
 70
     8
 71
     3
 72
    16
 73
    12
 74
     0
 42
0.000000001
 43
0.0000000001
 40
0.0
 40
0.0
 40
0.0
 40
0.0
 40
0.2500000000000018
 40
0.2500000000000018
 40
0.3750000000000024
 40
0.3750000000000024
 40
0.5000000000000031
 40
0.5000000000000031
 40
0.7500000000000015
 40
0.7500000000000015
 40
1.0
 40
1.0
 40
1.0
 40
1.0
 10
286.4810446584916
 20
236.8802368532704
 30
0.0
 10
286.4913077605223
 20
236.9606596401019
 30
0.0
 10
286.4950162108532
 20
237.0411285846466
 30
0.0
 10
286.4915314112786
 20
237.161895713584
 30
0.0
 10
286.4888508919753
 20
237.2021621194272
 30
0.0
 10
286.4804597929516
 20
237.2827162687322
 30
0.0
 10
286.4747258588895
 20
237.3230732851523
 30
0.0
 10
286.4532459278257
 20
237.4424509319902
 30
0.0
 10
286.4332288152455
 20
237.5203472099456
 30
0.0
 10
286.3817862716641
 20
237.6727579755372
 30
0.0
 10
286.3503810794743
 20
237.747278462604
 30
0.0
 10
286.3125083621854
 20
237.8198817684559
 30
0.0
  0
SPLINE
  5
15A
330
1F
100
AcDbEntity
  8
1
100
AcDbSpline
210
0.0
220
0.0
230
1.0
 70
     8
 71
     3
 72
     8
 73
     4
 74
     0
 42
0.000000001
 43
0.0000000001
 40
0.0
 40
0.0
 40
0.0
 40
0.0
 40
1.0
 40
1.0
 40
1.0
 40
1.0
 10
286.4810446584916
 20
242.6062860815026
 30
0.0
 10
286.4898051691836
 20
242.6283652411627
 30
0.0
 10
286.4938855054753
 20
242.651180944378
 30
0.0
 10
286.493324073915
 20
242.6747271469088
 30
0.0
  0
SPLINE
  5
15B
330
1F
100
AcDbEntity
  8
1
100
AcDbSpline
210
0.0
220
0.0
230
1.0
 70
     8
 71
     3
 72
     8
 73
     4
 74
     0
 42
0.000000001
 43
0.0000000001
 40
0.0
 40
0.0
 40
0.0
 40
0.0
 40
1.0
 40
1.0
 40
1.0
 40
1.0
 10
286.4810446584916
 20
249.8439773901754
 30
0.0
 10
286.4898202428938
 20
249.8247771677533
 30
0.0
 10
286.4938035226164
 20
249.8055675227731
 30
0.0
 10
286.4933214581409
 20
249.7863490980995
 30
0.0
  0
SPLINE
  5
15C
330
1F
100
AcDbEntity
  8
1
100
AcDbSpline
210
0.0
220
0.0
230
1.0
 70
    12
 71
     2
 72
     6
 73
     3
 74
     0
 42
0.000000001
 43
0.0000000001
 40
0.0
 40
0.0
 40
0.0
 40
1.0
 40
1.0
 40
1.0
 10
281.5384351842399
 20
241.8270187681022
 30
0.0
 41
0.4999999474552341
 10
281.5279556258216
 20
241.828506269716
 30
0.0
 41
0.5000000525447659
 10
281.5174767860163
 20
241.829993842395
 30
0.0
 41
0.4999999474552341
  0
SPLINE
  5
15D
330
1F
100
AcDbEntity
  8
1
100
AcDbSpline
210
0.0
220
0.0
230
1.0
 70
     8
 71
     3
 72
    30
 73
    26
 74
     0
 42
0.000000001
 43
0.0000000001
 40
0.0
 40
0.0
 40
0.0
 40
0.0
 40
0.1250000000000486
 40
0.1250000000000486
 40
0.1875000000000643
 40
0.1875000000000643
 40
0.2500000000000799
 40
0.2500000000000799
 40
0.375000000000091
 40
0.375000000000091
 40
0.4375000000000821
 40
0.4375000000000821
 40
0.500000000000073
 40
0.500000000000073
 40
0.6250000000000929
 40
0.6250000000000929
 40
0.6875000000000841
 40
0.6875000000000841
 40
0.7500000000000754
 40
0.7500000000000754
 40
0.8750000000000161
 40
0.8750000000000161
 40
0.9375000000000079
 40
0.9375000000000079
 40
1.0
 40
1.0
 40
1.0
 40
1.0
 10
281.1658753574566
 20
241.5735388796395
 30
0.0
 10
281.1693062295659
 20
241.5932047123545
 30
0.0
 10
281.1746217973541
 20
241.612227900392
 30
0.0
 10
281.1852567599943
 20
241.639853143036
 30
0.0
 10
281.1892487959758
 20
241.6489087775144
 30
0.0
 10
281.1981389597242
 20
241.6667098700256
 30
0.0
 10
281.2030648644566
 20
241.675494039156
 30
0.0
 10
281.2189361974406
 20
241.7008766367503
 30
0.0
 10
281.2310050070195
 20
241.7166351653751
 30
0.0
 10
281.2512974088593
 20
241.7385575329282
 30
0.0
 10
281.2584289876298
 20
241.7455770621707
 30
0.0
 10
281.2734522831267
 20
241.7590197507765
 30
0.0
 10
281.2812674981483
 20
241.7653708842402
 30
0.0
 10
281.3054102567282
 20
241.7831825712648
 30
0.0
 10
281.3225069714554
 20
241.7934841937955
 30
0.0
 10
281.3496862445356
 20
241.8065235306345
 30
0.0
 10
281.3590582121229
 20
241.8104833577339
 30
0.0
 10
281.3780295078466
 20
241.8174377616456
 30
0.0
 10
281.3876205262764
 20
241.8204367972355
 30
0.0
 10
281.416704414768
 20
241.8280227546641
 30
0.0
 10
281.4365049389888
 20
241.8312129052377
 30
0.0
 10
281.4668570272528
 20
241.8330398294084
 30
0.0
 10
281.4770521192654
 20
241.8331452173842
 30
0.0
 10
281.4973052760245
 20
241.8323354973012
 30
0.0
 10
281.5074048351294
 20
241.8314236532559
 30
0.0
 10
281.5174767860163
 20
241.829993842395
 30
0.0
  0
SPLINE
  5
15E
330
1F
100
AcDbEntity
  8
1
100
AcDbSpline
210
0.0
220
0.0
230
1.0
 70
     8
 71
     3
 72
     8
 73
     4
 74
     0
 42
0.000000001
 43
0.0000000001
 40
0.0
 40
0.0
 40
0.0
 40
0.0
 40
1.0
 40
1.0
 40
1.0
 40
1.0
 10
276.3915913358554
 20
240.0907099943346
 30
0.0
 10
276.4933504853422
 20
240.0825891037599
 30
0.0
 10
276.5951455129098
 20
240.0740829161535
 30
0.0
 10
276.6969764679536
 20
240.0651909010531
 30
0.0
  0
SPLINE
  5
15F
330
1F
100
AcDbEntity
  8
1
100
AcDbSpline
210
0.0
220
0.0
230
1.0
 70
     8
 71
     3
 72
     8
 73
     4
 74
     0
 42
0.000000001
 43
0.0000000001
 40
0.0
 40
0.0
 40
0.0
 40
0.0
 40
1.0
 40
1.0
 40
1.0
 40
1.0
 10
282.1477819012656
 20
241.7250761433932
 30
0.0
 10
281.9458641011055
 20
241.7640042607633
 30
0.0
 10
281.7427561946672
 20
241.7980167986853
 30
0.0
 10
281.5384351842399
 20
241.8270187681022
 30
0.0
  0
SPLINE
  5
160
330
1F
100
AcDbEntity
  8
1
100
AcDbSpline
210
0.0
220
0.0
230
1.0
 70
     8
 71
     3
 72
    10
 73
     6
 74
     0
 42
0.000000001
 43
0.0000000001
 40
0.0
 40
0.0
 40
0.0
 40
0.0
 40
0.5
 40
0.5
 40
1.0
 40
1.0
 40
1.0
 40
1.0
 10
286.4810446584916
 20
242.6062860815026
 30
0.0
 10
286.3834675501536
 20
242.3603619990006
 30
0.0
 10
286.2851694356172
 20
242.1145763881866
 30
0.0
 10
286.0878501524025
 20
241.6231440315609
 30
0.0
 10
285.9888160106073
 20
241.3774997772805
 30
0.0
 10
285.889568387057
 20
241.1318965228957
 30
0.0
  0
SPLINE
  5
161
330
1F
100
AcDbEntity
  8
1
100
AcDbSpline
210
0.0
220
0.0
230
1.0
 70
     8
 71
     3
 72
    19
 73
    15
 74
     0
 42
0.000000001
 43
0.0000000001
 40
0.0
 40
0.0
 40
0.0
 40
0.0
 40
0.0872905285904903
 40
0.0872905285904903
 40
0.1745810571809807
 40
0.1745810571809807
 40
0.3491621143619588
 40
0.3491621143619588
 40
0.5237431715429359
 40
0.6110337001334237
 40
0.6110337001334237
 40
0.6983242287239115
 40
0.6983242287239115
 40
1.0
 40
1.0
 40
1.0
 40
1.0
 10
273.0225277544608
 20
240.009025915887
 30
0.0
 10
273.0240376156523
 20
240.0203094303346
 30
0.0
 10
273.0259997199996
 20
240.0315700826369
 30
0.0
 10
273.0308277204436
 20
240.0540455694523
 30
0.0
 10
273.0337098135716
 20
240.0653117732705
 30
0.0
 10
273.0435868642886
 20
240.0986269989985
 30
0.0
 10
273.0517622115274
 20
240.120115160834
 30
0.0
 10
273.0708560379905
 20
240.1618459668654
 30
0.0
 10
273.0872362806413
 20
240.1922087915773
 30
0.0
 10
273.1063483130731
 20
240.2213310098887
 30
0.0
 10
273.1196671552066
 20
240.2404835594897
 30
0.0
 10
273.1266348751452
 20
240.2499537483441
 30
0.0
 10
273.1586208976543
 20
240.2912398171178
 30
0.0
 10
273.1859310361826
 20
240.3209305076018
 30
0.0
 10
273.2151393976187
 20
240.3488538757855
 30
0.0
  0
SPLINE
  5
162
330
1F
100
AcDbEntity
  8
1
100
AcDbSpline
210
0.0
220
0.0
230
1.0
 70
     8
 71
     3
 72
     8
 73
     4
 74
     0
 42
0.000000001
 43
0.0000000001
 40
0.0
 40
0.0
 40
0.0
 40
0.0
 40
1.0
 40
1.0
 40
1.0
 40
1.0
 10
276.2431484434372
 20
240.1032729026157
 30
0.0
 10
276.2398945145649
 20
240.0723387826837
 30
0.0
 10
276.2354066219864
 20
240.041018542341
 30
0.0
 10
276.2296681724732
 20
240.0093026508376
 30
0.0
  0
SPLINE
  5
163
330
1F
100
AcDbEntity
  8
1
100
AcDbSpline
210
0.0
220
0.0
230
1.0
 70
     8
 71
     3
 72
    76
 73
    72
 74
     0
 42
0.000000001
 43
0.0000000001
 40
0.0
 40
0.0
 40
0.0
 40
0.0
 40
0.0312499999999993
 40
0.0312499999999993
 40
0.0390624999999999
 40
0.0390624999999999
 40
0.0468750000000005
 40
0.0468750000000005
 40
0.0625000000000016
 40
0.0625000000000016
 40
0.0937500000000039
 40
0.0937500000000039
 40
0.109375000000005
 40
0.109375000000005
 40
0.1250000000000061
 40
0.1250000000000061
 40
0.1562500000000087
 40
0.1562500000000087
 40
0.1875000000000113
 40
0.1875000000000113
 40
0.2187500000000139
 40
0.2187500000000139
 40
0.2500000000000165
 40
0.2500000000000165
 40
0.3125000000000218
 40
0.3125000000000218
 40
0.375000000000027
 40
0.375000000000027
 40
0.4062500000000275
 40
0.4062500000000275
 40
0.4375000000000279
 40
0.4375000000000279
 40
0.5000000000000285
 40
0.5000000000000285
 40
0.5625000000000293
 40
0.5625000000000293
 40
0.5781250000000294
 40
0.5781250000000294
 40
0.5937500000000297
 40
0.5937500000000297
 40
0.6250000000000297
 40
0.6250000000000297
 40
0.6875000000000341
 40
0.6875000000000341
 40
0.7187500000000343
 40
0.7187500000000343
 40
0.7343750000000342
 40
0.7343750000000342
 40
0.7500000000000341
 40
0.7500000000000341
 40
0.7812500000000302
 40
0.7812500000000302
 40
0.8125000000000264
 40
0.8125000000000264
 40
0.8437500000000227
 40
0.8437500000000227
 40
0.8750000000000188
 40
0.8750000000000188
 40
0.8906250000000158
 40
0.8906250000000158
 40
0.9062500000000127
 40
0.9062500000000127
 40
0.937500000000009
 40
0.937500000000009
 40
0.9531250000000062
 40
0.9531250000000062
 40
0.9609375000000051
 40
0.9609375000000051
 40
0.9687500000000039
 40
0.9687500000000039
 40
1.0
 40
1.0
 40
1.0
 40
1.0
 10
276.2296681724731
 20
240.0093026508376
 30
0.0
 10
276.2217002954475
 20
239.965264915092
 30
0.0
 10
276.2078605612843
 20
239.9230590533047
 30
0.0
 10
276.1845401419304
 20
239.8721725349228
 30
0.0
 10
276.1795724306419
 20
239.8620895528235
 30
0.0
 10
276.1690535177307
 20
239.8421045342896
 30
0.0
 10
276.1634840708737
 20
239.8321730854408
 30
0.0
 10
276.1461009135635
 20
239.802916728486
 30
0.0
 10
276.1336145713098
 20
239.7841063289696
 30
0.0
 10
276.0938719639503
 20
239.7294386416006
 30
0.0
 10
276.0643532474095
 20
239.695328495456
 30
0.0
 10
276.0165865954353
 20
239.6468503798616
 30
0.0
 10
276.0000219457833
 20
239.631097712785
 30
0.0
 10
275.9662243908727
 20
239.6007466903682
 30
0.0
 10
275.948969228574
 20
239.5861191004581
 30
0.0
 10
275.8962790028314
 20
239.5436607834971
 30
0.0
 10
275.8599264790128
 20
239.5172434194249
 30
0.0
 10
275.7852845459079
 20
239.4674050320391
 30
0.0
 10
275.7469912086726
 20
239.4439899933424
 30
0.0
 10
275.6687768441339
 20
239.3996891110903
 30
0.0
 10
275.628740004317
 20
239.3787571793411
 30
0.0
 10
275.5482385845443
 20
239.3395842048027
 30
0.0
 10
275.5076792611654
 20
239.3212827463732
 30
0.0
 10
275.3852196481474
 20
239.2697207163253
 30
0.0
 10
275.3025469642109
 20
239.239768249665
 30
0.0
 10
275.1355539772833
 20
239.1872654322071
 30
0.0
 10
275.0512287998923
 20
239.1647326552994
 30
0.0
 10
274.9236152980151
 20
239.1361606062822
 30
0.0
 10
274.8808173827624
 20
239.1275039823474
 30
0.0
 10
274.7955666398404
 20
239.1120692220076
 30
0.0
 10
274.7530404848365
 20
239.105271814765
 30
0.0
 10
274.625759959266
 20
239.0875998060986
 30
0.0
 10
274.541302890451
 20
239.0794277178273
 30
0.0
 10
274.3731990726745
 20
239.0705341689723
 30
0.0
 10
274.2895521287745
 20
239.069808303512
 30
0.0
 10
274.1855247205016
 20
239.0740894919012
 30
0.0
 10
274.1647458690617
 20
239.0752069364084
 30
0.0
 10
274.1232423484107
 20
239.0779855249376
 30
0.0
 10
274.1024922077858
 20
239.0796491800001
 30
0.0
 10
274.0405217494404
 20
239.08547419091
 30
0.0
 10
273.9996473470084
 20
239.0904585529447
 30
0.0
 10
273.8783933106574
 20
239.1089130542105
 30
0.0
 10
273.7993705708269
 20
239.1258439522086
 30
0.0
 10
273.6839391859513
 20
239.1595584903425
 30
0.0
 10
273.6459817730542
 20
239.172191608153
 30
0.0
 10
273.58990808467
 20
239.1935218692218
 30
0.0
 10
273.5713245282617
 20
239.2010460309046
 30
0.0
 10
273.5346765006239
 20
239.2168591724356
 30
0.0
 10
273.5166148970064
 20
239.225144539015
 30
0.0
 10
273.4632477867953
 20
239.2511937900664
 30
0.0
 10
273.4287568536185
 20
239.2701456613161
 30
0.0
 10
273.3621748757934
 20
239.3116275595694
 30
0.0
 10
273.3300817460947
 20
239.3341541263696
 30
0.0
 10
273.2686423007851
 20
239.3833926836863
 30
0.0
 10
273.2391787135817
 20
239.4102599127449
 30
0.0
 10
273.184849170632
 20
239.467606941198
 30
0.0
 10
273.1598206698526
 20
239.4981816418042
 30
0.0
 10
273.1259077924105
 20
239.5473314837773
 30
0.0
 10
273.1152106651052
 20
239.564264766408
 30
0.0
 10
273.0951374410054
 20
239.5993374304866
 30
0.0
 10
273.0857379220255
 20
239.6175425380458
 30
0.0
 10
273.0601498067656
 20
239.6731742138953
 30
0.0
 10
273.0463986136139
 20
239.7118407592727
 30
0.0
 10
273.0311784905482
 20
239.7724555851342
 30
0.0
 10
273.0270096112108
 20
239.7930979265968
 30
0.0
 10
273.022208023475
 20
239.8247667441046
 30
0.0
 10
273.0208522462149
 20
239.8354361004046
 30
0.0
 10
273.0186608548755
 20
239.8567930912334
 30
0.0
 10
273.0178207610229
 20
239.8675078188295
 30
0.0
 10
273.0148956825031
 20
239.9212628191375
 30
0.0
 10
273.0166158237574
 20
239.9648447978567
 30
0.0
 10
273.0225277544615
 20
240.0090259158869
 30
0.0
  0
SPLINE
  5
164
330
1F
100
AcDbEntity
  8
1
100
AcDbSpline
210
0.0
220
0.0
230
1.0
 70
     8
 71
     3
 72
     8
 73
     4
 74
     0
 42
0.000000001
 43
0.0000000001
 40
0.0
 40
0.0
 40
0.0
 40
0.0
 40
1.0
 40
1.0
 40
1.0
 40
1.0
 10
276.3915913358554
 20
232.9244802827084
 30
0.0
 10
276.4932879027676
 20
232.9236155935217
 30
0.0
 10
276.595083143222
 20
232.9213700475631
 30
0.0
 10
276.6969764679536
 20
232.9177299691548
 30
0.0
  0
SPLINE
  5
165
330
1F
100
AcDbEntity
  8
1
100
AcDbSpline
210
0.0
220
0.0
230
1.0
 70
     8
 71
     3
 72
    10
 73
     6
 74
     0
 42
0.000000001
 43
0.0000000001
 40
0.0
 40
0.0
 40
0.0
 40
0.0
 40
0.5
 40
0.5
 40
1.0
 40
1.0
 40
1.0
 40
1.0
 10
276.6969764679536
 20
232.9177299691548
 30
0.0
 10
277.0778752378984
 20
232.9041225872004
 30
0.0
 10
277.4602250062111
 20
232.894550581747
 30
0.0
 10
278.227726926017
 20
232.8819324298777
 30
0.0
 10
278.6128793413574
 20
232.8788902804795
 30
0.0
 10
278.9994281589669
 20
232.8788902804795
 30
0.0
  0
SPLINE
  5
169
330
1F
100
AcDbEntity
  8
1
100
AcDbSpline
210
0.0
220
0.0
230
1.0
 70
     8
 71
     3
 72
     8
 73
     4
 74
     0
 42
0.000000001
 43
0.0000000001
 40
0.0
 40
0.0
 40
0.0
 40
0.0
 40
1.0
 40
1.0
 40
1.0
 40
1.0
 10
287.1423693520259
 20
239.6737769136964
 30
0.0
 10
287.1476513298865
 20
239.6348513145925
 30
0.0
 10
287.1502942095997
 20
239.5962071909307
 30
0.0
 10
287.1502942095997
 20
239.5578897640121
 30
0.0
  0
SPLINE
  5
16A
330
1F
100
AcDbEntity
  8
1
100
AcDbSpline
210
0.0
220
0.0
230
1.0
 70
     8
 71
     3
 72
     8
 73
     4
 74
     0
 42
0.000000001
 43
0.0000000001
 40
0.0
 40
0.0
 40
0.0
 40
0.0
 40
1.0
 40
1.0
 40
1.0
 40
1.0
 10
287.1502942095997
 20
239.5578897640121
 30
0.0
 10
287.1502942095997
 20
239.4220470281935
 30
0.0
 10
287.1265599093632
 20
239.28931313416
 30
0.0
 10
287.0793075156316
 20
239.1608972156343
 30
0.0
  0
SPLINE
  5
16B
330
1F
100
AcDbEntity
  8
1
100
AcDbSpline
210
0.0
220
0.0
230
1.0
 70
     8
 71
     3
 72
    10
 73
     6
 74
     0
 42
0.000000001
 43
0.0000000001
 40
0.0
 40
0.0
 40
0.0
 40
0.0
 40
0.7378712907292617
 40
0.7378712907292617
 40
1.0
 40
1.0
 40
1.0
 40
1.0
 10
280.212814311548
 20
239.6295631919829
 30
0.0
 10
280.2356077134581
 20
239.6915078980912
 30
0.0
 10
280.2605164447868
 20
239.7530404587473
 30
0.0
 10
280.2971398523487
 20
239.8358744608824
 30
0.0
 10
280.3070070704882
 20
239.8575359050013
 30
0.0
 10
280.3171400395815
 20
239.8791428914619
 30
0.0
  0
SPLINE
  5
16C
330
1F
100
AcDbEntity
  8
1
100
AcDbSpline
210
0.0
220
0.0
230
1.0
 70
     8
 71
     3
 72
     8
 73
     4
 74
     0
 42
0.000000001
 43
0.0000000001
 40
0.0
 40
0.0
 40
0.0
 40
0.0
 40
1.0
 40
1.0
 40
1.0
 40
1.0
 10
280.1418276175798
 20
239.2325706436051
 30
0.0
 10
280.1418276175798
 20
239.3684133794237
 30
0.0
 10
280.1655619178164
 20
239.5011472734572
 30
0.0
 10
280.212814311548
 20
239.6295631919829
 30
0.0
  0
SPLINE
  5
16D
330
1F
100
AcDbEntity
  8
1
100
AcDbSpline
210
0.0
220
0.0
230
1.0
 70
     8
 71
     3
 72
    10
 73
     6
 74
     0
 42
0.000000001
 43
0.0000000001
 40
0.0
 40
0.0
 40
0.0
 40
0.0
 40
0.5
 40
0.5
 40
1.0
 40
1.0
 40
1.0
 40
1.0
 10
280.1893715075785
 20
238.9456813839613
 30
0.0
 10
280.1735460086504
 20
238.9942152116669
 30
0.0
 10
280.1616644457681
 20
239.0424158798166
 30
0.0
 10
280.145797338187
 20
239.1381456408205
 30
0.0
 10
280.1418276175798
 20
239.1856057013379
 30
0.0
 10
280.1418276175798
 20
239.2325706436051
 30
0.0
  0
SPLINE
  5
16E
330
1F
100
AcDbEntity
  8
1
100
AcDbSpline
210
0.0
220
0.0
230
1.0
 70
     8
 71
     3
 72
    10
 73
     6
 74
     0
 42
0.000000001
 43
0.0000000001
 40
0.0
 40
0.0
 40
0.0
 40
0.0
 40
0.1853020080661447
 40
0.1853020080661447
 40
1.0
 40
1.0
 40
1.0
 40
1.0
 10
284.5927940399495
 20
252.6385359366356
 30
0.0
 10
284.5916324076112
 20
252.6390237648089
 30
0.0
 10
284.5904836982756
 20
252.639541479025
 30
0.0
 10
284.5843702050362
 20
252.6424920953392
 30
0.0
 10
284.5796340966071
 20
252.6454644794337
 30
0.0
 10
284.5751609433553
 20
252.6490564514933
 30
0.0
  0
SPLINE
  5
16F
330
1F
100
AcDbEntity
  8
1
100
AcDbSpline
210
0.0
220
0.0
230
1.0
 70
     8
 71
     3
 72
     8
 73
     4
 74
     0
 42
0.000000001
 43
0.0000000001
 40
0.0
 40
0.0
 40
0.0
 40
0.0
 40
1.0
 40
1.0
 40
1.0
 40
1.0
 10
286.4933396164272
 20
237.9550865354643
 30
0.0
 10
286.4931418266244
 20
237.9694020264269
 30
0.0
 10
286.4921145710013
 20
237.9836610424751
 30
0.0
 10
286.4902601445805
 20
237.9978637398677
 30
0.0
  0
SPLINE
  5
170
330
1F
100
AcDbEntity
  8
1
100
AcDbSpline
210
0.0
220
0.0
230
1.0
 70
     8
 71
     3
 72
     8
 73
     4
 74
     0
 42
0.000000001
 43
0.0000000001
 40
0.0
 40
0.0
 40
0.0
 40
0.0
 40
1.0
 40
1.0
 40
1.0
 40
1.0
 10
286.2670889524027
 20
237.9073390420965
 30
0.0
 10
286.2821729131838
 20
237.8781630752908
 30
0.0
 10
286.2973134412006
 20
237.8490109562889
 30
0.0
 10
286.3125083621854
 20
237.8198817684559
 30
0.0
  0
SPLINE
  5
171
330
1F
100
AcDbEntity
  8
1
100
AcDbSpline
210
0.0
220
0.0
230
1.0
 70
     8
 71
     3
 72
    20
 73
    16
 74
     0
 42
0.000000001
 43
0.0000000001
 40
0.0
 40
0.0
 40
0.0
 40
0.0
 40
0.1250000000000015
 40
0.1250000000000015
 40
0.250000000000003
 40
0.250000000000003
 40
0.3750000000000045
 40
0.3750000000000045
 40
0.4375000000000053
 40
0.4375000000000053
 40
0.5000000000000061
 40
0.5000000000000061
 40
0.7500000000000031
 40
0.7500000000000031
 40
1.0
 40
1.0
 40
1.0
 40
1.0
 10
285.5567010818569
 20
247.5106793004697
 30
0.0
 10
285.5689274655339
 20
247.4748046792793
 30
0.0
 10
285.5786859788781
 20
247.438148121072
 30
0.0
 10
285.5947319993108
 20
247.3639476400724
 30
0.0
 10
285.6009910453142
 20
247.3263904975531
 30
0.0
 10
285.6106033621121
 20
247.2506515448422
 30
0.0
 10
285.6139481327689
 20
247.2124661823402
 30
0.0
 10
285.6169807554413
 20
247.1548085166725
 30
0.0
 10
285.617658115723
 20
247.1355117251809
 30
0.0
 10
285.6183641429467
 20
247.0970445314458
 30
0.0
 10
285.6183948655628
 20
247.0778436556168
 30
0.0
 10
285.6170043623135
 20
246.9819944372093
 30
0.0
 10
285.610972136536
 20
246.9058331413934
 30
0.0
 10
285.5901286216462
 20
246.7539923505366
 30
0.0
 10
285.5752667937827
 20
246.6783111900845
 30
0.0
 10
285.5567010818569
 20
246.6023199613297
 30
0.0
  0
SPLINE
  5
172
330
1F
100
AcDbEntity
  8
1
100
AcDbSpline
210
0.0
220
0.0
230
1.0
 70
     8
 71
     3
 72
   130
 73
   126
 74
     0
 42
0.000000001
 43
0.0000000001
 40
0.0
 40
0.0
 40
0.0
 40
0.0
 40
0.0156250000000026
 40
0.0156250000000026
 40
0.0312500000000052
 40
0.0312500000000052
 40
0.0468750000000078
 40
0.0468750000000078
 40
0.0546875000000081
 40
0.0546875000000081
 40
0.0625000000000085
 40
0.0625000000000085
 40
0.0781250000000112
 40
0.0781250000000112
 40
0.0859375000000125
 40
0.0859375000000125
 40
0.0937500000000138
 40
0.0937500000000138
 40
0.1093750000000161
 40
0.1093750000000161
 40
0.1171875000000188
 40
0.1171875000000188
 40
0.1250000000000215
 40
0.1250000000000215
 40
0.1406250000000267
 40
0.1406250000000267
 40
0.1484375000000278
 40
0.1484375000000278
 40
0.1562500000000289
 40
0.1562500000000289
 40
0.1718750000000311
 40
0.1718750000000311
 40
0.1875000000000334
 40
0.1875000000000334
 40
0.2031250000000357
 40
0.2031250000000357
 40
0.2187500000000379
 40
0.2187500000000379
 40
0.2500000000000421
 40
0.2500000000000421
 40
0.2656250000000443
 40
0.2656250000000443
 40
0.2812500000000464
 40
0.2812500000000464
 40
0.3125000000000491
 40
0.3125000000000491
 40
0.3281250000000496
 40
0.3281250000000496
 40
0.33593750000005
 40
0.33593750000005
 40
0.3437500000000503
 40
0.3437500000000503
 40
0.3750000000000526
 40
0.3750000000000526
 40
0.4062500000000549
 40
0.4375000000000572
 40
0.4375000000000572
 40
0.4531250000000586
 40
0.4531250000000586
 40
0.4687500000000597
 40
0.4687500000000597
 40
0.5000000000000622
 40
0.5000000000000622
 40
0.5312500000000648
 40
0.5312500000000648
 40
0.5468750000000663
 40
0.5468750000000663
 40
0.5625000000000679
 40
0.5625000000000679
 40
0.59375000000007
 40
0.59375000000007
 40
0.6015625000000704
 40
0.6015625000000704
 40
0.6093750000000707
 40
0.6093750000000707
 40
0.625000000000073
 40
0.625000000000073
 40
0.640625000000075
 40
0.640625000000075
 40
0.6484375000000762
 40
0.6484375000000762
 40
0.6562500000000772
 40
0.6562500000000772
 40
0.6718750000000792
 40
0.6718750000000792
 40
0.6796875000000801
 40
0.6796875000000801
 40
0.687500000000081
 40
0.6914062500000831
 40
0.6914062500000831
 40
0.6953125000000849
 40
0.6953125000000849
 40
0.7031250000000858
 40
0.7109375000000867
 40
0.7148437500000855
 40
0.7148437500000855
 40
0.7187500000000843
 40
0.7187500000000843
 40
0.7343750000000795
 40
0.7343750000000795
 40
0.7421875000000757
 40
0.7421875000000757
 40
0.7500000000000719
 40
0.7500000000000719
 40
0.7656250000000671
 40
0.7656250000000671
 40
0.7812500000000622
 40
0.7812500000000622
 40
0.7968750000000574
 40
0.7968750000000574
 40
0.8125000000000525
 40
0.8125000000000525
 40
0.8437500000000428
 40
0.8437500000000428
 40
0.8750000000000332
 40
0.8750000000000332
 40
0.8906250000000285
 40
0.8906250000000285
 40
0.9062500000000238
 40
0.9062500000000238
 40
0.9375000000000159
 40
0.9375000000000159
 40
0.9687500000000079
 40
0.9687500000000079
 40
1.0
 40
1.0
 40
1.0
 40
1.0
 10
285.5567010818569
 20
247.5106793004697
 30
0.0
 10
285.5463666637211
 20
247.5410025215989
 30
0.0
 10
285.5345603939752
 20
247.5708637032121
 30
0.0
 10
285.5074956589087
 20
247.6295264405961
 30
0.0
 10
285.492427927084
 20
247.6578991582606
 30
0.0
 10
285.4589909896644
 20
247.7123928831807
 30
0.0
 10
285.4406120617871
 20
247.7385419223926
 30
0.0
 10
285.41020370057
 20
247.7759139785836
 30
0.0
 10
285.3995928040509
 20
247.7880618468184
 30
0.0
 10
285.3773403441548
 20
247.8116902647693
 30
0.0
 10
285.3657237457784
 20
247.8231362015939
 30
0.0
 10
285.3297929036972
 20
247.8558896557244
 30
0.0
 10
285.3042456274559
 20
247.8757899154847
 30
0.0
 10
285.2633471533162
 20
247.9025412695017
 30
0.0
 10
285.2492836068263
 20
247.9109405166415
 30
0.0
 10
285.2202471213374
 20
247.9266505210274
 30
0.0
 10
285.2052166510721
 20
247.9339802614946
 30
0.0
 10
285.15956938963
 20
247.9538757836499
 30
0.0
 10
285.1281771084205
 20
247.9644982017814
 30
0.0
 10
285.0796657191068
 20
247.9765486386463
 30
0.0
 10
285.0632574552651
 20
247.9799163755
 30
0.0
 10
285.029960591287
 20
247.9853441436453
 30
0.0
 10
285.0129957509673
 20
247.9874092635196
 30
0.0
 10
284.9619531125729
 20
247.9915641230869
 30
0.0
 10
284.9279342350794
 20
247.9916361643089
 30
0.0
 10
284.8769182568392
 20
247.9880652996464
 30
0.0
 10
284.8599150195667
 20
247.9862593525994
 30
0.0
 10
284.8259127374161
 20
247.9814516002114
 30
0.0
 10
284.8088488201585
 20
247.9784348746718
 30
0.0
 10
284.7582049547962
 20
247.9677441037999
 30
0.0
 10
284.7252305128444
 20
247.9584753889589
 30
0.0
 10
284.6606552584594
 20
247.9362045086322
 30
0.0
 10
284.6290557711314
 20
247.9231987402328
 30
0.0
 10
284.5671122879951
 20
247.8937734644255
 30
0.0
 10
284.5366623926816
 20
247.8772690410932
 30
0.0
 10
284.4782199288677
 20
247.8418680829229
 30
0.0
 10
284.4500626224217
 20
247.8229066840388
 30
0.0
 10
284.3684120302703
 20
247.7626637667434
 30
0.0
 10
284.3177167394422
 20
247.7180510647634
 30
0.0
 10
284.2464693050035
 20
247.6453638799244
 30
0.0
 10
284.2237301634564
 20
247.6203687211312
 30
0.0
 10
284.1803004105421
 20
247.5692515853636
 30
0.0
 10
284.1595681777786
 20
247.5430859827159
 30
0.0
 10
284.1000645956922
 20
247.4629094755814
 30
0.0
 10
284.0639707236257
 20
247.40722808489
 30
0.0
 10
284.01456639581
 20
247.3206953913113
 30
0.0
 10
283.9988921794106
 20
247.2913467584598
 30
0.0
 10
283.9765265342428
 20
247.2465895143775
 30
0.0
 10
283.9692530326322
 20
247.2315270792123
 30
0.0
 10
283.9551472042331
 20
247.2012999703054
 30
0.0
 10
283.9483110702914
 20
247.1861292916705
 30
0.0
 10
283.9151764466204
 20
247.1099979465574
 30
0.0
 10
283.8919989669911
 20
247.0482072101304
 30
0.0
 10
283.8516389754382
 20
246.9229837907683
 30
0.0
 10
283.8172809283645
 20
246.7961169105018
 30
0.0
 10
283.7943232612048
 20
246.6660599404643
 30
0.0
 10
283.781382879606
 20
246.5673048857952
 30
0.0
 10
283.7777812994957
 20
246.5341172570538
 30
0.0
 10
283.7720803572187
 20
246.4679036305112
 30
0.0
 10
283.7699714035762
 20
246.434827577601
 30
0.0
 10
283.7658561117297
 20
246.3356913972617
 30
0.0
 10
283.7660479300661
 20
246.2697220518485
 30
0.0
 10
283.7725293023571
 20
246.1380509070842
 30
0.0
 10
283.7788111788915
 20
246.0723484036589
 30
0.0
 10
283.7933590221219
 20
245.9740479716164
 30
0.0
 10
283.7990670544485
 20
245.9413237932479
 30
0.0
 10
283.8123724254849
 20
245.8759766854281
 30
0.0
 10
283.819981712977
 20
245.8433050655767
 30
0.0
 10
283.845937677443
 20
245.7457944998939
 30
0.0
 10
283.8671515472166
 20
245.6821501641943
 30
0.0
 10
283.8999856987404
 20
245.6048670004979
 30
0.0
 10
283.90687335616
 20
245.5895259132925
 30
0.0
 10
283.921351075918
 20
245.5590987506666
 30
0.0
 10
283.9289562939213
 20
245.543986358493
 30
0.0
 10
283.9527483634347
 20
245.499422482221
 30
0.0
 10
283.9699374030502
 20
245.4706575601747
 30
0.0
 10
284.0074557417526
 20
245.4153838634215
 30
0.0
 10
284.0277790420121
 20
245.3888706391513
 30
0.0
 10
284.0612015027618
 20
245.3512307316532
 30
0.0
 10
284.0728347034515
 20
245.3390411582342
 30
0.0
 10
284.0972333574967
 20
245.3154865128154
 30
0.0
 10
284.1100136721149
 20
245.3041212796441
 30
0.0
 10
284.1494868455419
 20
245.2721080604098
 30
0.0
 10
284.177527596933
 20
245.25329419289
 30
0.0
 10
284.2226973649431
 20
245.2296555814489
 30
0.0
 10
284.2383566981416
 20
245.2225182123653
 30
0.0
 10
284.2702105442519
 20
245.2101852963798
 30
0.0
 10
284.2945585193982
 20
245.2023465556691
 30
0.0
 10
284.3196109615902
 20
245.1966849093024
 30
0.0
 10
284.3364718633111
 20
245.1934030782466
 30
0.0
 10
284.3449799214091
 20
245.1920108128252
 30
0.0
 10
284.3704363869833
 20
245.1886154382038
 30
0.0
 10
284.4044049038869
 20
245.1861262102792
 30
0.0
 10
284.4469272807216
 20
245.1878043921292
 30
0.0
 10
284.4724671472123
 20
245.1908564282667
 30
0.0
 10
284.4894995208303
 20
245.1933357599231
 30
0.0
 10
284.4980382246837
 20
245.1948023349994
 30
0.0
 10
284.5403030668227
 20
245.2031275405707
 30
0.0
 10
284.5730275900845
 20
245.2129564815021
 30
0.0
 10
284.6208438610513
 20
245.2314094028738
 30
0.0
 10
284.6365688766496
 20
245.2381844465357
 30
0.0
 10
284.6676330334777
 20
245.2528627567724
 30
0.0
 10
284.6830213763091
 20
245.2607945441332
 30
0.0
 10
284.728257817413
 20
245.285911687294
 30
0.0
 10
284.757124110336
 20
245.3043490827961
 30
0.0
 10
284.8128511693484
 20
245.3438536620191
 30
0.0
 10
284.8397074158937
 20
245.3649267663076
 30
0.0
 10
284.8917641823859
 20
245.4092450731875
 30
0.0
 10
284.916962593449
 20
245.4324930380668
 30
0.0
 10
284.9659351796278
 20
245.480858338642
 30
0.0
 10
284.9895442555879
 20
245.5058179968499
 30
0.0
 10
285.0577767162968
 20
245.582267421303
 30
0.0
 10
285.1000149232883
 20
245.6354868298734
 30
0.0
 10
285.1794001940071
 20
245.7454280130684
 30
0.0
 10
285.2165299429677
 20
245.8021620244812
 30
0.0
 10
285.268870321125
 20
245.8895545517879
 30
0.0
 10
285.285753795596
 20
245.9190703229739
 30
0.0
 10
285.3184333648151
 20
245.9788425909251
 30
0.0
 10
285.3341872920266
 20
246.0090268556376
 30
0.0
 10
285.3795161136499
 20
246.0999410984035
 30
0.0
 10
285.4072775014235
 20
246.1612270755683
 30
0.0
 10
285.4581225348447
 20
246.2850629170126
 30
0.0
 10
285.4812044781256
 20
246.3476133685614
 30
0.0
 10
285.522612792602
 20
246.4739871803431
 30
0.0
 10
285.5409404523035
 20
246.5378102021294
 30
0.0
 10
285.5567010818569
 20
246.6023199613297
 30
0.0
  0
SPLINE
  5
173
330
1F
100
AcDbEntity
  8
1
100
AcDbSpline
210
0.0
220
0.0
230
1.0
 70
     8
 71
     3
 72
    31
 73
    27
 74
     0
 42
0.000000001
 43
0.0000000001
 40
0.0
 40
0.0
 40
0.0
 40
0.0
 40
0.0625000000000027
 40
0.0625000000000027
 40
0.1250000000000055
 40
0.1250000000000055
 40
0.2500000000000123
 40
0.2500000000000123
 40
0.3125000000000173
 40
0.3125000000000173
 40
0.3750000000000223
 40
0.4375000000000272
 40
0.4375000000000272
 40
0.5000000000000322
 40
0.5000000000000322
 40
0.625000000000036
 40
0.625000000000036
 40
0.6875000000000226
 40
0.6875000000000226
 40
0.7500000000000091
 40
0.7500000000000091
 40
0.8750000000000051
 40
0.8750000000000051
 40
0.9375000000000024
 40
0.9375000000000024
 40
1.0
 40
1.0
 40
1.0
 40
1.0
 10
285.556701081857
 20
241.0741465270977
 30
0.0
 10
285.5661369820263
 20
241.0723613260135
 30
0.0
 10
285.5757194569171
 20
241.0707382274769
 30
0.0
 10
285.5949222360558
 20
241.0678710307286
 30
0.0
 10
285.6044755326764
 20
241.0666352199567
 30
0.0
 10
285.6329945543144
 20
241.0635071238855
 30
0.0
 10
285.6518207132977
 20
241.0621888194296
 30
0.0
 10
285.6797702789871
 20
241.0614026743058
 30
0.0
 10
285.689050583503
 20
241.0613434275293
 30
0.0
 10
285.7070964029258
 20
241.0616318866034
 30
0.0
 10
285.7247340234541
 20
241.0623223923864
 30
0.0
 10
285.7415669367107
 20
241.0638054772635
 30
0.0
 10
285.7579921048109
 20
241.0656901619497
 30
0.0
 10
285.766030260332
 20
241.066838513792
 30
0.0
 10
285.7893073297053
 20
241.0708758536079
 30
0.0
 10
285.8034608494172
 20
241.0742993120017
 30
0.0
 10
285.82271735101
 20
241.0804931856145
 30
0.0
 10
285.8288048864624
 20
241.0827355104824
 30
0.0
 10
285.8403014620706
 20
241.0875840884284
 30
0.0
 10
285.8456939456849
 20
241.0901877107575
 30
0.0
 10
285.8605058866432
 20
241.0983718735213
 30
0.0
 10
285.8687009245032
 20
241.1043736028228
 30
0.0
 10
285.8785036716208
 20
241.1141850205799
 30
0.0
 10
285.8813650303174
 20
241.1176104907212
 30
0.0
 10
285.8861534281363
 20
241.1246326749497
 30
0.0
 10
285.8880848156718
 20
241.1282252011323
 30
0.0
 10
285.889568387057
 20
241.1318965228956
 30
0.0
  0
SPLINE
  5
174
330
1F
100
AcDbEntity
  8
1
100
AcDbSpline
210
0.0
220
0.0
230
1.0
 70
     8
 71
     3
 72
    59
 73
    55
 74
     0
 42
0.000000001
 43
0.0000000001
 40
0.0
 40
0.0
 40
0.0
 40
0.0
 40
0.0624999999999985
 40
0.0624999999999985
 40
0.124999999999997
 40
0.124999999999997
 40
0.1328124999999966
 40
0.1328124999999966
 40
0.1406249999999963
 40
0.1406249999999963
 40
0.1562499999999951
 40
0.1874999999999933
 40
0.1874999999999933
 40
0.2499999999999896
 40
0.2499999999999896
 40
0.3124999999999861
 40
0.3124999999999861
 40
0.3203124999999859
 40
0.3203124999999859
 40
0.3281249999999857
 40
0.3281249999999857
 40
0.3437499999999858
 40
0.374999999999986
 40
0.374999999999986
 40
0.4374999999999866
 40
0.4374999999999866
 40
0.4999999999999872
 40
0.4999999999999872
 40
0.5078124999999877
 40
0.5078124999999877
 40
0.5156249999999883
 40
0.5312499999999889
 40
0.5624999999999904
 40
0.5624999999999904
 40
0.6249999999999925
 40
0.6249999999999925
 40
0.6562499999999928
 40
0.6562499999999928
 40
0.6718749999999936
 40
0.6718749999999936
 40
0.6874999999999943
 40
0.6874999999999943
 40
0.7499999999999949
 40
0.7499999999999949
 40
0.8124999999999953
 40
0.8124999999999953
 40
0.874999999999996
 40
0.874999999999996
 40
0.8906249999999962
 40
0.8906249999999962
 40
0.9062499999999964
 40
0.9374999999999978
 40
0.9374999999999978
 40
1.0
 40
1.0
 40
1.0
 40
1.0
 10
267.3509957372402
 20
239.2956436426433
 30
0.0
 10
267.3555143798006
 20
239.0014578423856
 30
0.0
 10
267.3700290587854
 20
238.7139669602639
 30
0.0
 10
267.420647735899
 20
238.1522985549531
 30
0.0
 10
267.4567438594025
 20
237.8781209848622
 30
0.0
 10
267.511169570966
 20
237.5773079582125
 30
0.0
 10
267.5174097861795
 20
237.5439905760169
 30
0.0
 10
267.5302836733511
 20
237.4775692853327
 30
0.0
 10
267.5369165438652
 20
237.4444718439479
 30
0.0
 10
267.5573478429614
 20
237.3458216636653
 30
0.0
 10
267.6004031667534
 20
237.1507676048144
 30
0.0
 10
267.6501274871235
 20
236.9623581248028
 30
0.0
 10
267.7587971015723
 20
236.5942018491487
 30
0.0
 10
267.8435078552432
 20
236.3603005394958
 30
0.0
 10
268.039943422328
 20
235.9149161190447
 30
0.0
 10
268.1516646881951
 20
235.7034367829897
 30
0.0
 10
268.2945128409205
 20
235.4779985465023
 30
0.0
 10
268.3106239183968
 20
235.4531233537811
 30
0.0
 10
268.3433322731975
 20
235.4037198555321
 30
0.0
 10
268.3599235171429
 20
235.3792017978228
 30
0.0
 10
268.4102572704948
 20
235.3064216741498
 30
0.0
 10
268.5133318786355
 20
235.1637035787736
 30
0.0
 10
268.6236726814713
 20
235.029282591507
 30
0.0
 10
268.8541992305669
 20
234.7709521820047
 30
0.0
 10
269.0209992769257
 20
234.6127343364311
 30
0.0
 10
269.3819508417267
 20
234.3217649665408
 30
0.0
 10
269.5761025460814
 20
234.1890192876504
 30
0.0
 10
269.8107358032419
 20
234.052781817455
 30
0.0
 10
269.8370175151978
 20
234.0378351117899
 30
0.0
 10
269.8898745697408
 20
234.0083879986322
 30
0.0
 10
269.9696548595215
 20
233.9648551163714
 30
0.0
 10
270.159257143142
 20
233.867642533591
 30
0.0
 10
270.327637016327
 20
233.7914647502429
 30
0.0
 10
270.6721123062475
 20
233.6478300648846
 30
0.0
 10
270.9120418137881
 20
233.5636800172846
 30
0.0
 10
271.2870977645414
 20
233.4520867410309
 30
0.0
 10
271.4146454058944
 20
233.4173333444022
 30
0.0
 10
271.6097465554133
 20
233.3685680540294
 30
0.0
 10
271.6754103474829
 20
233.3528740419527
 30
0.0
 10
271.807997340963
 20
233.3225611198544
 30
0.0
 10
271.8749748830868
 20
233.3079320656466
 30
0.0
 10
272.2115280925548
 20
233.2376596934937
 30
0.0
 10
272.4870695768629
 20
233.1903526161383
 30
0.0
 10
273.0500796103423
 20
233.109801641654
 30
0.0
 10
273.3375493226987
 20
233.0765666144403
 30
0.0
 10
273.9239954019116
 20
233.0212965852098
 30
0.0
 10
274.2229721096101
 20
232.9992667443183
 30
0.0
 10
274.6037620405121
 20
232.9773543440367
 30
0.0
 10
274.6802617503643
 20
232.9732558015488
 30
0.0
 10
274.8335035074242
 20
232.9656157643629
 30
0.0
 10
275.0639015191014
 20
232.9549817038553
 30
0.0
 10
275.29588745222
 20
232.9466695076799
 30
0.0
 10
275.7619388277653
 20
232.9327865827738
 30
0.0
 10
276.0754089777099
 20
232.927168667129
 30
0.0
 10
276.3915913358554
 20
232.9244802827084
 30
0.0
  0
SPLINE
  5
175
330
1F
100
AcDbEntity
  8
1
100
AcDbSpline
210
0.0
220
0.0
230
1.0
 70
     8
 71
     3
 72
    47
 73
    43
 74
     0
 42
0.000000001
 43
0.0000000001
 40
0.0
 40
0.0
 40
0.0
 40
0.0
 40
0.1250000000000037
 40
0.1250000000000037
 40
0.2500000000000075
 40
0.2500000000000075
 40
0.2812500000000067
 40
0.2812500000000067
 40
0.3125000000000058
 40
0.3125000000000058
 40
0.3750000000000039
 40
0.3750000000000039
 40
0.4374999999999953
 40
0.4374999999999953
 40
0.4999999999999866
 40
0.4999999999999866
 40
0.5312499999999837
 40
0.5312499999999837
 40
0.5624999999999809
 40
0.5624999999999809
 40
0.6249999999999779
 40
0.6249999999999779
 40
0.6562499999999775
 40
0.6718749999999775
 40
0.6718749999999775
 40
0.6874999999999777
 40
0.6874999999999777
 40
0.7499999999999817
 40
0.7499999999999817
 40
0.8124999999999859
 40
0.8124999999999859
 40
0.8437499999999882
 40
0.8437499999999882
 40
0.8749999999999904
 40
0.8749999999999904
 40
0.9374999999999948
 40
0.9374999999999948
 40
0.9687499999999975
 40
0.9687499999999975
 40
0.9843749999999987
 40
0.9843749999999987
 40
1.0
 40
1.0
 40
1.0
 40
1.0
 10
269.4378809461783
 20
240.6504503053061
 30
0.0
 10
269.3205924467259
 20
240.6599706272905
 30
0.0
 10
269.2033930738306
 20
240.6623454766276
 30
0.0
 10
268.9691832197574
 20
240.6520426345673
 30
0.0
 10
268.8521725303369
 20
240.6393867010531
 30
0.0
 10
268.7060409175437
 20
240.6128421340233
 30
0.0
 10
268.6767612007567
 20
240.6069788773882
 30
0.0
 10
268.6185204983465
 20
240.5941849339289
 30
0.0
 10
268.5896047803037
 20
240.5872667922872
 30
0.0
 10
268.5034814261766
 20
240.5649254957455
 30
0.0
 10
268.4468960293714
 20
240.5479193118998
 30
0.0
 10
268.3354724077057
 20
240.5094745676363
 30
0.0
 10
268.2806335989373
 20
240.488037440811
 30
0.0
 10
268.1728459511287
 20
240.4403846398079
 30
0.0
 10
268.1198960194121
 20
240.4141716506603
 30
0.0
 10
268.0420561705781
 20
240.3708598748376
 30
0.0
 10
268.0165177003317
 20
240.3558324960008
 30
0.0
 10
267.966480893894
 20
240.3246893086655
 30
0.0
 10
267.9419503184139
 20
240.3085557223352
 30
0.0
 10
267.8698662921711
 20
240.2584239038351
 30
0.0
 10
267.823814548448
 20
240.2227012667627
 30
0.0
 10
267.7580139080569
 20
240.1653806033987
 30
0.0
 10
267.725934901614
 20
240.1357837943066
 30
0.0
 10
267.6951615662501
 20
240.1047034321449
 30
0.0
 10
267.6749463401259
 20
240.0836425453577
 30
0.0
 10
267.6649715084335
 20
240.0729221723809
 30
0.0
 10
267.6161556892915
 20
240.0187553196494
 30
0.0
 10
267.5804136429586
 20
239.9735735250218
 30
0.0
 10
267.5158149553067
 20
239.8794103825473
 30
0.0
 10
267.4869556572328
 20
239.8304304132341
 30
0.0
 10
267.4492481256079
 20
239.7539127946663
 30
0.0
 10
267.4375720136436
 20
239.7277848265811
 30
0.0
 10
267.416499245246
 20
239.6752770962488
 30
0.0
 10
267.4070688841824
 20
239.6488509732652
 30
0.0
 10
267.3820482178904
 20
239.5690705913903
 30
0.0
 10
267.3697182553124
 20
239.5152161710205
 30
0.0
 10
267.3577463099375
 20
239.4334572582696
 30
0.0
 10
267.354845355401
 20
239.4060409390914
 30
0.0
 10
267.3521513465221
 20
239.3646702011864
 30
0.0
 10
267.3515292799175
 20
239.350810822545
 30
0.0
 10
267.3508464973742
 20
239.3231554127471
 30
0.0
 10
267.3507848113877
 20
239.3093759504908
 30
0.0
 10
267.3509957372402
 20
239.2956436426433
 30
0.0
  0
SPLINE
  5
176
330
1F
100
AcDbEntity
  8
1
100
AcDbSpline
210
0.0
220
0.0
230
1.0
 70
     8
 71
     3
 72
     8
 73
     4
 74
     0
 42
0.000000001
 43
0.0000000001
 40
0.0
 40
0.0
 40
0.0
 40
0.0
 40
1.0
 40
1.0
 40
1.0
 40
1.0
 10
276.3915913358554
 20
254.5913279545401
 30
0.0
 10
276.4933504853422
 20
254.5900841031402
 30
0.0
 10
276.5951455129098
 20
254.590330112053
 30
0.0
 10
276.6969764679536
 20
254.5920680324616
 30
0.0
  0
SPLINE
  5
177
330
1F
100
AcDbEntity
  8
1
100
AcDbSpline
210
0.0
220
0.0
230
1.0
 70
     8
 71
     3
 72
    10
 73
     6
 74
     0
 42
0.000000001
 43
0.0000000001
 40
0.0
 40
0.0
 40
0.0
 40
0.0
 40
0.5
 40
0.5
 40
1.0
 40
1.0
 40
1.0
 40
1.0
 10
276.6969764679536
 20
251.1089549053001
 30
0.0
 10
277.0778752378984
 20
251.0597705166107
 30
0.0
 10
277.4602250062111
 20
251.0228525990914
 30
0.0
 10
278.2277269260171
 20
250.9735624291375
 30
0.0
 10
278.6128793413574
 20
250.9611902070269
 30
0.0
 10
278.9994281589669
 20
250.9611902070269
 30
0.0
  0
SPLINE
  5
178
330
1F
100
AcDbEntity
  8
1
100
AcDbSpline
210
0.0
220
0.0
230
1.0
 70
     8
 71
     3
 72
     8
 73
     4
 74
     0
 42
0.000000001
 43
0.0000000001
 40
0.0
 40
0.0
 40
0.0
 40
0.0
 40
1.0
 40
1.0
 40
1.0
 40
1.0
 10
276.3915913358554
 20
251.1524045106345
 30
0.0
 10
276.4932879027677
 20
251.1365971173863
 30
0.0
 10
276.5950831432221
 20
251.1221121042306
 30
0.0
 10
276.6969764679537
 20
251.1089549053003
 30
0.0
  0
SPLINE
  5
179
330
1F
100
AcDbEntity
  8
1
100
AcDbSpline
210
0.0
220
0.0
230
1.0
 70
     8
 71
     3
 72
     8
 73
     4
 74
     0
 42
0.000000001
 43
0.0000000001
 40
0.0
 40
0.0
 40
0.0
 40
0.0
 40
1.0
 40
1.0
 40
1.0
 40
1.0
 10
282.1477819012656
 20
250.9723271091446
 30
0.0
 10
281.9455910352916
 20
250.9649112977269
 30
0.0
 10
281.7424776576682
 20
250.9611902070269
 30
0.0
 10
281.5384351842399
 20
250.9611902070269
 30
0.0
  0
SPLINE
  5
17A
330
1F
100
AcDbEntity
  8
1
100
AcDbSpline
210
0.0
220
0.0
230
1.0
 70
     8
 71
     3
 72
    12
 73
     8
 74
     0
 42
0.000000001
 43
0.0000000001
 40
0.0
 40
0.0
 40
0.0
 40
0.0
 40
0.5
 40
0.5
 40
0.75
 40
0.75
 40
1.0
 40
1.0
 40
1.0
 40
1.0
 10
285.889568387057
 20
251.0223484136102
 30
0.0
 10
285.9939249360006
 20
250.8261667285688
 30
0.0
 10
286.0964624080343
 20
250.6299178226259
 30
0.0
 10
286.2453833965815
 20
250.3353639387118
 30
0.0
 10
286.2941958622295
 20
250.2371487184356
 30
0.0
 10
286.389546996047
 20
250.0406342535544
 30
0.0
 10
286.4360896133452
 20
249.9423351548828
 30
0.0
 10
286.4810446584916
 20
249.8439773901754
 30
0.0
  0
SPLINE
  5
17B
330
1F
100
AcDbEntity
  8
1
100
AcDbSpline
210
0.0
220
0.0
230
1.0
 70
     8
 71
     3
 72
     8
 73
     4
 74
     0
 42
0.000000001
 43
0.0000000001
 40
0.0
 40
0.0
 40
0.0
 40
0.0
 40
1.0
 40
1.0
 40
1.0
 40
1.0
 10
282.1477819012656
 20
250.9723271091446
 30
0.0
 10
283.2840075760692
 20
251.0140007786829
 30
0.0
 10
284.4203174964777
 20
251.0555056451329
 30
0.0
 10
285.5567010818569
 20
251.0968629089321
 30
0.0
  0
SPLINE
  5
17C
330
1F
100
AcDbEntity
  8
1
100
AcDbSpline
210
0.0
220
0.0
230
1.0
 70
     8
 71
     3
 72
    29
 73
    25
 74
     0
 42
0.000000001
 43
0.0000000001
 40
0.0
 40
0.0
 40
0.0
 40
0.0
 40
0.1249999999999922
 40
0.1249999999999922
 40
0.1874999999999891
 40
0.1874999999999891
 40
0.2499999999999861
 40
0.2499999999999861
 40
0.3749999999999704
 40
0.3749999999999704
 40
0.4374999999999667
 40
0.4374999999999667
 40
0.499999999999963
 40
0.5624999999999594
 40
0.5624999999999594
 40
0.6249999999999557
 40
0.6249999999999557
 40
0.7499999999999816
 40
0.7499999999999816
 40
0.8124999999999751
 40
0.8124999999999751
 40
0.8749999999999687
 40
0.8749999999999687
 40
1.0
 40
1.0
 40
1.0
 40
1.0
 10
285.889568387057
 20
251.0223484136102
 30
0.0
 10
285.8867029051827
 20
251.0277352826497
 30
0.0
 10
285.8822171780472
 20
251.0329986126212
 30
0.0
 10
285.8730551176015
 20
251.0407080624696
 30
0.0
 10
285.869593085364
 20
251.0432467693306
 30
0.0
 10
285.861820867302
 20
251.0482595137673
 30
0.0
 10
285.8575269244124
 20
251.0507207522193
 30
0.0
 10
285.8435620971109
 20
251.0578871322619
 30
0.0
 10
285.8327681593337
 20
251.0624101627211
 30
0.0
 10
285.8142268384338
 20
251.0687915471777
 30
0.0
 10
285.8076172775453
 20
251.0708600409082
 30
0.0
 10
285.7937987514146
 20
251.074786289019
 30
0.0
 10
285.7793632754304
 20
251.0785121111715
 30
0.0
 10
285.7636853980363
 20
251.0818343194945
 30
0.0
 10
285.7473644982948
 20
251.0849476317955
 30
0.0
 10
285.7388376205706
 20
251.0864064411951
 30
0.0
 10
285.7125685664504
 20
251.0903987448933
 30
0.0
 10
285.6942988046739
 20
251.0925357531285
 30
0.0
 10
285.6657397398974
 20
251.0949414253188
 30
0.0
 10
285.6559916967478
 20
251.0956108585939
 30
0.0
 10
285.6362395852871
 20
251.0966587509159
 30
0.0
 10
285.6263435723673
 20
251.0970325671213
 30
0.0
 10
285.5965972324574
 20
251.0977154394953
 30
0.0
 10
285.5766891934631
 20
251.0975903513338
 30
0.0
 10
285.5567010818569
 20
251.0968629089321
 30
0.0
  0
SPLINE
  5
17D
330
1F
100
AcDbEntity
  8
1
100
AcDbSpline
210
0.0
220
0.0
230
1.0
 70
     8
 71
     3
 72
    57
 73
    53
 74
     0
 42
0.000000001
 43
0.0000000001
 40
0.0
 40
0.0
 40
0.0
 40
0.0
 40
0.0042064887110651
 40
0.0042064887110651
 40
0.021375342353978
 40
0.021375342353978
 40
0.0299597691754344
 40
0.0299597691754344
 40
0.0385441959968908
 40
0.1072196105685417
 40
0.1072196105685417
 40
0.1758950251401925
 40
0.1758950251401925
 40
0.2102327324260179
 40
0.2102327324260179
 40
0.2274015860689306
 40
0.2274015860689306
 40
0.2445704397118432
 40
0.2445704397118432
 40
0.3132458542834936
 40
0.3132458542834936
 40
0.3819212688551438
 40
0.3819212688551438
 40
0.4162589761409694
 40
0.4162589761409694
 40
0.4334278297838826
 40
0.4334278297838826
 40
0.4505966834267959
 40
0.4505966834267959
 40
0.5192720979984478
 40
0.5192720979984478
 40
0.5879475125700995
 40
0.5879475125700995
 40
0.6222852198559253
 40
0.6222852198559253
 40
0.6394540734988386
 40
0.6394540734988386
 40
0.6566229271417516
 40
0.6566229271417516
 40
0.7252983417134001
 40
0.7252983417134001
 40
0.7939737562850486
 40
0.7939737562850486
 40
0.8283114635708733
 40
0.8283114635708733
 40
0.8454803172137864
 40
0.8454803172137864
 40
0.8626491708566996
 40
0.8626491708566996
 40
0.9313245854283497
 40
0.9313245854283497
 40
1.0
 40
1.0
 40
1.0
 40
1.0
 10
267.4351051555382
 20
255.0598326115983
 30
0.0
 10
267.4372616556969
 20
255.0597663782376
 30
0.0
 10
267.4394615204121
 20
255.0596482115565
 30
0.0
 10
267.450862228086
 20
255.058783594817
 30
0.0
 10
267.4607480937964
 20
255.057222854112
 30
0.0
 10
267.4767112530725
 20
255.0535744989268
 30
0.0
 10
267.4822259770119
 20
255.0521391043881
 30
0.0
 10
267.4936164888647
 20
255.048838380855
 30
0.0
 10
267.5464859181766
 20
255.0320557046619
 30
0.0
 10
267.6138588655461
 20
254.9981483916916
 30
0.0
 10
267.7583391926554
 20
254.9128426762788
 30
0.0
 10
267.8429313874894
 20
254.8576691957962
 30
0.0
 10
267.9904638483134
 20
254.7573531505407
 30
0.0
 10
268.0430901573228
 20
254.7209860742817
 30
0.0
 10
268.1275452399316
 20
254.6621803622164
 30
0.0
 10
268.1566167711525
 20
254.6418691995997
 30
0.0
 10
268.2166636913915
 20
254.5998506184266
 30
0.0
 10
268.2476715907247
 20
254.5781204224676
 30
0.0
 10
268.4064980899432
 20
254.4668365937482
 30
0.0
 10
268.5464130780498
 20
254.3688756077877
 30
0.0
 10
268.8529758278854
 20
254.1588257319999
 30
0.0
 10
269.019625435225
 20
254.0467287570582
 30
0.0
 10
269.2907307392359
 20
253.8705615383411
 30
0.0
 10
269.3846240237402
 20
253.8105006578844
 30
0.0
 10
269.5309134536485
 20
253.7187173483129
 30
0.0
 10
269.5805850747501
 20
253.6878408713367
 30
0.0
 10
269.6817744451853
 20
253.625576576662
 30
0.0
 10
269.7330531663437
 20
253.5943359681079
 30
0.0
 10
269.9928419867315
 20
253.4377373511358
 30
0.0
 10
270.2115267227458
 20
253.311213533401
 30
0.0
 10
270.6701485063459
 20
253.0590615511236
 30
0.0
 10
270.9100862960574
 20
252.9334264809927
 30
0.0
 10
271.2857902498481
 20
252.7478671527046
 30
0.0
 10
271.4136597639602
 20
252.6864937097028
 30
0.0
 10
271.6094166684867
 20
252.5954141633467
 30
0.0
 10
271.6753194209664
 20
252.5652230696153
 30
0.0
 10
271.8078110195863
 20
252.505489213472
 30
0.0
 10
271.8744771261322
 20
252.4759101675939
 30
0.0
 10
272.2098779838573
 20
252.3295235558998
 30
0.0
 10
272.484813269406
 20
252.2172516903268
 30
0.0
 10
273.047287592841
 20
252.0039750044135
 30
0.0
 10
273.3348275333894
 20
251.9029659698328
 30
0.0
 10
273.7753092666643
 20
251.7609589101675
 30
0.0
 10
273.9236670021916
 20
251.715206666717
 30
0.0
 10
274.1484805316275
 20
251.6490806430986
 30
0.0
 10
274.2238223289118
 20
251.6274488657754
 30
0.0
 10
274.3751592041549
 20
251.5850695242204
 30
0.0
 10
274.4510353968477
 20
251.5643548962099
 30
0.0
 10
274.8314428245627
 20
251.4631761134964
 30
0.0
 10
275.1390479750739
 20
251.3898941530249
 30
0.0
 10
275.760591907348
 20
251.2591503982428
 30
0.0
 10
276.0745310522253
 20
251.2016873599863
 30
0.0
 10
276.3915913358554
 20
251.1524045106345
 30
0.0
  0
SPLINE
  5
17E
330
1F
100
AcDbEntity
  8
1
100
AcDbSpline
210
0.0
220
0.0
230
1.0
 70
     8
 71
     3
 72
    24
 73
    20
 74
     0
 42
0.000000001
 43
0.0000000001
 40
0.0
 40
0.0
 40
0.0
 40
0.0
 40
0.2290098701618661
 40
0.2290098701618661
 40
0.2862623377023227
 40
0.2862623377023227
 40
0.3435148052427793
 40
0.3435148052427793
 40
0.4580197403236791
 40
0.4580197403236791
 40
0.6870296104854785
 40
0.6870296104854785
 40
0.7442820780259299
 40
0.7442820780259299
 40
0.8015345455663812
 40
0.8015345455663812
 40
0.9160394806472835
 40
0.9160394806472835
 40
1.0
 40
1.0
 40
1.0
 40
1.0
 10
269.4378809461792
 20
254.6576240683551
 30
0.0
 10
269.3211165986849
 20
254.6584301888909
 30
0.0
 10
269.203663151506
 20
254.6610276760039
 30
0.0
 10
269.0559018262294
 20
254.6667581110989
 30
0.0
 10
269.0263019955698
 20
254.6680287948396
 30
0.0
 10
268.9670035982449
 20
254.6708274140118
 30
0.0
 10
268.9372690708521
 20
254.6723578115112
 30
0.0
 10
268.8486018976028
 20
254.677307233209
 30
0.0
 10
268.79000118198
 20
254.6810925778935
 30
0.0
 10
268.6157773935328
 20
254.6939099528861
 30
0.0
 10
268.5017150518343
 20
254.7043970163355
 30
0.0
 10
268.3621147354396
 20
254.7200238415259
 30
0.0
 10
268.3343449490106
 20
254.7232756060225
 30
0.0
 10
268.2791216923201
 20
254.7300365390106
 30
0.0
 10
268.2516017821576
 20
254.7335548689371
 30
0.0
 10
268.1701919781426
 20
254.7444167805631
 30
0.0
 10
268.117391650431
 20
254.7520705424129
 30
0.0
 10
268.0285725535394
 20
254.7660120705613
 30
0.0
 10
267.9918336699708
 20
254.7721195919893
 30
0.0
 10
267.9559868862816
 20
254.7784293818656
 30
0.0
  0
SPLINE
  5
17F
330
1F
100
AcDbEntity
  8
1
100
AcDbSpline
210
0.0
220
0.0
230
1.0
 70
     8
 71
     3
 72
     8
 73
     4
 74
     0
 42
0.000000001
 43
0.0000000001
 40
0.0
 40
0.0
 40
0.0
 40
0.0
 40
1.0
 40
1.0
 40
1.0
 40
1.0
 10
280.4428215799278
 20
238.7834745747566
 30
0.0
 10
280.4406343484652
 20
238.7840900877295
 30
0.0
 10
280.4384527132095
 20
238.784705914633
 30
0.0
 10
280.4362771377057
 20
238.7853219198671
 30
0.0
  0
SPLINE
  5
180
330
1F
100
AcDbEntity
  8
1
100
AcDbSpline
210
0.0
220
0.0
230
1.0
 70
     8
 71
     3
 72
    14
 73
    10
 74
     0
 42
0.000000001
 43
0.0000000001
 40
0.0
 40
0.0
 40
0.0
 40
0.0
 40
0.1235567623894854
 40
0.1235567623894854
 40
0.2988454099115876
 40
0.2988454099115876
 40
0.6494227049557937
 40
0.6494227049557937
 40
1.0
 40
1.0
 40
1.0
 40
1.0
 10
281.070652903659
 20
241.0002343017767
 30
0.0
 10
281.0897664984918
 20
241.0326169403553
 30
0.0
 10
281.1089727040378
 20
241.0652434204976
 30
0.0
 10
281.1555818106842
 20
241.1445655431098
 30
0.0
 10
281.1830526552978
 20
241.1914400790589
 30
0.0
 10
281.2657455636108
 20
241.3328019054835
 30
0.0
 10
281.3212431552731
 20
241.4280146538182
 30
0.0
 10
281.4326923103195
 20
241.6196354460533
 30
0.0
 10
281.4886510266903
 20
241.7160610203073
 30
0.0
 10
281.5447087689125
 20
241.8128088126595
 30
0.0
  0
SPLINE
  5
181
330
1F
100
AcDbEntity
  8
1
100
AcDbSpline
210
0.0
220
0.0
230
1.0
 70
     8
 71
     3
 72
    16
 73
    12
 74
     0
 42
0.000000001
 43
0.0000000001
 40
0.0
 40
0.0
 40
0.0
 40
0.0
 40
0.1164001393955862
 40
0.2314779140910396
 40
0.3452333439945861
 40
0.4576664655241453
 40
0.5687773325511962
 40
0.6785660173813035
 40
0.7870326117747166
 40
0.8941772280107523
 40
1.0
 40
1.0
 40
1.0
 40
1.0
 10
280.1893715070833
 20
238.9456813827028
 30
0.0
 10
280.2162791388053
 20
239.0139871250136
 30
0.0
 10
280.2697887178874
 20
239.1498226217118
 30
0.0
 10
280.3499054018776
 20
239.3523087818922
 30
0.0
 10
280.4293344360487
 20
239.5523899910235
 30
0.0
 10
280.5080973456406
 20
239.7500585588005
 30
0.0
 10
280.586188959118
 20
239.9453156570333
 30
0.0
 10
280.6636086961806
 20
240.1381610841714
 30
0.0
 10
280.7403628421908
 20
240.3285922883283
 30
0.0
 10
280.8164254611737
 20
240.5166180816189
 30
0.0
 10
280.8670491657716
 20
240.6411158479098
 30
0.0
 10
280.8922039126722
 20
240.7029783651955
 30
0.0
  0
SPLINE
  5
182
330
1F
100
AcDbEntity
  8
1
100
AcDbSpline
210
0.0
220
0.0
230
1.0
 70
     8
 71
     3
 72
     8
 73
     4
 74
     0
 42
0.000000001
 43
0.0000000001
 40
0.0
 40
0.0
 40
0.0
 40
0.0
 40
1.0
 40
1.0
 40
1.0
 40
1.0
 10
280.1904421358858
 20
238.9425059249827
 30
0.0
 10
280.1900580927266
 20
238.9435752871739
 30
0.0
 10
280.1896941385934
 20
238.9446368988496
 30
0.0
 10
280.1893504177105
 20
238.9456904746984
 30
0.0
  0
SPLINE
  5
183
330
1F
100
AcDbEntity
  8
1
100
AcDbSpline
210
0.0
220
0.0
230
1.0
 70
     8
 71
     3
 72
    19
 73
    15
 74
     0
 42
0.000000001
 43
0.0000000001
 40
0.0
 40
0.0
 40
0.0
 40
0.0
 40
0.249999999999947
 40
0.249999999999947
 40
0.3749999999999436
 40
0.3749999999999436
 40
0.4999999999999404
 40
0.624999999999937
 40
0.624999999999937
 40
0.68749999999994
 40
0.68749999999994
 40
0.7499999999999428
 40
0.7499999999999428
 40
1.0
 40
1.0
 40
1.0
 40
1.0
 10
280.4362771377057
 20
238.7853219198671
 30
0.0
 10
280.4040611105165
 20
238.7945182668037
 30
0.0
 10
280.374174209742
 20
238.8049864000635
 30
0.0
 10
280.3327525071903
 20
238.8226005858313
 30
0.0
 10
280.3194354366311
 20
238.8288415101813
 30
0.0
 10
280.2946391574553
 20
238.8416885065533
 30
0.0
 10
280.2715798533308
 20
238.8549257907916
 30
0.0
 10
280.2519496100817
 20
238.8689891206246
 30
0.0
 10
280.2385436238737
 20
238.8798334810212
 30
0.0
 10
280.2342920386881
 20
238.8835030543469
 30
0.0
 10
280.226358613419
 20
238.8908280827368
 30
0.0
 10
280.2226590218928
 20
238.8944970923973
 30
0.0
 10
280.2054665422975
 20
238.9128709657215
 30
0.0
 10
280.1958252573686
 20
238.9276639165039
 30
0.0
 10
280.1904421358858
 20
238.9425059249827
 30
0.0
  0
SPLINE
  5
184
330
1F
100
AcDbEntity
  8
1
100
AcDbSpline
210
0.0
220
0.0
230
1.0
 70
     8
 71
     3
 72
     8
 73
     4
 74
     0
 42
0.000000001
 43
0.0000000001
 40
0.0
 40
0.0
 40
0.0
 40
0.0
 40
1.0
 40
1.0
 40
1.0
 40
1.0
 10
285.1316202203855
 20
237.7663884186883
 30
0.0
 10
284.8008534635804
 20
237.808623068257
 30
0.0
 10
284.4702773070402
 20
237.8605808301862
 30
0.0
 10
284.1429031201512
 20
237.921788397401
 30
0.0
  0
SPLINE
  5
185
330
1F
100
AcDbEntity
  8
1
100
AcDbSpline
210
0.0
220
0.0
230
1.0
 70
     8
 71
     3
 72
    24
 73
    20
 74
     0
 42
0.000000001
 43
0.0000000001
 40
0.0
 40
0.0
 40
0.0
 40
0.0
 40
0.0312499999999984
 40
0.0312499999999984
 40
0.0624999999999968
 40
0.0624999999999968
 40
0.1249999999999965
 40
0.1249999999999965
 40
0.1874999999999962
 40
0.1874999999999962
 40
0.2499999999999959
 40
0.2499999999999959
 40
0.3749999999999964
 40
0.3749999999999964
 40
0.499999999999997
 40
0.499999999999997
 40
0.7499999999999984
 40
0.7499999999999984
 40
1.0
 40
1.0
 40
1.0
 40
1.0
 10
286.9076215822478
 20
241.4033347527685
 30
0.0
 10
286.9055600707055
 20
241.4179838824923
 30
0.0
 10
286.9033005412621
 20
241.4323979557905
 30
0.0
 10
286.8985655298437
 20
241.4609697719853
 30
0.0
 10
286.896086012876
 20
241.4751227203211
 30
0.0
 10
286.8884270079585
 20
241.5173198816943
 30
0.0
 10
286.8830313244517
 20
241.5451074659779
 30
0.0
 10
286.8719203717814
 20
241.6003032795289
 30
0.0
 10
286.8662005347408
 20
241.6276955216428
 30
0.0
 10
286.8546216677344
 20
241.6818543553265
 30
0.0
 10
286.8487489451259
 20
241.7086793223155
 30
0.0
 10
286.8309514994174
 20
241.7886065258732
 30
0.0
 10
286.8188506906865
 20
241.8411708173938
 30
0.0
 10
286.7943593418437
 20
241.945414265398
 30
0.0
 10
286.7819655097047
 20
241.9970833646742
 30
0.0
 10
286.7444696454425
 20
242.1511302626051
 30
0.0
 10
286.7190586795871
 20
242.2525642626686
 30
0.0
 10
286.6677277353728
 20
242.4538772196505
 30
0.0
 10
286.6418006792164
 20
242.5537391376543
 30
0.0
 10
286.6157181288375
 20
242.6529097592313
 30
0.0
  0
SPLINE
  5
186
330
1F
100
AcDbEntity
  8
1
100
AcDbSpline
210
0.0
220
0.0
230
1.0
 70
     8
 71
     2
 72
     7
 73
     4
 74
     0
 42
0.000000001
 43
0.0000000001
 40
0.0
 40
0.0
 40
0.0
 40
0.376016849189758
 40
1.0
 40
1.0
 40
1.0
 10
286.6157136463814
 20
242.6528637510212
 30
0.0
 10
286.6040920688491
 20
242.6584850058431
 30
0.0
 10
286.5717102593022
 20
242.6725298769466
 30
0.0
 10
286.5497649053085
 20
242.6803592375725
 30
0.0
  0
SPLINE
  5
187
330
1F
100
AcDbEntity
  8
1
100
AcDbSpline
210
0.0
220
0.0
230
1.0
 70
     8
 71
     2
 72
     7
 73
     4
 74
     0
 42
0.000000001
 43
0.0000000001
 40
0.0
 40
0.0
 40
0.0
 40
0.3760168491812106
 40
1.0
 40
1.0
 40
1.0
 10
281.5447015225303
 20
241.8127781609641
 30
0.0
 10
281.5563231000623
 20
241.8071569061424
 30
0.0
 10
281.5887049096092
 20
241.793112035039
 30
0.0
 10
281.6106502636031
 20
241.7852826744129
 30
0.0
  0
SPLINE
  5
188
330
1F
100
AcDbEntity
  8
1
100
AcDbSpline
210
0.0
220
0.0
230
1.0
 70
     8
 71
     3
 72
    12
 73
     8
 74
     0
 42
0.000000001
 43
0.0000000001
 40
0.0
 40
0.0
 40
0.0
 40
0.0
 40
0.4999999999999992
 40
0.4999999999999992
 40
0.7499999999999996
 40
0.7499999999999996
 40
1.0
 40
1.0
 40
1.0
 40
1.0
 10
281.6106491490674
 20
241.7853084812695
 30
0.0
 10
281.6088251947789
 20
241.7589819117632
 30
0.0
 10
281.6078893618112
 20
241.7326852786878
 30
0.0
 10
281.6090910805327
 20
241.693328153132
 30
0.0
 10
281.6099316151406
 20
241.6802239413294
 30
0.0
 10
281.613060588233
 20
241.654064323077
 30
0.0
 10
281.6153004665169
 20
241.6410072797798
 30
0.0
 10
281.6190136958724
 20
241.6279998995989
 30
0.0
  0
SPLINE
  5
189
330
1F
100
AcDbEntity
  8
1
100
AcDbSpline
210
0.0
220
0.0
230
1.0
 70
     8
 71
     3
 72
    12
 73
     8
 74
     0
 42
0.000000001
 43
0.0000000001
 40
0.0
 40
0.0
 40
0.0
 40
0.0
 40
0.4999999999999969
 40
0.4999999999999969
 40
0.7499999999999984
 40
0.7499999999999984
 40
1.0
 40
1.0
 40
1.0
 40
1.0
 10
285.9377381675297
 20
240.9814248922512
 30
0.0
 10
285.9435786032994
 20
240.9585799175288
 30
0.0
 10
285.9495134947932
 20
240.9362488398721
 30
0.0
 10
285.9586928930077
 20
240.904259604991
 30
0.0
 10
285.9617994772585
 20
240.893851064949
 30
0.0
 10
285.9681665970668
 20
240.8738715743881
 30
0.0
 10
285.9714219725554
 20
240.8642725499288
 30
0.0
 10
285.9748339785117
 20
240.8555256912674
 30
0.0
  0
SPLINE
  5
18A
330
1F
100
AcDbEntity
  8
1
100
AcDbSpline
210
0.0
220
0.0
230
1.0
 70
     8
 71
     2
 72
     8
 73
     5
 74
     0
 42
0.000000001
 43
0.0000000001
 40
0.0
 40
0.0
 40
0.0
 40
0.3809847559250121
 40
0.9925842274251884
 40
1.0
 40
1.0
 40
1.0
 10
285.8913127882257
 20
240.9602520778607
 30
0.0
 10
285.9011651699702
 20
240.9636668881386
 30
0.0
 10
285.9246228138075
 20
240.9736001396248
 30
0.0
 10
285.9376055651154
 20
240.9813369152464
 30
0.0
 10
285.9377389152954
 20
240.981416790854
 30
0.0
  0
SPLINE
  5
18B
330
1F
100
AcDbEntity
  8
1
100
AcDbSpline
210
0.0
220
0.0
230
1.0
 70
     8
 71
     3
 72
    24
 73
    20
 74
     0
 42
0.000000001
 43
0.0000000001
 40
0.0
 40
0.0
 40
0.0
 40
0.0
 40
0.031250000000001
 40
0.031250000000001
 40
0.0625000000000019
 40
0.0625000000000019
 40
0.1250000000000021
 40
0.1250000000000021
 40
0.1875000000000024
 40
0.1875000000000024
 40
0.2500000000000026
 40
0.2500000000000026
 40
0.3750000000000021
 40
0.3750000000000021
 40
0.5000000000000016
 40
0.5000000000000016
 40
0.7500000000000008
 40
0.7500000000000008
 40
1.0
 40
1.0
 40
1.0
 40
1.0
 10
285.6881843991072
 20
239.5907173196059
 30
0.0
 10
285.6956911006276
 20
239.6033764760805
 30
0.0
 10
285.7022026010568
 20
239.6164113895843
 30
0.0
 10
285.714143704532
 20
239.6428897072169
 30
0.0
 10
285.719552830254
 20
239.6563408430209
 30
0.0
 10
285.7346769611423
 20
239.6971108018864
 30
0.0
 10
285.7433100182687
 20
239.7248381348496
 30
0.0
 10
285.7589793795865
 20
239.7808956849814
 30
0.0
 10
285.7659815121934
 20
239.8092286543681
 30
0.0
 10
285.7788113125222
 20
239.8659186594883
 30
0.0
 10
285.784648297886
 20
239.894340184503
 30
0.0
 10
285.8009160136186
 20
239.9797693786338
 30
0.0
 10
285.8101256630604
 20
240.0369387326738
 30
0.0
 10
285.8265371431526
 20
240.1515432986684
 30
0.0
 10
285.8337160830398
 20
240.2089815416189
 30
0.0
 10
285.8530749747488
 20
240.3815846527637
 30
0.0
 10
285.8631146782609
 20
240.497032914039
 30
0.0
 10
285.8796685993866
 20
240.7283962507937
 30
0.0
 10
285.8861381867343
 20
240.8443158530597
 30
0.0
 10
285.8913059498945
 20
240.9602656331574
 30
0.0
  0
SPLINE
  5
18C
330
1F
100
AcDbEntity
  8
1
100
AcDbSpline
210
0.0
220
0.0
230
1.0
 70
     8
 71
     3
 72
     8
 73
     4
 74
     0
 42
0.000000001
 43
0.0000000001
 40
0.0
 40
0.0
 40
0.0
 40
0.0
 40
1.0
 40
1.0
 40
1.0
 40
1.0
 10
285.8227408062207
 20
237.6980963562115
 30
0.0
 10
285.8202907687357
 20
237.6982639592421
 30
0.0
 10
285.8178362759477
 20
237.6984341816109
 30
0.0
 10
285.8153779237726
 20
237.6986069867855
 30
0.0
  0
SPLINE
  5
18D
330
1F
100
AcDbEntity
  8
1
100
AcDbSpline
210
0.0
220
0.0
230
1.0
 70
     8
 71
     3
 72
    19
 73
    15
 74
     0
 42
0.000000001
 43
0.0000000001
 40
0.0
 40
0.0
 40
0.0
 40
0.0
 40
0.2500000000000156
 40
0.2500000000000156
 40
0.3750000000000242
 40
0.3750000000000242
 40
0.5000000000000328
 40
0.6250000000000413
 40
0.6250000000000413
 40
0.6875000000000277
 40
0.6875000000000277
 40
0.7500000000000142
 40
0.7500000000000142
 40
1.0
 40
1.0
 40
1.0
 40
1.0
 10
286.129046375047
 20
237.7599455909476
 30
0.0
 10
286.1163606224454
 20
237.748223186317
 30
0.0
 10
286.0998208013852
 20
237.7378537211267
 30
0.0
 10
286.069364827356
 20
237.7245678303501
 30
0.0
 10
286.058167808198
 20
237.720496071775
 30
0.0
 10
286.0343808484381
 20
237.7133158301654
 30
0.0
 10
286.0091678647579
 20
237.7070595014505
 30
0.0
 10
285.9811597139957
 20
237.7026061050805
 30
0.0
 10
285.9590730313724
 20
237.6999596647852
 30
0.0
 10
285.9515203604403
 20
237.6991939250361
 30
0.0
 10
285.9362832222903
 20
237.6979188038089
 30
0.0
 10
285.9285711272055
 20
237.6974056498217
 30
0.0
 10
285.8895532184573
 20
237.6954513237169
 30
0.0
 10
285.856899407793
 20
237.6958330715062
 30
0.0
 10
285.8227408062207
 20
237.6980963562115
 30
0.0
  0
SPLINE
  5
18E
330
1F
100
AcDbEntity
  8
1
100
AcDbSpline
210
0.0
220
0.0
230
1.0
 70
     8
 71
     3
 72
     8
 73
     4
 74
     0
 42
0.000000001
 43
0.0000000001
 40
0.0
 40
0.0
 40
0.0
 40
0.0
 40
1.0
 40
1.0
 40
1.0
 40
1.0
 10
286.131559322198
 20
237.7623313018635
 30
0.0
 10
286.1307402414223
 20
237.7615371833589
 30
0.0
 10
286.129902514222
 20
237.7607418869924
 30
0.0
 10
286.129046375047
 20
237.7599455909476
 30
0.0
  0
SPLINE
  5
18F
330
1F
100
AcDbEntity
  8
1
100
AcDbSpline
210
0.0
220
0.0
230
1.0
 70
     8
 71
     3
 72
    10
 73
     6
 74
     0
 42
0.000000001
 43
0.0000000001
 40
0.0
 40
0.0
 40
0.0
 40
0.0
 40
0.5
 40
0.5
 40
1.0
 40
1.0
 40
1.0
 40
1.0
 10
285.8153771236551
 20
237.6986073047719
 30
0.0
 10
285.7021275715796
 20
237.7065680784184
 30
0.0
 10
285.5884551621114
 20
237.7162010370623
 30
0.0
 10
285.3602978978646
 20
237.738817481842
 30
0.0
 10
285.2459762291492
 20
237.751786631003
 30
0.0
 10
285.1316202203855
 20
237.7663884186883
 30
0.0
  0
SPLINE
  5
190
330
1F
100
AcDbEntity
  8
1
100
AcDbSpline
210
0.0
220
0.0
230
1.0
 70
     8
 71
     3
 72
    16
 73
    12
 74
     0
 42
0.000000001
 43
0.0000000001
 40
0.0
 40
0.0
 40
0.0
 40
0.0
 40
0.1163944876925925
 40
0.2314680280303257
 40
0.3452206391271648
 40
0.4576523555409024
 40
0.5687632292165228
 40
0.6785533304659582
 40
0.7870227489876501
 40
0.8941715949296133
 40
1.0
 40
1.0
 40
1.0
 40
1.0
 10
285.8153771236568
 20
237.6986073047453
 30
0.0
 10
285.810500720219
 20
237.7719494201125
 30
0.0
 10
285.8008032550726
 20
237.9178012998035
 30
0.0
 10
285.7862834356807
 20
238.1353889767123
 30
0.0
 10
285.7718903677056
 20
238.3505224814543
 30
0.0
 10
285.757621587848
 20
238.5632057065056
 30
0.0
 10
285.7434793985246
 20
238.7734375120668
 30
0.0
 10
285.7294648304577
 20
238.9812176508024
 30
0.0
 10
285.715577612667
 20
239.1865470864859
 30
0.0
 10
285.7018221036237
 20
239.3894210421498
 30
0.0
 10
285.6926733274732
 20
239.5238779111036
 30
0.0
 10
285.6881273002156
 20
239.5906895349953
 30
0.0
  0
SPLINE
  5
191
330
1F
100
AcDbEntity
  8
1
100
AcDbSpline
210
0.0
220
0.0
230
1.0
 70
     8
 71
     3
 72
    24
 73
    20
 74
     0
 42
0.000000001
 43
0.0000000001
 40
0.0
 40
0.0
 40
0.0
 40
0.0
 40
0.0549546209746067
 40
0.1103919402387088
 40
0.1663121591638604
 40
0.2227154734200518
 40
0.2796020731704879
 40
0.3369721432583677
 40
0.394825863386008
 40
0.4531634082867131
 40
0.511984947889718
 40
0.571290647478535
 40
0.6310806678430387
 40
0.6913551654255473
 40
0.7521142924612018
 40
0.8133581971129107
 40
0.8750870236010836
 40
0.9373009123284305
 40
1.0
 40
1.0
 40
1.0
 40
1.0
 10
281.6190311034175
 20
241.6280285527833
 30
0.0
 10
281.5968930520005
 20
241.5761683822418
 30
0.0
 10
281.552422497829
 20
241.4719925232212
 30
0.0
 10
281.4857247337177
 20
241.3149179691536
 30
0.0
 10
281.4186606901181
 20
241.1563845228671
 30
0.0
 10
281.3512514363022
 20
240.9963829244087
 30
0.0
 10
281.2834898782384
 20
240.834915912823
 30
0.0
 10
281.2153765876342
 20
240.6719829662557
 30
0.0
 10
281.1469100768828
 20
240.5075844438704
 30
0.0
 10
281.0780894378397
 20
240.3417204619026
 30
0.0
 10
281.0089136280176
 20
240.1743911976798
 30
0.0
 10
280.9393816554528
 20
240.0055968106023
 30
0.0
 10
280.8694925617404
 20
239.8353374501768
 30
0.0
 10
280.7992453010883
 20
239.6636133042153
 30
0.0
 10
280.7286392472306
 20
239.4904243951919
 30
0.0
 10
280.6576722650407
 20
239.3157713550142
 30
0.0
 10
280.5863479971422
 20
239.1396524971288
 30
0.0
 10
280.5146483455525
 20
238.9620748736776
 30
0.0
 10
280.4668268242297
 20
238.8431619503659
 30
0.0
 10
280.4428231871021
 20
238.7834745422283
 30
0.0
  0
SPLINE
  5
192
330
1F
100
AcDbEntity
  8
1
100
AcDbSpline
210
0.0
220
0.0
230
1.0
 70
     8
 71
     3
 72
    16
 73
    12
 74
     0
 42
0.000000001
 43
0.0000000001
 40
0.0
 40
0.0
 40
0.0
 40
0.0
 40
0.125000000000002
 40
0.125000000000002
 40
0.2500000000000039
 40
0.2500000000000039
 40
0.5000000000000027
 40
0.5000000000000027
 40
0.7500000000000014
 40
0.7500000000000014
 40
1.0
 40
1.0
 40
1.0
 40
1.0
 10
284.1429031201512
 20
237.921788397401
 30
0.0
 10
283.9849857994084
 20
237.9513134345324
 30
0.0
 10
283.8274132516047
 20
237.9816627961683
 30
0.0
 10
283.5129575435465
 20
238.0440101354252
 30
0.0
 10
283.3560691053892
 20
238.0760097632698
 30
0.0
 10
282.8868982380033
 20
238.1743872435478
 30
0.0
 10
282.5759554914836
 20
238.2431718658508
 30
0.0
 10
281.9577504390232
 20
238.3871496651412
 30
0.0
 10
281.6511194670359
 20
238.4621970987973
 30
0.0
 10
281.0431089601406
 20
238.6183032269052
 30
0.0
 10
280.7416752186144
 20
238.6993745219768
 30
0.0
 10
280.4428231871237
 20
238.7834745422819
 30
0.0
  0
SPLINE
  5
193
330
1F
100
AcDbEntity
  8
1
100
AcDbSpline
210
0.0
220
0.0
230
1.0
 70
     8
 71
     3
 72
    24
 73
    20
 74
     0
 42
0.000000001
 43
0.0000000001
 40
0.0
 40
0.0
 40
0.0
 40
0.0
 40
0.0549531386250686
 40
0.1103891671077043
 40
0.166308285443021
 40
0.2227106879624667
 40
0.2795965635273165
 40
0.336966095714161
 40
0.3948194629928359
 40
0.4531568388971012
 40
0.5119783921884659
 40
0.5712842870134361
 40
0.6310746830545503
 40
0.6913497356754466
 40
0.7521095960602624
 40
0.8133544113476327
 40
0.8750843247595147
 40
0.9372994757250971
 40
1.0
 40
1.0
 40
1.0
 40
1.0
 10
285.9748319193451
 20
240.8555335891899
 30
0.0
 10
285.9776267484355
 20
240.798763997481
 30
0.0
 10
285.983240965625
 20
240.6847259624827
 30
0.0
 10
285.9917378171751
 20
240.5129738218787
 30
0.0
 10
286.0003363694004
 20
240.3397636357565
 30
0.0
 10
286.0090393734398
 20
240.1650988867566
 30
0.0
 10
286.0178459443478
 20
239.9889780774512
 30
0.0
 10
286.0267561870752
 20
239.8114010704483
 30
0.0
 10
286.0357699409871
 20
239.6323673674678
 30
0.0
 10
286.0448871206776
 20
239.451876576257
 30
0.0
 10
286.0541076239218
 20
239.269928284308
 30
0.0
 10
286.0634313556756
 20
239.0865220913545
 30
0.0
 10
286.0728582259498
 20
238.9016576070893
 30
0.0
 10
286.0823881344968
 20
238.7153344269458
 30
0.0
 10
286.0920210356681
 20
238.5275522323401
 30
0.0
 10
286.101756692205
 20
238.3383104095188
 30
0.0
 10
286.1115956061145
 20
238.1476094896178
 30
0.0
 10
286.1215355036685
 20
237.9554457100919
 30
0.0
 10
286.1282089719759
 20
237.8268692923805
 30
0.0
 10
286.1315586713695
 20
237.7623312847656
 30
0.0
  0
SPLINE
  5
194
330
1F
100
AcDbEntity
  8
1
100
AcDbSpline
210
0.0
220
0.0
230
1.0
 70
     8
 71
     3
 72
    16
 73
    12
 74
     0
 42
0.000000001
 43
0.0000000001
 40
0.0
 40
0.0
 40
0.0
 40
0.0
 40
0.1249999999999996
 40
0.1249999999999996
 40
0.2499999999999992
 40
0.2499999999999992
 40
0.4999999999999994
 40
0.4999999999999994
 40
0.7499999999999997
 40
0.7499999999999997
 40
1.0
 40
1.0
 40
1.0
 40
1.0
 10
287.0793075156316
 20
239.1608972156343
 30
0.0
 10
287.056514208669
 20
239.0989527675613
 30
0.0
 10
287.031605462627
 20
239.0374196295934
 30
0.0
 10
286.9775586586732
 20
238.9151762302804
 30
0.0
 10
286.9484182231122
 20
238.8544641043834
 30
0.0
 10
286.85474105742
 20
238.6737404242345
 30
0.0
 10
286.7839281870679
 20
238.5550806703388
 30
0.0
 10
286.6255589792577
 20
238.3214124175709
 30
0.0
 10
286.5381612202394
 20
238.2066429404051
 30
0.0
 10
286.3470981132792
 20
237.9813385609876
 30
0.0
 10
286.2434189342587
 20
237.8707831582761
 30
0.0
 10
286.1315586713695
 20
237.7623312847668
 30
0.0
  0
SPLINE
  5
195
330
1F
100
AcDbEntity
  8
1
100
AcDbSpline
210
0.0
220
0.0
230
1.0
 70
     8
 71
     3
 72
    10
 73
     6
 74
     0
 42
0.000000001
 43
0.0000000001
 40
0.0
 40
0.0
 40
0.0
 40
0.0
 40
0.9429526166156554
 40
0.9429526166156554
 40
1.0
 40
1.0
 40
1.0
 40
1.0
 10
284.1492876568993
 20
253.3966668259045
 30
0.0
 10
284.1820924551155
 20
253.3921654488708
 30
0.0
 10
284.2139140027303
 20
253.3837436781868
 30
0.0
 10
284.246612195977
 20
253.3706820188649
 30
0.0
 10
284.2484741021627
 20
253.369922116239
 30
0.0
 10
284.2503318726459
 20
253.3691477945872
 30
0.0
  0
SPLINE
  5
196
330
1F
100
AcDbEntity
  8
1
100
AcDbSpline
210
0.0
220
0.0
230
1.0
 70
     8
 71
     3
 72
    18
 73
    14
 74
     0
 42
0.000000001
 43
0.0000000001
 40
0.0
 40
0.0
 40
0.0
 40
0.0
 40
0.1250000000000002
 40
0.1250000000000002
 40
0.2500000000000004
 40
0.2500000000000004
 40
0.3750000000000007
 40
0.3750000000000007
 40
0.5000000000000009
 40
0.5000000000000009
 40
0.7500000000000005
 40
0.7500000000000005
 40
1.0
 40
1.0
 40
1.0
 40
1.0
 10
282.7776622311221
 20
252.7633819517869
 30
0.0
 10
282.780417809689
 20
252.7675373558507
 30
0.0
 10
282.7835126765581
 20
252.7713756165514
 30
0.0
 10
282.7903458771337
 20
252.7784499809815
 30
0.0
 10
282.7941263054689
 20
252.7817125790999
 30
0.0
 10
282.8021088710171
 20
252.7874468864242
 30
0.0
 10
282.806304632568
 20
252.7899282285382
 30
0.0
 10
282.8150856821153
 20
252.7941540141303
 30
0.0
 10
282.8197166681932
 20
252.7959096592001
 30
0.0
 10
282.8338579348833
 20
252.7999324949029
 30
0.0
 10
282.8435671677096
 20
252.8009957203699
 30
0.0
 10
282.8631682265625
 20
252.7999609992119
 30
0.0
 10
282.8726558389176
 20
252.7979031282655
 30
0.0
 10
282.8818324229277
 20
252.7943211074555
 30
0.0
  0
SPLINE
  5
197
330
1F
100
AcDbEntity
  8
1
100
AcDbSpline
210
0.0
220
0.0
230
1.0
 70
     8
 71
     3
 72
    19
 73
    15
 74
     0
 42
0.000000001
 43
0.0000000001
 40
0.0
 40
0.0
 40
0.0
 40
0.0
 40
0.1402474252758582
 40
0.1402474252758582
 40
0.2835395210631939
 40
0.2835395210631939
 40
0.4268316168505297
 40
0.5701237126378653
 40
0.5701237126378653
 40
0.6417697605315466
 40
0.6417697605315466
 40
0.713415808425228
 40
0.713415808425228
 40
1.0
 40
1.0
 40
1.0
 40
1.0
 10
282.7211093917489
 20
252.4252164959259
 30
0.0
 10
282.7169690983023
 20
252.4412222616624
 30
0.0
 10
282.7137741812112
 20
252.4574470266123
 30
0.0
 10
282.7092201727233
 20
252.4906908977856
 30
0.0
 10
282.7079274064853
 20
252.5077465013397
 30
0.0
 10
282.707403582865
 20
252.541476713359
 30
0.0
 10
282.7089024230721
 20
252.5750376126338
 30
0.0
 10
282.7144011247991
 20
252.6082640523581
 30
0.0
 10
282.7200712688149
 20
252.6330544592297
 30
0.0
 10
282.7222236830584
 20
252.6413024962435
 30
0.0
 10
282.7269878011939
 20
252.6575314832524
 30
0.0
 10
282.7296052327609
 20
252.6655407648106
 30
0.0
 10
282.7438463870158
 20
252.7050710760359
 30
0.0
 10
282.7588846213775
 20
252.7350653736358
 30
0.0
 10
282.7776622311221
 20
252.7633819517869
 30
0.0
  0
SPLINE
  5
198
330
1F
100
AcDbEntity
  8
1
100
AcDbSpline
210
0.0
220
0.0
230
1.0
 70
     8
 71
     3
 72
    14
 73
    10
 74
     0
 42
0.000000001
 43
0.0000000001
 40
0.0
 40
0.0
 40
0.0
 40
0.0
 40
0.25
 40
0.25
 40
0.5
 40
0.5
 40
0.75
 40
0.75
 40
1.0
 40
1.0
 40
1.0
 40
1.0
 10
282.9528225285874
 20
252.7965830051618
 30
0.0
 10
282.947264648788
 20
252.7939006213274
 30
0.0
 10
282.9414144706478
 20
252.7918414993806
 30
0.0
 10
282.9295892862688
 20
252.7890232421348
 30
0.0
 10
282.9235935202261
 20
252.7882432335542
 30
0.0
 10
282.9114383007932
 20
252.7879057135259
 30
0.0
 10
282.9052932863693
 20
252.7883662441453
 30
0.0
 10
282.8933825708988
 20
252.7904612772601
 30
0.0
 10
282.8875461962052
 20
252.7920907726424
 30
0.0
 10
282.8818324229277
 20
252.7943211074555
 30
0.0
  0
SPLINE
  5
199
330
1F
100
AcDbEntity
  8
1
100
AcDbSpline
210
0.0
220
0.0
230
1.0
 70
     8
 71
     3
 72
    20
 73
    16
 74
     0
 42
0.000000001
 43
0.0000000001
 40
0.0
 40
0.0
 40
0.0
 40
0.0
 40
0.2499999999999516
 40
0.2499999999999516
 40
0.3749999999999596
 40
0.3749999999999596
 40
0.4999999999999677
 40
0.4999999999999677
 40
0.6249999999999759
 40
0.6249999999999759
 40
0.7499999999999839
 40
0.7499999999999839
 40
0.8749999999999918
 40
0.8749999999999918
 40
1.0
 40
1.0
 40
1.0
 40
1.0
 10
283.1598911526592
 20
253.1827018946864
 30
0.0
 10
283.1535508733964
 20
253.1902451777077
 30
0.0
 10
283.148565687822
 20
253.1985596312052
 30
0.0
 10
283.1431186335125
 20
253.2121845940934
 30
0.0
 10
283.1416622513231
 20
253.2169113202075
 30
0.0
 10
283.1395682065883
 20
253.2264278608319
 30
0.0
 10
283.1389125353845
 20
253.2312579894383
 30
0.0
 10
283.1384202888526
 20
253.2410676749915
 30
0.0
 10
283.1385933699794
 20
253.2460175940708
 30
0.0
 10
283.1397742569848
 20
253.2557195126209
 30
0.0
 10
283.1407785590374
 20
253.2605125960185
 30
0.0
 10
283.1436637020988
 20
253.2699752365495
 30
0.0
 10
283.1455260657621
 20
253.2745647174257
 30
0.0
 10
283.1500135178035
 20
253.2832883234663
 30
0.0
 10
283.1526466404333
 20
253.2874509590298
 30
0.0
 10
283.1556942845706
 20
253.2914012902145
 30
0.0
  0
SPLINE
  5
19A
330
1F
100
AcDbEntity
  8
1
100
AcDbSpline
210
0.0
220
0.0
230
1.0
 70
     8
 71
     3
 72
    14
 73
    10
 74
     0
 42
0.000000001
 43
0.0000000001
 40
0.0
 40
0.0
 40
0.0
 40
0.0
 40
0.25
 40
0.25
 40
0.5
 40
0.5
 40
0.75
 40
0.75
 40
1.0
 40
1.0
 40
1.0
 40
1.0
 10
283.1598911526592
 20
253.1827018946864
 30
0.0
 10
283.1638370849587
 20
253.1780072617082
 30
0.0
 10
283.1673095919872
 20
253.1729211838805
 30
0.0
 10
283.1731427024172
 20
253.162232294096
 30
0.0
 10
283.1754992356502
 20
253.1566586934707
 30
0.0
 10
283.1790760809872
 20
253.1450450953736
 30
0.0
 10
283.1802834146614
 20
253.1389805718629
 30
0.0
 10
283.1813931193766
 20
253.1268991778305
 30
0.0
 10
283.1813223380524
 20
253.1208182174004
 30
0.0
 10
283.1805707757975
 20
253.1146922176559
 30
0.0
  0
SPLINE
  5
19B
330
1F
100
AcDbEntity
  8
1
100
AcDbSpline
210
0.0
220
0.0
230
1.0
 70
     8
 71
     3
 72
    20
 73
    16
 74
     0
 42
0.000000001
 43
0.0000000001
 40
0.0
 40
0.0
 40
0.0
 40
0.0
 40
0.1250000000000159
 40
0.1250000000000159
 40
0.2500000000000318
 40
0.3125000000000336
 40
0.3125000000000336
 40
0.3750000000000356
 40
0.3750000000000356
 40
0.5000000000000285
 40
0.6250000000000215
 40
0.6250000000000215
 40
0.7500000000000144
 40
0.7500000000000144
 40
1.0
 40
1.0
 40
1.0
 40
1.0
 10
283.1805707757979
 20
253.1146922176561
 30
0.0
 10
283.1784947834662
 20
253.0977707605034
 30
0.0
 10
283.1753967696999
 20
253.0809647138984
 30
0.0
 10
283.1672311607553
 20
253.0480665916763
 30
0.0
 10
283.1596219638704
 20
253.0238344889648
 30
0.0
 10
283.1497194600962
 20
253.0002761044742
 30
0.0
 10
283.1425903271178
 20
252.9847247738314
 30
0.0
 10
283.1387460610103
 20
252.9769972976886
 30
0.0
 10
283.1265433855325
 20
252.9543290887823
 30
0.0
 10
283.1084942230895
 20
252.9254292420036
 30
0.0
 10
283.0869786793543
 20
252.899110558387
 30
0.0
 10
283.0637074275803
 20
252.8740990158378
 30
0.0
 10
283.0511379085887
 20
252.8622218927526
 30
0.0
 10
283.0119289416752
 20
252.8295843074623
 30
0.0
 10
282.9834921528687
 20
252.8113849993301
 30
0.0
 10
282.9528225285874
 20
252.7965830051618
 30
0.0
  0
SPLINE
  5
19C
330
1F
100
AcDbEntity
  8
1
100
AcDbSpline
210
0.0
220
0.0
230
1.0
 70
     8
 71
     3
 72
    19
 73
    15
 74
     0
 42
0.000000001
 43
0.0000000001
 40
0.0
 40
0.0
 40
0.0
 40
0.0
 40
0.2726655677602424
 40
0.2726655677602424
 40
0.4089983516403852
 40
0.4089983516403852
 40
0.545331135520528
 40
0.6816639194006708
 40
0.6816639194006708
 40
0.7498303113407666
 40
0.7498303113407666
 40
0.8179967032808621
 40
0.8179967032808621
 40
1.0
 40
1.0
 40
1.0
 40
1.0
 10
283.1556942845706
 20
253.2914012902145
 30
0.0
 10
283.1764654346585
 20
253.318324683578
 30
0.0
 10
283.2000947048067
 20
253.3423323493614
 30
0.0
 10
283.2397900862854
 20
253.373996270168
 30
0.0
 10
283.2537669983039
 20
253.3838190023559
 30
0.0
 10
283.282466974806
 20
253.4015062294773
 30
0.0
 10
283.3120744907123
 20
253.4173767724351
 30
0.0
 10
283.3434762909745
 20
253.4296547999721
 30
0.0
 10
283.3677213176073
 20
253.4374747424439
 30
0.0
 10
283.3759265394311
 20
253.4398491637099
 30
0.0
 10
283.392346845327
 20
253.4440687000737
 30
0.0
 10
283.4005892124858
 20
253.4459233912177
 30
0.0
 10
283.4309546093237
 20
253.4518121739108
 30
0.0
 10
283.4532684280624
 20
253.4543362820765
 30
0.0
 10
283.4758093674769
 20
253.4550702168207
 30
0.0
  0
SPLINE
  5
19D
330
1F
100
AcDbEntity
  8
1
100
AcDbSpline
210
0.0
220
0.0
230
1.0
 70
     8
 71
     3
 72
    20
 73
    16
 74
     0
 42
0.000000001
 43
0.0000000001
 40
0.0
 40
0.0
 40
0.0
 40
0.0
 40
0.124999999999984
 40
0.124999999999984
 40
0.249999999999968
 40
0.312499999999965
 40
0.312499999999965
 40
0.3749999999999619
 40
0.3749999999999619
 40
0.4999999999999711
 40
0.6249999999999803
 40
0.6249999999999803
 40
0.7499999999999895
 40
0.7499999999999895
 40
1.0
 40
1.0
 40
1.0
 40
1.0
 10
282.9011429401991
 20
252.302069625846
 30
0.0
 10
282.9145863562691
 20
252.2913344855267
 30
0.0
 10
282.9274143318014
 20
252.2798297847758
 30
0.0
 10
282.951464829719
 20
252.2556138260244
 30
0.0
 10
282.9683751698439
 20
252.2364903692452
 30
0.0
 10
282.9835529085094
 20
252.2158915354988
 30
0.0
 10
282.9932736490825
 20
252.2018204583361
 30
0.0
 10
282.9979518808114
 20
252.194587326859
 30
0.0
 10
283.0112092715679
 20
252.1726306483464
 30
0.0
 10
283.0268563807407
 20
252.1426506501731
 30
0.0
 10
283.0385498262833
 20
252.1113045197272
 30
0.0
 10
283.0482404015877
 20
252.0792631317812
 30
0.0
 10
283.0520774405651
 20
252.062836470656
 30
0.0
 10
283.0602690397668
 20
252.0139610136501
 30
0.0
 10
283.0615249648718
 20
251.9814477874635
 30
0.0
 10
283.0587405613974
 20
251.9489191744714
 30
0.0
  0
SPLINE
  5
19E
330
1F
100
AcDbEntity
  8
1
100
AcDbSpline
210
0.0
220
0.0
230
1.0
 70
     8
 71
     3
 72
    14
 73
    10
 74
     0
 42
0.000000001
 43
0.0000000001
 40
0.0
 40
0.0
 40
0.0
 40
0.0
 40
0.25
 40
0.25
 40
0.5
 40
0.5
 40
0.75
 40
0.75
 40
1.0
 40
1.0
 40
1.0
 40
1.0
 10
283.0587405613974
 20
251.9489191744714
 30
0.0
 10
283.0582359805181
 20
251.9430244410766
 30
0.0
 10
283.0570482078359
 20
251.9372121493315
 30
0.0
 10
283.053492410739
 20
251.9261513536571
 30
0.0
 10
283.0511318332657
 20
251.9208752693367
 30
0.0
 10
283.0452771328663
 20
251.9108136142
 30
0.0
 10
283.041774797857
 20
251.9060489835826
 30
0.0
 10
283.0339526362397
 20
251.8974260024852
 30
0.0
 10
283.0296013872808
 20
251.8935076082614
 30
0.0
 10
283.0247955582977
 20
251.8899946386495
 30
0.0
  0
SPLINE
  5
19F
330
1F
100
AcDbEntity
  8
1
100
AcDbSpline
210
0.0
220
0.0
230
1.0
 70
     8
 71
     3
 72
    18
 73
    14
 74
     0
 42
0.000000001
 43
0.0000000001
 40
0.0
 40
0.0
 40
0.0
 40
0.0
 40
0.1250000000000099
 40
0.1250000000000099
 40
0.2500000000000198
 40
0.2500000000000198
 40
0.3750000000000296
 40
0.3750000000000296
 40
0.5000000000000396
 40
0.5000000000000396
 40
0.7500000000000198
 40
0.7500000000000198
 40
1.0
 40
1.0
 40
1.0
 40
1.0
 10
282.9987520144996
 20
251.7896468306538
 30
0.0
 10
282.996570195443
 20
251.7939834563242
 30
0.0
 10
282.994832827545
 20
251.7984375253845
 30
0.0
 10
282.9922015777474
 20
251.8075673970971
 30
0.0
 10
282.9913061848348
 20
251.8122908666435
 30
0.0
 10
282.9904090876056
 20
251.8216828241821
 30
0.0
 10
282.9903958674963
 20
251.8263509528773
 30
0.0
 10
282.9912002595861
 20
251.8356322150614
 30
0.0
 10
282.9920313389516
 20
251.8402881990847
 30
0.0
 10
282.9957201367191
 20
251.8538286516357
 30
0.0
 10
282.9997139182506
 20
251.8622656203035
 30
0.0
 10
283.0105118226553
 20
251.8776818355901
 30
0.0
 10
283.017077145149
 20
251.8843526253903
 30
0.0
 10
283.0247955582977
 20
251.8899946386495
 30
0.0
  0
SPLINE
  5
1A0
330
1F
100
AcDbEntity
  8
1
100
AcDbSpline
210
0.0
220
0.0
230
1.0
 70
     8
 71
     3
 72
     8
 73
     4
 74
     0
 42
0.000000001
 43
0.0000000001
 40
0.0
 40
0.0
 40
0.0
 40
0.0
 40
1.0
 40
1.0
 40
1.0
 40
1.0
 10
283.052211313422
 20
251.7090717635681
 30
0.0
 10
283.0312151225949
 20
251.7337529575225
 30
0.0
 10
283.0133675723536
 20
251.7605966657538
 30
0.0
 10
282.9987520144996
 20
251.7896468306538
 30
0.0
  0
SPLINE
  5
1A1
330
1F
100
AcDbEntity
  8
1
100
AcDbSpline
210
0.0
220
0.0
230
1.0
 70
     8
 71
     3
 72
    20
 73
    16
 74
     0
 42
0.000000001
 43
0.0000000001
 40
0.0
 40
0.0
 40
0.0
 40
0.0
 40
0.124999999999998
 40
0.124999999999998
 40
0.249999999999996
 40
0.3124999999999961
 40
0.3124999999999961
 40
0.3749999999999961
 40
0.3749999999999961
 40
0.4999999999999969
 40
0.6249999999999977
 40
0.6249999999999977
 40
0.7499999999999984
 40
0.7499999999999984
 40
1.0
 40
1.0
 40
1.0
 40
1.0
 10
284.0175797773765
 20
253.2881856304795
 30
0.0
 10
284.0026044790909
 20
253.2815924159084
 30
0.0
 10
283.9871722879687
 20
253.2759218970349
 30
0.0
 10
283.9558170337438
 20
253.266596026833
 30
0.0
 10
283.9318512560374
 20
253.2610732248257
 30
0.0
 10
283.9071721970258
 20
253.2578135520575
 30
0.0
 10
283.8905537653292
 20
253.2561601421729
 30
0.0
 10
283.8821292643448
 20
253.2555924823503
 30
0.0
 10
283.8569038694035
 20
253.2547055530173
 30
0.0
 10
283.8233627055835
 20
253.2556697128129
 30
0.0
 10
283.7899968073717
 20
253.2608144262918
 30
0.0
 10
283.7567224369045
 20
253.268077966857
 30
0.0
 10
283.7400799809066
 20
253.2728039310624
 30
0.0
 10
283.6917718406634
 20
253.2897204628325
 30
0.0
 10
283.6612072437389
 20
253.3046863352342
 30
0.0
 10
283.6322339089672
 20
253.32322686936
 30
0.0
  0
SPLINE
  5
1A2
330
1F
100
AcDbEntity
  8
1
100
AcDbSpline
210
0.0
220
0.0
230
1.0
 70
     8
 71
     3
 72
    14
 73
    10
 74
     0
 42
0.000000001
 43
0.0000000001
 40
0.0
 40
0.0
 40
0.0
 40
0.0
 40
0.25
 40
0.25
 40
0.5
 40
0.5
 40
0.75
 40
0.75
 40
1.0
 40
1.0
 40
1.0
 40
1.0
 10
284.0625248651434
 20
253.3394514692789
 30
0.0
 10
284.0607410222319
 20
253.3337618113191
 30
0.0
 10
284.0583889088268
 20
253.3282833965966
 30
0.0
 10
284.0526792214729
 20
253.3180207699389
 30
0.0
 10
284.0493436019234
 20
253.3132547616656
 30
0.0
 10
284.0416946308001
 20
253.3044625852955
 30
0.0
 10
284.0373541539346
 20
253.3004351690811
 30
0.0
 10
284.0280265812607
 20
253.2935173970181
 30
0.0
 10
284.0230010653296
 20
253.2905724754059
 30
0.0
 10
284.0175797773757
 20
253.2881856304796
 30
0.0
  0
SPLINE
  5
1A3
330
1F
100
AcDbEntity
  8
1
100
AcDbSpline
210
0.0
220
0.0
230
1.0
 70
     8
 71
     3
 72
    20
 73
    16
 74
     0
 42
0.000000001
 43
0.0000000001
 40
0.0
 40
0.0
 40
0.0
 40
0.0
 40
0.2499999999999257
 40
0.2499999999999257
 40
0.374999999999938
 40
0.374999999999938
 40
0.4999999999999505
 40
0.4999999999999505
 40
0.6249999999999629
 40
0.6249999999999629
 40
0.7499999999999753
 40
0.7499999999999753
 40
0.8749999999999875
 40
0.8749999999999875
 40
1.0
 40
1.0
 40
1.0
 40
1.0
 10
284.0625248651434
 20
253.3394514692789
 30
0.0
 10
284.0653911398749
 20
253.3485935987439
 30
0.0
 10
284.0695981477768
 20
253.3569587517469
 30
0.0
 10
284.077913820091
 20
253.3683403129235
 30
0.0
 10
284.0810252665741
 20
253.3719188728025
 30
0.0
 10
284.0877265375938
 20
253.3784067854765
 30
0.0
 10
284.0913400253522
 20
253.3813515295365
 30
0.0
 10
284.099115414861
 20
253.3866140063241
 30
0.0
 10
284.103258579004
 20
253.3889091426416
 30
0.0
 10
284.1118159305646
 20
253.3926869806673
 30
0.0
 10
284.1162620427199
 20
253.3941930509919
 30
0.0
 10
284.1255071128296
 20
253.3963935755232
 30
0.0
 10
284.1302316775464
 20
253.397064436621
 30
0.0
 10
284.1397014878086
 20
253.3975276443282
 30
0.0
 10
284.1444745478485
 20
253.3973272664413
 30
0.0
 10
284.1492876568993
 20
253.3966668259045
 30
0.0
  0
SPLINE
  5
1A4
330
1F
100
AcDbEntity
  8
1
100
AcDbSpline
210
0.0
220
0.0
230
1.0
 70
     8
 71
     3
 72
    10
 73
     6
 74
     0
 42
0.000000001
 43
0.0000000001
 40
0.0
 40
0.0
 40
0.0
 40
0.0
 40
0.7221080455488782
 40
0.7221080455488782
 40
1.0
 40
1.0
 40
1.0
 40
1.0
 10
283.8489655804959
 20
251.624529976684
 30
0.0
 10
283.8519391636268
 20
251.6223045169932
 30
0.0
 10
283.8547160788821
 20
251.6198809876754
 30
0.0
 10
283.8582407513767
 20
251.6163139008477
 30
0.0
 10
283.8591876225364
 20
251.6152997205366
 30
0.0
 10
283.8601021416423
 20
251.6142627532057
 30
0.0
  0
SPLINE
  5
1A5
330
1F
100
AcDbEntity
  8
1
100
AcDbSpline
210
0.0
220
0.0
230
1.0
 70
     8
 71
     3
 72
    19
 73
    15
 74
     0
 42
0.000000001
 43
0.0000000001
 40
0.0
 40
0.0
 40
0.0
 40
0.0
 40
0.2500000000000093
 40
0.2500000000000093
 40
0.3749999999999938
 40
0.3749999999999938
 40
0.4999999999999785
 40
0.6249999999999631
 40
0.6249999999999631
 40
0.6874999999999555
 40
0.6874999999999555
 40
0.7499999999999476
 40
0.7499999999999476
 40
1.0
 40
1.0
 40
1.0
 40
1.0
 10
280.4362771377057
 20
255.1324838058682
 30
0.0
 10
280.4040611105165
 20
255.1193053912062
 30
0.0
 10
280.374174209742
 20
255.102285967808
 30
0.0
 10
280.3327525071903
 20
255.071142726306
 30
0.0
 10
280.3194354366311
 20
255.0597210287542
 30
0.0
 10
280.2946391574553
 20
255.0354978524493
 30
0.0
 10
280.2715798533307
 20
255.0098625649837
 30
0.0
 10
280.2519496100817
 20
254.9814400990601
 30
0.0
 10
280.2385436238737
 20
254.9590528231442
 30
0.0
 10
280.2342920386881
 20
254.9514000865477
 30
0.0
 10
280.226358613419
 20
254.9359689633278
 30
0.0
 10
280.2226590218928
 20
254.9281628724543
 30
0.0
 10
280.2054665422974
 20
254.8886901530194
 30
0.0
 10
280.1958252573687
 20
254.8557185143862
 30
0.0
 10
280.1904421358858
 20
254.8213069413226
 30
0.0
  0
SPLINE
  5
1A6
330
1F
100
AcDbEntity
  8
1
100
AcDbSpline
210
0.0
220
0.0
230
1.0
 70
     8
 71
     3
 72
     8
 73
     4
 74
     0
 42
0.000000001
 43
0.0000000001
 40
0.0
 40
0.0
 40
0.0
 40
0.0
 40
1.0
 40
1.0
 40
1.0
 40
1.0
 10
280.1904421358858
 20
254.8213069413226
 30
0.0
 10
280.1900580927266
 20
254.8188376659338
 30
0.0
 10
280.1896941385934
 20
254.8163659610602
 30
0.0
 10
280.1893504177105
 20
254.8138924325325
 30
0.0
  0
SPLINE
  5
1A7
330
1F
100
AcDbEntity
  8
1
100
AcDbSpline
210
0.0
220
0.0
230
1.0
 70
     8
 71
     3
 72
    10
 73
     6
 74
     0
 42
0.000000001
 43
0.0000000001
 40
0.0
 40
0.0
 40
0.0
 40
0.0
 40
0.5
 40
0.5
 40
1.0
 40
1.0
 40
1.0
 40
1.0
 10
280.1893715075785
 20
254.8138906681912
 30
0.0
 10
280.1735460086504
 20
254.6999350002382
 30
0.0
 10
280.1616644457682
 20
254.5856130142078
 30
0.0
 10
280.1457973381871
 20
254.3562676982258
 30
0.0
 10
280.1418276175798
 20
254.2414084517385
 30
0.0
 10
280.1418276175798
 20
254.1265733017844
 30
0.0
  0
SPLINE
  5
1A8
330
1F
100
AcDbEntity
  8
1
100
AcDbSpline
210
0.0
220
0.0
230
1.0
 70
     8
 71
     3
 72
     8
 73
     4
 74
     0
 42
0.000000001
 43
0.0000000001
 40
0.0
 40
0.0
 40
0.0
 40
0.0
 40
1.0
 40
1.0
 40
1.0
 40
1.0
 10
280.1418276175798
 20
254.1265733017844
 30
0.0
 10
280.1418276175798
 20
253.794420845402
 30
0.0
 10
280.1655619178164
 20
253.4628065468832
 30
0.0
 10
280.212814311548
 20
253.134751232522
 30
0.0
  0
SPLINE
  5
1A9
330
1F
100
AcDbEntity
  8
1
100
AcDbSpline
210
0.0
220
0.0
230
1.0
 70
     8
 71
     3
 72
    14
 73
    10
 74
     0
 42
0.000000001
 43
0.0000000001
 40
0.0
 40
0.0
 40
0.0
 40
0.0
 40
0.2154707839087517
 40
0.2154707839087517
 40
0.4309415678175034
 40
0.4309415678175034
 40
0.8618831356350092
 40
0.8618831356350092
 40
1.0
 40
1.0
 40
1.0
 40
1.0
 10
280.212814311548
 20
253.134751232522
 30
0.0
 10
280.2356077134581
 20
252.9765053525043
 30
0.0
 10
280.2605164447868
 20
252.818636707284
 30
0.0
 10
280.314563166804
 20
252.5036535596579
 30
0.0
 10
280.3437035349236
 20
252.3465337919967
 30
0.0
 10
280.437380599918
 20
251.8767665528325
 30
0.0
 10
280.5081935621711
 20
251.565556008509
 30
0.0
 10
280.6127574470257
 20
251.1572037892707
 30
0.0
 10
280.638979969402
 20
251.0583593679355
 30
0.0
 10
280.6660435681548
 20
250.9597872527452
 30
0.0
  0
SPLINE
  5
1AA
330
1F
100
AcDbEntity
  8
1
100
AcDbSpline
210
0.0
220
0.0
230
1.0
 70
     8
 71
     3
 72
     8
 73
     4
 74
     0
 42
0.000000001
 43
0.0000000001
 40
0.0
 40
0.0
 40
0.0
 40
0.0
 40
1.0
 40
1.0
 40
1.0
 40
1.0
 10
280.4428215799278
 20
255.1350968230093
 30
0.0
 10
280.4406343484652
 20
255.1342427112576
 30
0.0
 10
280.4384527132095
 20
255.1333716264983
 30
0.0
 10
280.4362771377057
 20
255.1324838058682
 30
0.0
  0
SPLINE
  5
1AB
330
1F
100
AcDbEntity
  8
1
100
AcDbSpline
210
0.0
220
0.0
230
1.0
 70
     8
 71
     3
 72
    16
 73
    12
 74
     0
 42
0.000000001
 43
0.0000000001
 40
0.0
 40
0.0
 40
0.0
 40
0.0
 40
0.125000000000002
 40
0.125000000000002
 40
0.2500000000000039
 40
0.2500000000000039
 40
0.5000000000000027
 40
0.5000000000000027
 40
0.7500000000000014
 40
0.7500000000000014
 40
1.0
 40
1.0
 40
1.0
 40
1.0
 10
284.1429031201512
 20
256.1408760300617
 30
0.0
 10
283.9849857994084
 20
256.115679959909
 30
0.0
 10
283.8274132516046
 20
256.0883647202338
 30
0.0
 10
283.5129575435465
 20
256.0294973250255
 30
0.0
 10
283.3560691053892
 20
255.9979427049879
 30
0.0
 10
282.8868982380033
 20
255.8970185157329
 30
0.0
 10
282.5759554914836
 20
255.8213659692653
 30
0.0
 10
281.9577504390232
 20
255.6533003809563
 30
0.0
 10
281.6511194670359
 20
255.5610558146237
 30
0.0
 10
281.0431089601406
 20
255.360307326867
 30
0.0
 10
280.7416752186144
 20
255.251788727121
 30
0.0
 10
280.4428231871237
 20
255.1350928068631
 30
0.0
  0
SPLINE
  5
1AC
330
1F
100
AcDbEntity
  8
1
100
AcDbSpline
210
0.0
220
0.0
230
1.0
 70
     8
 71
     3
 72
     8
 73
     4
 74
     0
 42
0.000000001
 43
0.0000000001
 40
0.0
 40
0.0
 40
0.0
 40
0.0
 40
1.0
 40
1.0
 40
1.0
 40
1.0
 10
285.1316202203855
 20
256.226605310191
 30
0.0
 10
284.8008534635804
 20
256.2217727942181
 30
0.0
 10
284.4702773070402
 20
256.1931093312617
 30
0.0
 10
284.1429031201512
 20
256.1408760300617
 30
0.0
  0
SPLINE
  5
1AD
330
1F
100
AcDbEntity
  8
1
100
AcDbSpline
210
0.0
220
0.0
230
1.0
 70
     8
 71
     3
 72
     8
 73
     4
 74
     0
 42
0.000000001
 43
0.0000000001
 40
0.0
 40
0.0
 40
0.0
 40
0.0
 40
1.0
 40
1.0
 40
1.0
 40
1.0
 10
285.8227408062207
 20
256.1878639532487
 30
0.0
 10
285.8202907687357
 20
256.188214160942
 30
0.0
 10
285.8178362759477
 20
256.1885438861444
 30
0.0
 10
285.8153779237726
 20
256.1888529921531
 30
0.0
  0
SPLINE
  5
1AE
330
1F
100
AcDbEntity
  8
1
100
AcDbSpline
210
0.0
220
0.0
230
1.0
 70
     8
 71
     3
 72
    10
 73
     6
 74
     0
 42
0.000000001
 43
0.0000000001
 40
0.0
 40
0.0
 40
0.0
 40
0.0
 40
0.5
 40
0.5
 40
1.0
 40
1.0
 40
1.0
 40
1.0
 10
285.8153771236551
 20
256.1888498216341
 30
0.0
 10
285.7021275715796
 20
256.2030880979451
 30
0.0
 10
285.5884551621114
 20
256.2133591414444
 30
0.0
 10
285.3602978978646
 20
256.2259598745517
 30
0.0
 10
285.2459762291492
 20
256.2282760562003
 30
0.0
 10
285.1316202203855
 20
256.226605310191
 30
0.0
  0
SPLINE
  5
1AF
330
1F
100
AcDbEntity
  8
1
100
AcDbSpline
210
0.0
220
0.0
230
1.0
 70
     8
 71
     3
 72
    19
 73
    15
 74
     0
 42
0.000000001
 43
0.0000000001
 40
0.0
 40
0.0
 40
0.0
 40
0.0
 40
0.249999999999947
 40
0.249999999999947
 40
0.3749999999999303
 40
0.3749999999999303
 40
0.4999999999999137
 40
0.6249999999998969
 40
0.6249999999998969
 40
0.6874999999999066
 40
0.6874999999999066
 40
0.7499999999999162
 40
0.7499999999999162
 40
1.0
 40
1.0
 40
1.0
 40
1.0
 10
286.129046375047
 20
255.9454808492595
 30
0.0
 10
286.1163606224454
 20
255.9776410442084
 30
0.0
 10
286.0998208013852
 20
256.0074276033154
 30
0.0
 10
286.069364827356
 20
256.0485747323435
 30
0.0
 10
286.058167808198
 20
256.0617781939984
 30
0.0
 10
286.0343808484381
 20
256.086315575639
 30
0.0
 10
286.0091679242207
 20
256.1090872582515
 30
0.0
 10
285.9811597139957
 20
256.1283999860947
 30
0.0
 10
285.9590730313724
 20
256.1415483683106
 30
0.0
 10
285.9515203604403
 20
256.1457098753755
 30
0.0
 10
285.9362832222903
 20
256.1534581141988
 30
0.0
 10
285.9285711272055
 20
256.157062408492
 30
0.0
 10
285.8895532184573
 20
256.1737627735615
 30
0.0
 10
285.856899407793
 20
256.182955804165
 30
0.0
 10
285.8227408062207
 20
256.1878639532487
 30
0.0
  0
SPLINE
  5
1B0
330
1F
100
AcDbEntity
  8
1
100
AcDbSpline
210
0.0
220
0.0
230
1.0
 70
     8
 71
     3
 72
     8
 73
     4
 74
     0
 42
0.000000001
 43
0.0000000001
 40
0.0
 40
0.0
 40
0.0
 40
0.0
 40
1.0
 40
1.0
 40
1.0
 40
1.0
 10
287.1502942095997
 20
251.2454016019402
 30
0.0
 10
287.1502942095997
 20
251.5775540583226
 30
0.0
 10
287.1265599093632
 20
251.9091683568415
 30
0.0
 10
287.0793075156316
 20
252.2372236712026
 30
0.0
  0
SPLINE
  5
1B1
330
1F
100
AcDbEntity
  8
1
100
AcDbSpline
210
0.0
220
0.0
230
1.0
 70
     8
 71
     3
 72
     8
 73
     4
 74
     0
 42
0.000000001
 43
0.0000000001
 40
0.0
 40
0.0
 40
0.0
 40
0.0
 40
1.0
 40
1.0
 40
1.0
 40
1.0
 10
286.131559322198
 20
255.9389432474567
 30
0.0
 10
286.1307402414223
 20
255.9411287250115
 30
0.0
 10
286.129902514222
 20
255.9433080796144
 30
0.0
 10
286.129046375047
 20
255.9454808492595
 30
0.0
  0
SPLINE
  5
1B2
330
1F
100
AcDbEntity
  8
1
100
AcDbSpline
210
0.0
220
0.0
230
1.0
 70
     8
 71
     3
 72
    16
 73
    12
 74
     0
 42
0.000000001
 43
0.0000000001
 40
0.0
 40
0.0
 40
0.0
 40
0.0
 40
0.1249999999999996
 40
0.1249999999999996
 40
0.2499999999999992
 40
0.2499999999999992
 40
0.4999999999999994
 40
0.4999999999999994
 40
0.7499999999999997
 40
0.7499999999999997
 40
1.0
 40
1.0
 40
1.0
 40
1.0
 10
287.0793075156316
 20
252.2372236712026
 30
0.0
 10
287.056514208669
 20
252.3954688920353
 30
0.0
 10
287.031605462627
 20
252.5533369764014
 30
0.0
 10
286.9775586586733
 20
252.8683190742486
 30
0.0
 10
286.9484182231122
 20
253.0254383541719
 30
0.0
 10
286.85474105742
 20
253.4952041065338
 30
0.0
 10
286.7839281870678
 20
253.8064136091258
 30
0.0
 10
286.6255589792576
 20
254.4248922336822
 30
0.0
 10
286.5381612202394
 20
254.7315297250417
 30
0.0
 10
286.3470981132792
 20
255.3392936551963
 30
0.0
 10
286.2434189342587
 20
255.6404743361419
 30
0.0
 10
286.1315586713695
 20
255.9389429369548
 30
0.0
  0
SPLINE
  5
1B3
330
1F
100
AcDbEntity
  8
1
100
AcDbSpline
210
0.0
220
0.0
230
1.0
 70
     8
 71
     3
 72
     8
 73
     4
 74
     0
 42
0.000000001
 43
0.0000000001
 40
0.0
 40
0.0
 40
0.0
 40
0.0
 40
1.0
 40
1.0
 40
1.0
 40
1.0
 10
287.1016741405857
 20
250.5506721135297
 30
0.0
 10
287.1020621959655
 20
250.5531383883573
 30
0.0
 10
287.1024281789537
 20
250.5556085759405
 30
0.0
 10
287.102771939033
 20
250.558082075155
 30
0.0
  0
SPLINE
  5
1B4
330
1F
100
AcDbEntity
  8
1
100
AcDbSpline
210
0.0
220
0.0
230
1.0
 70
     8
 71
     3
 72
    10
 73
     6
 74
     0
 42
0.000000001
 43
0.0000000001
 40
0.0
 40
0.0
 40
0.0
 40
0.0
 40
0.5
 40
0.5
 40
1.0
 40
1.0
 40
1.0
 40
1.0
 10
287.1027485678151
 20
250.5580855456142
 30
0.0
 10
287.1185748291438
 20
250.6720406434021
 30
0.0
 10
287.1304562251996
 20
250.7863627541949
 30
0.0
 10
287.1463238274706
 20
251.0157077002208
 30
0.0
 10
287.1502942095997
 20
251.1305664519858
 30
0.0
 10
287.1502942095997
 20
251.2454016019402
 30
0.0
  0
SPLINE
  5
1B5
330
1F
100
AcDbEntity
  8
1
100
AcDbSpline
210
0.0
220
0.0
230
1.0
 70
     8
 71
     3
 72
    19
 73
    15
 74
     0
 42
0.000000001
 43
0.0000000001
 40
0.0
 40
0.0
 40
0.0
 40
0.0
 40
0.250000000000005
 40
0.250000000000005
 40
0.3750000000000056
 40
0.3750000000000056
 40
0.5000000000000063
 40
0.6250000000000068
 40
0.6250000000000068
 40
0.6875000000000071
 40
0.6875000000000071
 40
0.7500000000000075
 40
0.7500000000000075
 40
1.0
 40
1.0
 40
1.0
 40
1.0
 10
286.8558395317465
 20
250.2394949550935
 30
0.0
 10
286.8880195389177
 20
250.2527003075238
 30
0.0
 10
286.9178655028053
 20
250.2697503457975
 30
0.0
 10
286.9592355037273
 20
250.3009322526471
 30
0.0
 10
286.9725364737295
 20
250.3123659910888
 30
0.0
 10
286.9973082781838
 20
250.3366074709484
 30
0.0
 10
287.0203506480443
 20
250.362255427681
 30
0.0
 10
287.0399966937857
 20
250.3906660707389
 30
0.0
 10
287.0534205674884
 20
250.4130399693934
 30
0.0
 10
287.0576791776685
 20
250.4206874523092
 30
0.0
 10
287.0656278615575
 20
250.4361071642861
 30
0.0
 10
287.0693357067448
 20
250.4439070826138
 30
0.0
 10
287.0865716086582
 20
250.4833473284295
 30
0.0
 10
287.0962553526888
 20
250.5162872137899
 30
0.0
 10
287.1016741405857
 20
250.5506721135297
 30
0.0
  0
SPLINE
  5
1B6
330
1F
100
AcDbEntity
  8
1
100
AcDbSpline
210
0.0
220
0.0
230
1.0
 70
     8
 71
     3
 72
     8
 73
     4
 74
     0
 42
0.000000001
 43
0.0000000001
 40
0.0
 40
0.0
 40
0.0
 40
0.0
 40
1.0
 40
1.0
 40
1.0
 40
1.0
 10
286.3758512923346
 20
250.0596202639244
 30
0.0
 10
286.5343796021816
 20
250.1164509054829
 30
0.0
 10
286.6921959047633
 20
250.1755365672737
 30
0.0
 10
286.8492986386982
 20
250.2368820978796
 30
0.0
  0
SPLINE
  5
1B7
330
1F
100
AcDbEntity
  8
1
100
AcDbSpline
210
0.0
220
0.0
230
1.0
 70
     8
 71
     3
 72
     8
 73
     4
 74
     0
 42
0.000000001
 43
0.0000000001
 40
0.0
 40
0.0
 40
0.0
 40
0.0
 40
1.0
 40
1.0
 40
1.0
 40
1.0
 10
286.8493007117002
 20
250.2368777333777
 30
0.0
 10
286.851487939601
 20
250.237731847793
 30
0.0
 10
286.8536676989297
 20
250.2386043354745
 30
0.0
 10
286.8558395317465
 20
250.2394949550935
 30
0.0
  0
SPLINE
  5
1B8
330
1F
100
AcDbEntity
  8
1
100
AcDbSpline
210
0.0
220
0.0
230
1.0
 70
     8
 71
     3
 72
    11
 73
     7
 74
     0
 42
0.000000001
 43
0.0000000001
 40
0.0
 40
0.0
 40
0.0
 40
0.0
 40
0.25
 40
0.5
 40
0.7499999999999999
 40
1.0
 40
1.0
 40
1.0
 40
1.0
 10
286.8077716588986
 20
250.3549790017942
 30
0.0
 10
286.8325648234686
 20
250.3648440258204
 30
0.0
 10
286.872885433107
 20
250.3872440166763
 30
0.0
 10
286.9250641673705
 20
250.437343177966
 30
0.0
 10
286.9617215947188
 20
250.4996405699802
 30
0.0
 10
286.9741802419808
 20
250.5440838379907
 30
0.0
 10
286.9780602284015
 20
250.5705262826611
 30
0.0
  0
SPLINE
  5
1B9
330
1F
100
AcDbEntity
  8
1
100
AcDbSpline
210
0.0
220
0.0
230
1.0
 70
    12
 71
     3
 72
     8
 73
     4
 74
     0
 42
0.000000001
 43
0.0000000001
 40
0.0
 40
0.0
 40
0.0
 40
0.0
 40
1.0
 40
1.0
 40
1.0
 40
1.0
 10
286.9780602284015
 20
250.5705262826611
 30
0.0
 41
1.0
 10
287.0097848279278
 20
250.7965959106568
 30
0.0
 41
0.9983588147778226
 10
287.0254035404487
 20
251.0199337803901
 30
0.0
 41
0.9983588147778226
 10
287.0254035404487
 20
251.2481867532456
 30
0.0
 41
1.0
  0
SPLINE
  5
1BA
330
1F
100
AcDbEntity
  8
1
100
AcDbSpline
210
0.0
220
0.0
230
1.0
 70
    12
 71
     3
 72
     8
 73
     4
 74
     0
 42
0.000000001
 43
0.0000000001
 40
0.0
 40
0.0
 40
0.0
 40
0.0
 40
1.0
 40
1.0
 40
1.0
 40
1.0
 10
287.0254035404487
 20
251.2481867532456
 30
0.0
 41
1.0
 10
287.0254035404487
 20
251.5764212516439
 30
0.0
 41
0.9982883558074163
 10
287.0023308197407
 20
251.8987919991305
 30
0.0
 41
0.9982883558074162
 10
286.9556357991601
 20
252.2229776846792
 30
0.0
 41
1.0
  0
SPLINE
  5
1BB
330
1F
100
AcDbEntity
  8
1
100
AcDbSpline
210
0.0
220
0.0
230
1.0
 70
    12
 71
     3
 72
     8
 73
     4
 74
     0
 42
0.000000001
 43
0.0000000001
 40
0.0
 40
0.0
 40
0.0
 40
0.0
 40
1.0
 40
1.0
 40
1.0
 40
1.0
 10
286.9556357991601
 20
252.2229776846792
 30
0.0
 41
1.0
 10
286.7735996776902
 20
253.4867849193594
 30
0.0
 41
0.9961442649237254
 10
286.4589155261888
 20
254.7148648357995
 30
0.0
 41
0.9961442649237254
 10
286.0118951535355
 20
255.9061741674061
 30
0.0
 41
1.0
  0
SPLINE
  5
1BC
330
1F
100
AcDbEntity
  8
1
100
AcDbSpline
210
0.0
220
0.0
230
1.0
 70
     8
 71
     3
 72
    13
 73
     9
 74
     0
 42
0.000000001
 43
0.0000000001
 40
0.0
 40
0.0
 40
0.0
 40
0.0
 40
0.1249999999999969
 40
0.2500000000000001
 40
0.5
 40
0.75
 40
0.8750000000000031
 40
1.0
 40
1.0
 40
1.0
 40
1.0
 10
286.0118951535355
 20
255.9061741674061
 30
0.0
 10
286.0071271505142
 20
255.9186464298599
 30
0.0
 10
285.997655962822
 20
255.9395327245316
 30
0.0
 10
285.9718724394635
 20
255.9808252392653
 30
0.0
 10
285.9316187093241
 20
256.0225785778507
 30
0.0
 10
285.8814448370322
 20
256.0521550708032
 30
0.0
 10
285.8351947481256
 20
256.0679140042365
 30
0.0
 10
285.8128609773704
 20
256.0723192224916
 30
0.0
 10
285.7997166280581
 20
256.0740753953511
 30
0.0
  0
SPLINE
  5
1BD
330
1F
100
AcDbEntity
  8
1
100
AcDbSpline
210
0.0
220
0.0
230
1.0
 70
    12
 71
     3
 72
     8
 73
     4
 74
     0
 42
0.000000001
 43
0.0000000001
 40
0.0
 40
0.0
 40
0.0
 40
0.0
 40
1.0
 40
1.0
 40
1.0
 40
1.0
 10
285.7997166280581
 20
256.0740753953511
 30
0.0
 41
1.0
 10
285.5750496128564
 20
256.1026671729301
 30
0.0
 41
0.9983588124248203
 10
285.3528751883225
 20
256.1151050361009
 30
0.0
 41
0.9983588124248205
 10
285.1255742957781
 20
256.1117841606765
 30
0.0
 41
1.0
  0
SPLINE
  5
1BE
330
1F
100
AcDbEntity
  8
1
100
AcDbSpline
210
0.0
220
0.0
230
1.0
 70
    12
 71
     3
 72
     8
 73
     4
 74
     0
 42
0.000000001
 43
0.0000000001
 40
0.0
 40
0.0
 40
0.0
 40
0.0
 40
1.0
 40
1.0
 40
1.0
 40
1.0
 10
285.1255742957781
 20
256.1117841606765
 30
0.0
 41
1.0
 10
284.7987091517137
 20
256.1070086474268
 30
0.0
 41
0.9982883558074162
 10
284.4773476086173
 20
256.0791441614739
 30
0.0
 41
0.9982883558074162
 10
284.1538350161928
 20
256.0275269865137
 30
0.0
 41
1.0
  0
SPLINE
  5
1BF
330
1F
100
AcDbEntity
  8
1
100
AcDbSpline
210
0.0
220
0.0
230
1.0
 70
    12
 71
     3
 72
     8
 73
     4
 74
     0
 42
0.000000001
 43
0.0000000001
 40
0.0
 40
0.0
 40
0.0
 40
0.0
 40
1.0
 40
1.0
 40
1.0
 40
1.0
 10
284.1538350161928
 20
256.0275269865137
 30
0.0
 41
1.0
 10
282.8926476866642
 20
255.8263016599878
 30
0.0
 41
0.996144240068283
 10
281.6651089354168
 20
255.4923633414083
 30
0.0
 41
0.996144240068283
 10
280.4722583190679
 20
255.0260388577907
 30
0.0
 41
1.0
  0
LINE
  5
1D6
330
1F
100
AcDbEntity
  8
SK4
100
AcDbLine
 10
145.144248
 20
243.731161
 30
0.0
 11
240.144248
 21
243.731161
 31
0.0
  0
LINE
  5
1D7
330
1F
100
AcDbEntity
  8
4
100
AcDbLine
 10
290.644248
 20
243.731161
 30
0.0
 11
228.244248
 21
243.731161
 31
0.0
  0
MTEXT
  5
1D8
330
1F
100
AcDbEntity
  8
SK6
100
AcDbMText
 10
192.513213
 20
212.002455
 30
0.0
 40
3.5
 41
0.0
 71
     7
 72
     5
  1
\W0.7318;25E3R050A25-SZD07
  7
cesky
 73
     2
 44
0.8433729999999998
  0
MTEXT
  5
2D1
330
1F
100
AcDbEntity
  8
2
100
AcDbMText
 10
304.053474
 20
241.825551
 30
0.0
 40
3.5
 41
0.0
 71
     7
 72
     5
  1
\W0.7045;25
  7
cesky
 11
0.0000000000000001
 21
1.0
 31
0.0
 73
     2
 44
0.8433729999999998
  0
MTEXT
  5
2D2
330
1F
100
AcDbEntity
  8
2
100
AcDbMText
 10
304.053474
 20
235.088051
 30
0.0
 40
3.5
 41
0.0
 71
     7
 72
     5
  1
\W3.0115;\H2.63;%%c\H3.50;
  7
cesky
 11
0.0000000000000001
 21
1.0
 31
0.0
 73
     2
 44
0.8433729999999998
  0
LINE
  5
2D3
330
1F
100
AcDbEntity
  8
2
100
AcDbLine
 10
289.144248
 20
256.231161
 30
0.0
 11
305.240891
 21
256.231161
 31
0.0
  0
LINE
  5
2D4
330
1F
100
AcDbEntity
  8
2
100
AcDbLine
 10
304.240891
 20
256.231161
 30
0.0
 11
304.240891
 21
234.930551
 31
0.0
  0
SOLID
  5
2D5
330
1F
100
AcDbEntity
  8
2
100
AcDbTrace
 10
304.240891
 20
256.231161
 30
0.0
 11
304.858035
 21
252.731164
 31
0.0
 12
303.623747
 22
252.731159
 32
0.0
 13
303.623747
 23
252.731159
 33
0.0
  0
MTEXT
  5
2D6
330
1F
100
AcDbEntity
  8
2
100
AcDbMText
 10
260.329748
 20
276.518751
 30
0.0
 40
3.5
 41
0.0
 71
     7
 72
     5
  1
\W0.7045;50
  7
cesky
 73
     2
 44
0.8433729999999998
  0
LINE
  5
2D7
330
1F
100
AcDbEntity
  8
2
100
AcDbLine
 10
237.144248
 20
243.731161
 30
0.0
 11
237.144248
 21
277.644584
 31
0.0
  0
LINE
  5
2D8
330
1F
100
AcDbEntity
  8
2
100
AcDbLine
 10
287.144248
 20
258.231161
 30
0.0
 11
287.144248
 21
277.644584
 31
0.0
  0
LINE
  5
2D9
330
1F
100
AcDbEntity
  8
2
100
AcDbLine
 10
237.144248
 20
276.644584
 30
0.0
 11
287.144248
 21
276.644584
 31
0.0
  0
SOLID
  5
2DA
330
1F
100
AcDbEntity
  8
2
100
AcDbTrace
 10
237.144248
 20
276.644584
 30
0.0
 11
240.644246
 21
277.261729
 31
0.0
 12
240.644251
 22
276.02744
 32
0.0
 13
240.644251
 23
276.02744
 33
0.0
  0
SOLID
  5
2DB
330
1F
100
AcDbEntity
  8
2
100
AcDbTrace
 10
287.144248
 20
276.644584
 30
0.0
 11
283.644251
 21
276.02744
 31
0.0
 12
283.644246
 22
277.261729
 32
0.0
 13
283.644246
 23
277.261729
 33
0.0
  0
MTEXT
  5
2DC
330
1F
100
AcDbEntity
  8
2
100
AcDbMText
 10
278.339546
 20
260.082815
 30
0.0
 40
3.5
 41
0.0
 71
     7
 72
     5
  1
\W1.7063;1
  7
cesky
 73
     2
 44
0.8433729999999998
  0
LINE
  5
2DD
330
1F
100
AcDbEntity
  8
2
100
AcDbLine
 10
287.144248
 20
258.231161
 30
0.0
 11
287.144248
 21
261.208648
 31
0.0
  0
LINE
  5
2DE
330
1F
100
AcDbEntity
  8
2
100
AcDbLine
 10
286.129046
 20
255.94649
 30
0.0
 11
286.129046
 21
261.208648
 31
0.0
  0
LINE
  5
2DF
330
1F
100
AcDbEntity
  8
2
100
AcDbLine
 10
278.154046
 20
260.208648
 30
0.0
 11
295.894248
 21
260.208648
 31
0.0
  0
SOLID
  5
2E0
330
1F
100
AcDbEntity
  8
2
100
AcDbTrace
 10
287.144248
 20
260.208648
 30
0.0
 11
290.644246
 21
260.825792
 31
0.0
 12
290.644251
 22
259.591504
 32
0.0
 13
290.644251
 23
259.591504
 33
0.0
  0
SOLID
  5
2E1
330
1F
100
AcDbEntity
  8
2
100
AcDbTrace
 10
286.129046
 20
260.208648
 30
0.0
 11
282.629049
 21
259.591504
 31
0.0
 12
282.629044
 22
260.825792
 32
0.0
 13
282.629044
 23
260.825792
 33
0.0
  0
MTEXT
  5
2E2
330
1F
100
AcDbEntity
  8
SK2
100
AcDbMText
 10
137.454459
 20
245.257411
 30
0.0
 40
3.5
 41
0.0
 71
     7
 72
     5
  1
\W0.7045;25
  7
cesky
 11
0.0000000000000001
 21
1.0
 31
0.0
 73
     2
 44
0.8433729999999998
  0
MTEXT
  5
2E3
330
1F
100
AcDbEntity
  8
SK2
100
AcDbMText
 10
137.454459
 20
238.519911
 30
0.0
 40
3.5
 41
0.0
 71
     7
 72
     5
  1
\W3.0115;\H2.63;%%c\H3.50;
  7
cesky
 11
0.0000000000000001
 21
1.0
 31
0.0
 73
     2
 44
0.8433729999999998
  0
LINE
  5
2E4
330
1F
100
AcDbEntity
  8
SK2
100
AcDbLine
 10
148.144248
 20
256.231161
 30
0.0
 11
136.641876
 21
256.231161
 31
0.0
  0
LINE
  5
2E5
330
1F
100
AcDbEntity
  8
SK2
100
AcDbLine
 10
148.144248
 20
231.231161
 30
0.0
 11
136.641876
 21
231.231161
 31
0.0
  0
LINE
  5
2E6
330
1F
100
AcDbEntity
  8
SK2
100
AcDbLine
 10
137.641876
 20
256.231161
 30
0.0
 11
137.641876
 21
231.231161
 31
0.0
  0
SOLID
  5
2E7
330
1F
100
AcDbEntity
  8
SK2
100
AcDbTrace
 10
137.641876
 20
256.231161
 30
0.0
 11
138.25902
 21
252.731164
 31
0.0
 12
137.024731
 22
252.731159
 32
0.0
 13
137.024731
 23
252.731159
 33
0.0
  0
SOLID
  5
2E8
330
1F
100
AcDbEntity
  8
SK2
100
AcDbTrace
 10
137.641876
 20
231.231161
 30
0.0
 11
137.024731
 21
234.731159
 31
0.0
 12
138.25902
 22
234.731164
 32
0.0
 13
138.25902
 23
234.731164
 33
0.0
  0
MTEXT
  5
2E9
330
1F
100
AcDbEntity
  8
SK2
100
AcDbMText
 10
214.067248
 20
299.059456
 30
0.0
 40
3.5
 41
0.0
 71
     7
 72
     5
  1
\W0.7809;140
  7
cesky
 73
     2
 44
0.8433729999999998
  0
LINE
  5
2EA
330
1F
100
AcDbEntity
  8
SK2
100
AcDbLine
 10
147.144248
 20
255.231161
 30
0.0
 11
147.144248
 21
300.185289
 31
0.0
  0
LINE
  5
2EB
330
1F
100
AcDbEntity
  8
SK2
100
AcDbLine
 10
287.144248
 20
258.231161
 30
0.0
 11
287.144248
 21
300.185289
 31
0.0
  0
LINE
  5
2EC
330
1F
100
AcDbEntity
  8
SK2
100
AcDbLine
 10
147.144248
 20
299.185289
 30
0.0
 11
287.144248
 21
299.185289
 31
0.0
  0
SOLID
  5
2ED
330
1F
100
AcDbEntity
  8
SK2
100
AcDbTrace
 10
147.144248
 20
299.185289
 30
0.0
 11
150.644246
 21
299.802434
 31
0.0
 12
150.644251
 22
298.568145
 32
0.0
 13
150.644251
 23
298.568145
 33
0.0
  0
SOLID
  5
2EE
330
1F
100
AcDbEntity
  8
SK2
100
AcDbTrace
 10
287.144248
 20
299.185289
 30
0.0
 11
283.644251
 21
298.568145
 31
0.0
 12
283.644246
 22
299.802434
 32
0.0
 13
283.644246
 23
299.802434
 33
0.0
  0
MTEXT
  5
2EF
330
1F
100
AcDbEntity
  8
SK2
100
AcDbMText
 10
243.329748
 20
285.667092
 30
0.0
 40
3.5
 41
0.0
 71
     7
 72
     5
  1
\W0.6844;84
  7
cesky
 73
     2
 44
0.8433729999999998
  0
LINE
  5
2F0
330
1F
100
AcDbEntity
  8
SK2
100
AcDbLine
 10
287.144248
 20
258.231161
 30
0.0
 11
287.144248
 21
286.792925
 31
0.0
  0
LINE
  5
2F1
330
1F
100
AcDbEntity
  8
SK2
100
AcDbLine
 10
203.144248
 20
244.730735
 30
0.0
 11
203.144248
 21
286.792925
 31
0.0
  0
LINE
  5
2F2
330
1F
100
AcDbEntity
  8
SK2
100
AcDbLine
 10
287.144248
 20
285.792925
 30
0.0
 11
203.144248
 21
285.792925
 31
0.0
  0
SOLID
  5
2F3
330
1F
100
AcDbEntity
  8
SK2
100
AcDbTrace
 10
287.144248
 20
285.792925
 30
0.0
 11
283.644251
 21
285.17578
 31
0.0
 12
283.644246
 22
286.410069
 32
0.0
 13
283.644246
 23
286.410069
 33
0.0
  0
SOLID
  5
2F4
330
1F
100
AcDbEntity
  8
SK2
100
AcDbTrace
 10
203.144248
 20
285.792925
 30
0.0
 11
206.644246
 21
286.410069
 31
0.0
 12
206.644251
 22
285.17578
 32
0.0
 13
206.644251
 23
285.17578
 33
0.0
  0
LINE
  5
30D
330
1F
100
AcDbEntity
  8
CUT
100
AcDbLine
 10
284.1429031201512
 20
256.1492756339985
 30
0.0
 11
284.1429031201512
 21
256.1492756339985
 31
0.0
  0
ARC
  5
30E
330
1F
100
AcDbEntity
  8
CUT
100
AcDbCircle
 10
285.2083198891384
 20
249.2708062923831
 30
0.0
 40
6.960492322758689
100
AcDbArc
 50
90.63137146706131
 51
98.80466486857564
  0
ARC
  5
30F
330
1F
100
AcDbEntity
  8
CUT
100
AcDbCircle
 10
285.7699691471662
 20
255.8334560411759
 30
0.0
 40
0.3603313587089429
100
AcDbArc
 50
81.87407452166844
 51
82.76042713546985
  0
ARC
  5
310
330
1F
100
AcDbEntity
  8
CUT
100
AcDbCircle
 10
285.7478481675903
 20
255.6762425718522
 30
0.0
 40
0.5190932565363095
100
AcDbArc
 50
81.70465048992049
 51
81.90973896084958
  0
LINE
  5
311
330
1F
100
AcDbEntity
  8
CUT
100
AcDbLine
 10
280.212814311548
 20
253.1602555629684
 30
0.0
 11
280.212814311548
 21
253.1602555629684
 31
0.0
  0
ARC
  5
312
330
1F
100
AcDbEntity
  8
CUT
100
AcDbCircle
 10
287.1852942623307
 20
254.1577252281115
 30
0.0
 40
7.043466646257908
100
AcDbArc
 50
179.9988147850019
 51
188.1413851979316
  0
LINE
  5
313
330
1F
100
AcDbEntity
  8
CUT
100
AcDbLine
 10
280.4428231871237
 20
255.1683041332278
 30
0.0
 11
280.4428231871237
 21
255.1683041332278
 31
0.0
  0
ARC
  5
314
330
1F
100
AcDbEntity
  8
CUT
100
AcDbCircle
 10
286.9218751665674
 20
238.1988387582964
 30
0.0
 40
18.16427454272064
100
AcDbArc
 50
98.80030423467236
 51
110.8971807432106
  0
ARC
  5
315
330
1F
100
AcDbEntity
  8
CUT
100
AcDbCircle
 10
286.7698865702794
 20
250.6260910008622
 30
0.0
 40
0.3360764209254431
100
AcDbArc
 50
351.1498441599981
 51
352.0981788641008
  0
ARC
  5
316
330
1F
100
AcDbEntity
  8
CUT
100
AcDbCircle
 10
286.6232017399745
 20
250.648603296277
 30
0.0
 40
0.4844784774166018
100
AcDbArc
 50
350.9687989164728
 51
351.1880810147929
  0
LINE
  5
317
330
1F
100
AcDbEntity
  8
CUT
100
AcDbLine
 10
280.1418276175798
 20
254.1578709285868
 30
0.0
 11
280.1418276175798
 21
254.1578709285868
 31
0.0
  0
ARC
  5
318
330
1F
100
AcDbEntity
  8
CUT
100
AcDbCircle
 10
285.1792057812335
 20
254.1577487113711
 30
0.0
 40
5.037378165136291
100
AcDbArc
 50
172.1218397690433
 51
179.9986098858546
  0
LINE
  5
319
330
1F
100
AcDbEntity
  8
CUT
100
AcDbLine
 10
281.4693729402813
 20
249.1850342328696
 30
0.0
 11
281.4693729402813
 21
249.1850342328696
 31
0.0
  0
ARC
  5
31A
330
1F
100
AcDbEntity
  8
CUT
100
AcDbCircle
 10
281.5278976722781
 20
249.5727707841597
 30
0.0
 40
0.3921285216120553
100
AcDbArc
 50
201.5066105328816
 51
261.416601001256
  0
LINE
  5
31B
330
1F
100
AcDbEntity
  8
CUT
100
AcDbLine
 10
280.1893504351698
 20
254.8482098265709
 30
0.0
 11
280.1893504351698
 21
254.8482098265709
 31
0.0
  0
ARC
  5
31C
330
1F
100
AcDbEntity
  8
CUT
100
AcDbCircle
 10
280.6472347701945
 20
254.7848120981333
 30
0.0
 40
0.4622524594115795
100
AcDbArc
 50
171.1851327537895
 51
172.1170621649457
  0
LINE
  5
31D
330
1F
100
AcDbEntity
  8
CUT
100
AcDbLine
 10
281.4767407835159
 20
249.1840198397674
 30
0.0
 11
281.4767407835159
 21
249.1840198397674
 31
0.0
  0
ARC
  5
31E
330
1F
100
AcDbEntity
  8
CUT
100
AcDbCircle
 10
281.5300435656213
 20
249.5984386634535
 30
0.0
 40
0.4178326794370567
100
AcDbArc
 50
261.6509561007809
 51
262.6708239846171
  0
LINE
  5
31F
330
1F
100
AcDbEntity
  8
CUT
100
AcDbLine
 10
286.1315586713695
 20
255.939939059636
 30
0.0
 11
286.1315586713695
 21
255.939939059636
 31
0.0
  0
ARC
  5
320
330
1F
100
AcDbEntity
  8
CUT
100
AcDbCircle
 10
269.4015931671286
 20
249.6796240548103
 30
0.0
 40
17.86290261219434
100
AcDbArc
 50
8.257417845490229
 51
20.51573470457157
  0
LINE
  5
321
330
1F
100
AcDbEntity
  8
CUT
100
AcDbLine
 10
286.849298638698
 20
250.2596057508638
 30
0.0
 11
286.849298638698
 21
250.2596057508638
 31
0.0
  0
ARC
  5
322
330
1F
100
AcDbEntity
  8
CUT
100
AcDbCircle
 10
280.2774212299597
 20
266.7584322040958
 30
0.0
 40
17.75952834422556
100
AcDbArc
 50
279.3058513264663
 51
291.7185757359435
  0
LINE
  5
323
330
1F
100
AcDbEntity
  8
CUT
100
AcDbLine
 10
282.1605016067941
 20
249.1453695935607
 30
0.0
 11
282.1605016067941
 21
249.1453695935607
 31
0.0
  0
ARC
  5
324
330
1F
100
AcDbEntity
  8
CUT
100
AcDbCircle
 10
282.0898050522179
 20
253.9593208757413
 30
0.0
 40
4.814470370667726
100
AcDbArc
 50
262.6842520619959
 51
270.8413718383661
  0
LINE
  5
325
330
1F
100
AcDbEntity
  8
CUT
100
AcDbLine
 10
280.1904421358858
 20
254.8556487092418
 30
0.0
 11
280.1904421358858
 21
254.8556487092418
 31
0.0
  0
ARC
  5
326
330
1F
100
AcDbEntity
  8
CUT
100
AcDbCircle
 10
280.5879383154476
 20
254.7930257267848
 30
0.0
 40
0.402398870150004
100
AcDbArc
 50
112.1413387473374
 51
171.0470032623797
  0
LINE
  5
327
330
1F
100
AcDbEntity
  8
CUT
100
AcDbLine
 10
281.1630709905583
 20
249.4290131069144
 30
0.0
 11
281.1630709905583
 21
249.4290131069144
 31
0.0
  0
ARC
  5
328
330
1F
100
AcDbEntity
  8
CUT
100
AcDbCircle
 10
281.5828476332051
 20
249.5931700876013
 30
0.0
 40
0.4507326746754178
100
AcDbArc
 50
200.4658148007957
 51
201.3583768195384
  0
LINE
  5
329
330
1F
100
AcDbEntity
  8
CUT
100
AcDbLine
 10
287.0793075156316
 20
252.2451074684125
 30
0.0
 11
287.0793075156316
 21
252.2451074684125
 31
0.0
  0
ARC
  5
32A
330
1F
100
AcDbEntity
  8
CUT
100
AcDbCircle
 10
280.2863569905814
 20
251.2604972028209
 30
0.0
 40
6.863937223699571
100
AcDbArc
 50
0.0021160887277007
 51
8.247350821629614
  0
LINE
  5
32B
330
1F
100
AcDbEntity
  8
CUT
100
AcDbLine
 10
280.4362771377057
 20
255.1657504749086
 30
0.0
 11
280.4362771377057
 21
255.1657504749086
 31
0.0
  0
ARC
  5
32C
330
1F
100
AcDbEntity
  8
CUT
100
AcDbCircle
 10
280.6021697892607
 20
254.7509521272977
 30
0.0
 40
0.4467415819247727
100
AcDbArc
 50
110.8970499285921
 51
111.7982315515694
  0
LINE
  5
32D
330
1F
100
AcDbEntity
  8
CUT
100
AcDbLine
 10
283.1492187070284
 20
249.2326333275808
 30
0.0
 11
283.1492187070284
 21
249.2326333275808
 31
0.0
  0
ARC
  5
32E
330
1F
100
AcDbEntity
  8
CUT
100
AcDbCircle
 10
282.0593981422781
 20
255.9357156943661
 30
0.0
 40
6.791098738735909
100
AcDbArc
 50
270.8530307161071
 51
279.2346303458529
  0
ARC
  5
32F
330
1F
100
AcDbEntity
  8
CUT
100
AcDbCircle
 10
281.9867724134621
 20
251.2658465898002
 30
0.0
 40
5.163524310702197
100
AcDbArc
 50
354.7319280111304
 51
359.943454774968
  0
ARC
  5
330
330
1F
100
AcDbEntity
  8
CUT
100
AcDbCircle
 10
283.2294173439655
 20
251.1623349360368
 30
0.0
 40
3.916639798521372
100
AcDbArc
 50
352.0728357316549
 51
354.570719773784
  0
ARC
  5
331
330
1F
100
AcDbEntity
  8
CUT
100
AcDbCircle
 10
280.0118655110842
 20
251.5878451850746
 30
0.0
 40
7.162163913772356
100
AcDbArc
 50
351.9097316988533
 51
352.2512450968767
  0
LINE
  5
332
330
1F
100
AcDbEntity
  8
CUT
100
AcDbLine
 10
286.129046375047
 20
255.9464895026254
 30
0.0
 11
286.129046375047
 21
255.9464895026254
 31
0.0
  0
ARC
  5
333
330
1F
100
AcDbEntity
  8
CUT
100
AcDbCircle
 10
285.7392839073212
 20
255.7932006304449
 30
0.0
 40
0.4188224678572751
100
AcDbArc
 50
20.50935085045984
 51
21.46911516705468
  0
LINE
  5
334
330
1F
100
AcDbEntity
  8
CUT
100
AcDbLine
 10
286.8558395317465
 20
250.2622648437327
 30
0.0
 11
286.8558395317465
 21
250.2622648437327
 31
0.0
  0
ARC
  5
335
330
1F
100
AcDbEntity
  8
CUT
100
AcDbCircle
 10
286.6962295315277
 20
250.644741800811
 30
0.0
 40
0.4144441758135497
100
AcDbArc
 50
291.6749739248221
 51
292.6510792415281
  0
LINE
  5
336
330
1F
100
AcDbEntity
  8
CUT
100
AcDbLine
 10
281.1605687336683
 20
249.4355741236777
 30
0.0
 11
281.1605687336683
 21
249.4355741236777
 31
0.0
  0
ARC
  5
337
330
1F
100
AcDbEntity
  8
CUT
100
AcDbCircle
 10
297.9369409101792
 20
255.6872835467205
 30
0.0
 40
17.90336655813575
100
AcDbArc
 50
188.1142931366447
 51
200.4378921123671
  0
LINE
  5
338
330
1F
100
AcDbEntity
  8
CUT
100
AcDbLine
 10
287.1016741405857
 20
250.5725535958614
 30
0.0
 11
287.1016741405857
 21
250.5725535958614
 31
0.0
  0
ARC
  5
339
330
1F
100
AcDbEntity
  8
CUT
100
AcDbCircle
 10
286.697850072049
 20
250.6399651584292
 30
0.0
 40
0.4094120138653569
100
AcDbArc
 50
292.6992247907443
 51
350.5228311757861
  0
LINE
  5
33A
330
1F
100
AcDbEntity
  8
CUT
100
AcDbLine
 10
285.8227408062207
 20
256.1899048165816
 30
0.0
 11
285.8227408062207
 21
256.1899048165816
 31
0.0
  0
ARC
  5
33B
330
1F
100
AcDbEntity
  8
CUT
100
AcDbCircle
 10
285.7645202445235
 20
255.8022121155125
 30
0.0
 40
0.3920398758628728
100
AcDbArc
 50
21.59337997684011
 51
81.45960046021842
  0
LINE
  5
33C
330
1F
100
AcDbEntity
  8
CUT
100
AcDbLine
 10
285.1316202203855
 20
256.2308760144473
 30
0.0
 11
285.1316202203855
 21
256.2308760144473
 31
0.0
  0
ARC
  5
33D
330
1F
100
AcDbEntity
  8
CUT
100
AcDbCircle
 10
285.1858860942288
 20
251.2900942762823
 30
0.0
 40
4.941079737187932
100
AcDbArc
 50
82.68065560279032
 51
90.62926894841167
  0
ENDSEC
  0
SECTION
  2
OBJECTS
  0
DICTIONARY
  5
C
330
0
100
AcDbDictionary
281
     1
  3
ACAD_CIP_PREVIOUS_PRODUCT_INFO
350
2CE
  3
ACAD_COLOR
350
2C9
  3
ACAD_DETAILVIEWSTYLE
350
2C5
  3
ACAD_GROUP
350
D
  3
ACAD_LAYOUT
350
1A
  3
ACAD_MATERIAL
350
43
  3
ACAD_MLEADERSTYLE
350
6B
  3
ACAD_MLINESTYLE
350
17
  3
ACAD_PLOTSETTINGS
350
19
  3
ACAD_PLOTSTYLENAME
350
E
  3
ACAD_SCALELIST
350
47
  3
ACAD_SECTIONVIEWSTYLE
350
2C6
  3
ACAD_TABLESTYLE
350
69
  3
ACAD_VISUALSTYLE
350
2A
  3
ACDB_RECOMPOSE_DATA
350
369
  3
AcDbVariableDictionary
350
282
  0
DICTIONARY
  5
34C
330
10
100
AcDbDictionary
280
     1
281
     1
  3
ADSK_XREC_LAYER_RECONCILED
360
34D
  0
DICTIONARY
  5
34E
330
33E
100
AcDbDictionary
280
     1
281
     1
  3
ADSK_XREC_LAYER_RECONCILED
360
34F
  0
DICTIONARY
  5
350
330
33F
100
AcDbDictionary
280
     1
281
     1
  3
ADSK_XREC_LAYER_RECONCILED
360
351
  0
DICTIONARY
  5
352
330
340
100
AcDbDictionary
280
     1
281
     1
  3
ADSK_XREC_LAYER_RECONCILED
360
353
  0
DICTIONARY
  5
354
330
342
100
AcDbDictionary
280
     1
281
     1
  3
ADSK_XREC_LAYER_RECONCILED
360
355
  0
DICTIONARY
  5
356
330
343
100
AcDbDictionary
280
     1
281
     1
  3
ADSK_XREC_LAYER_RECONCILED
360
357
  0
DICTIONARY
  5
358
330
345
100
AcDbDictionary
280
     1
281
     1
  3
ADSK_XREC_LAYER_RECONCILED
360
359
  0
DICTIONARY
  5
35A
330
346
100
AcDbDictionary
280
     1
281
     1
  3
ADSK_XREC_LAYER_RECONCILED
360
35B
  0
DICTIONARY
  5
35C
330
347
100
AcDbDictionary
280
     1
281
     1
  3
ADSK_XREC_LAYER_RECONCILED
360
35D
  0
DICTIONARY
  5
35E
330
348
100
AcDbDictionary
280
     1
281
     1
  3
ADSK_XREC_LAYER_RECONCILED
360
35F
  0
DICTIONARY
  5
360
330
349
100
AcDbDictionary
280
     1
281
     1
  3
ADSK_XREC_LAYER_RECONCILED
360
361
  0
DICTIONARY
  5
362
330
34A
100
AcDbDictionary
280
     1
281
     1
  3
ADSK_XREC_LAYER_RECONCILED
360
363
  0
DICTIONARY
  5
2CF
330
1F
100
AcDbDictionary
280
     1
281
     1
  3
ACAD_SORTENTS
360
2D0
  0
XRECORD
  5
2CE
102
{ACAD_REACTORS
330
C
102
}
330
C
100
AcDbXrecord
280
     1
300
ACD
300
2019
300
87084ACD_2019_0F
  0
DICTIONARY
  5
2C9
102
{ACAD_REACTORS
330
C
102
}
330
C
100
AcDbDictionary
281
     1
  0
DICTIONARY
  5
2C5
102
{ACAD_REACTORS
330
C
102
}
330
C
100
AcDbDictionary
281
     1
  3
Metric50
350
2CB
  0
DICTIONARY
  5
D
102
{ACAD_REACTORS
330
C
102
}
330
C
100
AcDbDictionary
281
     1
  3
NULOVY_BOD
350
34B
  0
DICTIONARY
  5
1A
102
{ACAD_REACTORS
330
C
102
}
330
C
100
AcDbDictionary
281
     1
  3
Layout1
350
1E
  3
Layout2
350
26
  3
Model
350
22
  0
DICTIONARY
  5
43
102
{ACAD_REACTORS
330
C
102
}
330
C
100
AcDbDictionary
281
     1
  3
ByBlock
350
45
  3
ByLayer
350
44
  3
Global
350
46
  0
DICTIONARY
  5
6B
102
{ACAD_REACTORS
330
C
102
}
330
C
100
AcDbDictionary
281
     1
  3
Standard
350
6C
  0
DICTIONARY
  5
17
102
{ACAD_REACTORS
330
C
102
}
330
C
100
AcDbDictionary
281
     1
  3
Standard
350
18
  0
DICTIONARY
  5
19
102
{ACAD_REACTORS
330
C
102
}
330
C
100
AcDbDictionary
281
     1
  0
ACDBDICTIONARYWDFLT
  5
E
102
{ACAD_REACTORS
330
C
102
}
330
C
100
AcDbDictionary
281
     1
  3
Normal
350
F
100
AcDbDictionaryWithDefault
340
F
  0
DICTIONARY
  5
47
102
{ACAD_REACTORS
330
C
102
}
330
C
100
AcDbDictionary
281
     1
  3
A0
350
48
  3
A1
350
49
  3
A2
350
4A
  3
A3
350
4B
  3
A4
350
4C
  3
A5
350
4D
  3
A6
350
4E
  3
A7
350
4F
  3
A8
350
50
  3
A9
350
51
  3
B0
350
52
  3
B1
350
53
  3
B2
350
54
  3
B3
350
55
  3
B4
350
56
  3
B5
350
57
  3
B6
350
58
  3
B7
350
59
  3
B8
350
5A
  3
B9
350
5B
  3
C0
350
5C
  3
C1
350
5D
  3
C2
350
5E
  3
C3
350
5F
  3
C4
350
60
  3
C5
350
61
  3
C6
350
62
  3
C7
350
63
  3
C8
350
64
  3
C9
350
65
  3
D0
350
66
  3
D1
350
67
  3
D2
350
68
  0
DICTIONARY
  5
2C6
102
{ACAD_REACTORS
330
C
102
}
330
C
100
AcDbDictionary
281
     1
  3
Metric50
350
2CA
  0
DICTIONARY
  5
69
102
{ACAD_REACTORS
330
C
102
}
330
C
100
AcDbDictionary
281
     1
  3
Standard
350
6A
  0
DICTIONARY
  5
2A
102
{ACAD_REACTORS
330
C
102
}
330
C
100
AcDbDictionary
281
     1
  3
2dWireframe
350
2F
  3
Basic
350
32
  3
Brighten
350
36
  3
ColorChange
350
3A
  3
Conceptual
350
34
  3
Dim
350
35
  3
EdgeColorOff
350
3D
  3
Facepattern
350
39
  3
Flat
350
2B
  3
FlatWithEdges
350
2C
  3
Gouraud
350
2D
  3
GouraudWithEdges
350
2E
  3
Hidden
350
31
  3
JitterOff
350
3B
  3
Linepattern
350
38
  3
OverhangOff
350
3C
  3
Realistic
350
33
  3
Shaded
350
42
  3
Shaded with edges
350
41
  3
Shades of Gray
350
3E
  3
Sketchy
350
3F
  3
Thicken
350
37
  3
Wireframe
350
30
  3
X-Ray
350
40
  0
XRECORD
  5
369
102
{ACAD_REACTORS
330
C
102
}
330
C
100
AcDbXrecord
280
     1
 90
        1
330
6A
  0
DICTIONARY
  5
282
102
{ACAD_REACTORS
330
C
102
}
330
C
100
AcDbDictionary
281
     1
  3
CANNOSCALE
350
283
  3
CMLEADERSTYLE
350
2C4
  3
CTABLESTYLE
350
2C3
  3
CVIEWDETAILSTYLE
350
364
  3
CVIEWSECTIONSTYLE
350
365
  3
MSLTSCALE
350
284
  3
XCLIPFRAME
350
366
  0
XRECORD
  5
34D
102
{ACAD_REACTORS
330
34C
102
}
330
34C
100
AcDbXrecord
280
     1
290
     1
  0
XRECORD
  5
34F
102
{ACAD_REACTORS
330
34E
102
}
330
34E
100
AcDbXrecord
280
     1
290
     1
  0
XRECORD
  5
351
102
{ACAD_REACTORS
330
350
102
}
330
350
100
AcDbXrecord
280
     1
290
     1
  0
XRECORD
  5
353
102
{ACAD_REACTORS
330
352
102
}
330
352
100
AcDbXrecord
280
     1
290
     1
  0
XRECORD
  5
355
102
{ACAD_REACTORS
330
354
102
}
330
354
100
AcDbXrecord
280
     1
290
     1
  0
XRECORD
  5
357
102
{ACAD_REACTORS
330
356
102
}
330
356
100
AcDbXrecord
280
     1
290
     1
  0
XRECORD
  5
359
102
{ACAD_REACTORS
330
358
102
}
330
358
100
AcDbXrecord
280
     1
290
     1
  0
XRECORD
  5
35B
102
{ACAD_REACTORS
330
35A
102
}
330
35A
100
AcDbXrecord
280
     1
290
     1
  0
XRECORD
  5
35D
102
{ACAD_REACTORS
330
35C
102
}
330
35C
100
AcDbXrecord
280
     1
290
     1
  0
XRECORD
  5
35F
102
{ACAD_REACTORS
330
35E
102
}
330
35E
100
AcDbXrecord
280
     1
290
     1
  0
XRECORD
  5
361
102
{ACAD_REACTORS
330
360
102
}
330
360
100
AcDbXrecord
280
     1
290
     1
  0
XRECORD
  5
363
102
{ACAD_REACTORS
330
362
102
}
330
362
100
AcDbXrecord
280
     1
290
     1
  0
SORTENTSTABLE
  5
2D0
102
{ACAD_REACTORS
330
2CF
102
}
330
2CF
100
AcDbSortentsTable
330
1F
331
2D1
  5
1F3
331
2D2
  5
224
331
2D3
  5
23C
331
2D4
  5
2D1
331
2D5
  5
2D2
331
2D6
  5
2DD
331
2D7
  5
2DE
331
2D8
  5
2DF
331
2D9
  5
2E0
331
2DA
  5
2E1
331
2DB
  5
2E2
331
2DC
  5
2EF
331
2DD
  5
2F0
331
2DE
  5
2F1
331
2DF
  5
2F2
331
2E0
  5
2F3
331
2E1
  5
2F4
331
2E2
  5
2D4
331
2E3
  5
2D5
331
2E4
  5
2D6
331
2E5
  5
2D7
331
2E6
  5
2D8
331
2E7
  5
2D9
331
2E8
  5
2DC
331
2E9
  5
2E3
331
2EA
  5
2E4
331
2EB
  5
2E5
331
2EC
  5
2E6
331
2ED
  5
2E7
331
2EE
  5
2E8
331
2EF
  5
2E9
331
2F0
  5
2EA
331
2F1
  5
2EB
331
2F2
  5
2EC
331
2F3
  5
2ED
331
2F4
  5
2EE
  0
ACDBDETAILVIEWSTYLE
  5
2CB
102
{ACAD_XDICTIONARY
360
39D
102
}
102
{ACAD_REACTORS
330
2C5
102
}
330
2C5
100
AcDbModelDocViewStyle
 70
     0
  3
Metric50
290
     0
100
AcDbDetailViewStyle
 70
     0
 71
     0
 90
        3
 71
     1
340
11
 62
   256
 40
5.0
340
0
 62
   256
 40
5.0
300

 40
0.0
280
     1
 71
     2
340
16
 90
       25
 62
   256
 71
     3
340
11
 62
   256
 40
5.0
 90
        0
 40
15.0
 90
        1
300
%<\AcVar ViewDetailId>% (%<\AcVar ViewScale \f "%sn">%)
 71
     4
340
16
 90
       25
 62
   256
340
16
 90
       25
 62
   256
280
     0
  0
GROUP
  5
34B
102
{ACAD_REACTORS
330
D
102
}
330
D
100
AcDbGroup
300

 70
     0
 71
     1
340
73
  0
LAYOUT
  5
1E
102
{ACAD_REACTORS
330
1A
102
}
330
1A
100
AcDbPlotSettings
  1

  2
none_device
  4

  6

 40
0.0
 41
0.0
 42
0.0
 43
0.0
 44
0.0
 45
0.0
 46
0.0
 47
0.0
 48
0.0
 49
0.0
140
0.0
141
0.0
142
1.0
143
1.0
 70
   688
 72
     0
 73
     0
 74
     5
  7

 75
    16
147
1.0
 76
     0
 77
     2
 78
   300
148
0.0
149
0.0
100
AcDbLayout
  1
Layout1
 70
     1
 71
     1
 10
-0.5
 20
-0.5
 11
5.0
 21
5.0
 12
0.0
 22
0.0
 32
0.0
 14
-0.5
 24
-0.5
 34
-0.5
 15
5.0
 25
5.0
 35
5.0
146
0.0
 13
0.0
 23
0.0
 33
0.0
 16
1.0
 26
0.0
 36
0.0
 17
0.0
 27
1.0
 37
0.0
 76
     0
330
1B
  0
LAYOUT
  5
26
102
{ACAD_REACTORS
330
1A
102
}
330
1A
100
AcDbPlotSettings
  1

  2
none_device
  4

  6

 40
0.0
 41
0.0
 42
0.0
 43
0.0
 44
0.0
 45
0.0
 46
0.0
 47
0.0
 48
0.0
 49
0.0
140
0.0
141
0.0
142
1.0
143
1.0
 70
   688
 72
     0
 73
     0
 74
     5
  7

 75
    16
147
1.0
 76
     0
 77
     2
 78
   300
148
0.0
149
0.0
100
AcDbLayout
  1
Layout2
 70
     1
 71
     2
 10
0.0
 20
0.0
 11
0.0
 21
0.0
 12
0.0
 22
0.0
 32
0.0
 14
0.0
 24
0.0
 34
0.0
 15
0.0
 25
0.0
 35
0.0
146
0.0
 13
0.0
 23
0.0
 33
0.0
 16
1.0
 26
0.0
 36
0.0
 17
0.0
 27
1.0
 37
0.0
 76
     0
330
23
  0
LAYOUT
  5
22
102
{ACAD_REACTORS
330
1A
102
}
330
1A
100
AcDbPlotSettings
  1

  2
none_device
  4
Letter_(8.50_x_11.00_Inches)
  6

 40
6.349999999999999
 41
6.349999999999999
 42
6.350005
 43
6.350005
 44
215.9
 45
279.4
 46
0.0
 47
0.0
 48
0.0
 49
0.0
140
0.0
141
0.0
142
1.0
143
1.0
 70
  1712
 72
     0
 73
     0
 74
     0
  7

 75
     0
147
1.0
 76
     0
 77
     2
 78
   300
148
0.0
149
0.0
100
AcDbLayout
  1
Model
 70
     1
 71
     0
 10
-0.5
 20
-0.5
 11
5.0
 21
5.0
 12
0.0
 22
0.0
 32
0.0
 14
-0.5
 24
-0.5
 34
-0.5
 15
5.0
 25
5.0
 35
5.0
146
0.0
 13
0.0
 23
0.0
 33
0.0
 16
1.0
 26
0.0
 36
0.0
 17
0.0
 27
1.0
 37
0.0
 76
     0
330
1F
331
29
  0
MATERIAL
  5
45
102
{ACAD_XDICTIONARY
360
2B8
102
}
102
{ACAD_REACTORS
330
43
102
}
330
43
100
AcDbMaterial
  1
ByBlock
  0
MATERIAL
  5
44
102
{ACAD_XDICTIONARY
360
2B6
102
}
102
{ACAD_REACTORS
330
43
102
}
330
43
100
AcDbMaterial
  1
ByLayer
  0
MATERIAL
  5
46
102
{ACAD_XDICTIONARY
360
2BA
102
}
102
{ACAD_REACTORS
330
43
102
}
330
43
100
AcDbMaterial
  1
Global
  0
MLEADERSTYLE
  5
6C
102
{ACAD_REACTORS
330
6B
102
}
330
6B
100
AcDbMLeaderStyle
170
     2
171
     1
172
     0
 90
        2
 40
0.0
 41
0.0
173
     1
 91
-1056964608
340
14
 92
       -2
290
     1
 42
0.09
291
     1
 43
0.36
  3
Standard
 44
0.18
300

342
11
174
     1
178
     6
175
     1
176
     0
 93
-1056964608
 45
0.18
292
     0
297
     0
 46
0.18
 94
-1056964608
 47
1.0
 49
1.0
140
1.0
293
     1
141
0.0
294
     1
177
     0
142
1.0
295
     0
296
     0
143
0.125
1001
ACAD_MLEADERVER
1070
     2
  0
MLINESTYLE
  5
18
102
{ACAD_REACTORS
330
17
102
}
330
17
100
AcDbMlineStyle
  2
STANDARD
 70
     0
  3

 62
   256
 51
90.0
 52
90.0
 71
     2
 49
0.5
 62
   256
  6
BYLAYER
 49
-0.5
 62
   256
  6
BYLAYER
  0
ACDBPLACEHOLDER
  5
F
102
{ACAD_REACTORS
330
E
102
}
330
E
  0
SCALE
  5
48
102
{ACAD_REACTORS
330
47
102
}
330
47
100
AcDbScale
 70
     0
300
1:1
140
1.0
141
1.0
290
     1
  0
SCALE
  5
49
102
{ACAD_REACTORS
330
47
102
}
330
47
100
AcDbScale
 70
     0
300
1:2
140
1.0
141
2.0
290
     0
  0
SCALE
  5
4A
102
{ACAD_REACTORS
330
47
102
}
330
47
100
AcDbScale
 70
     0
300
1:4
140
1.0
141
4.0
290
     0
  0
SCALE
  5
4B
102
{ACAD_REACTORS
330
47
102
}
330
47
100
AcDbScale
 70
     0
300
1:5
140
1.0
141
5.0
290
     0
  0
SCALE
  5
4C
102
{ACAD_REACTORS
330
47
102
}
330
47
100
AcDbScale
 70
     0
300
1:8
140
1.0
141
8.0
290
     0
  0
SCALE
  5
4D
102
{ACAD_REACTORS
330
47
102
}
330
47
100
AcDbScale
 70
     0
300
1:10
140
1.0
141
10.0
290
     0
  0
SCALE
  5
4E
102
{ACAD_REACTORS
330
47
102
}
330
47
100
AcDbScale
 70
     0
300
1:16
140
1.0
141
16.0
290
     0
  0
SCALE
  5
4F
102
{ACAD_REACTORS
330
47
102
}
330
47
100
AcDbScale
 70
     0
300
1:20
140
1.0
141
20.0
290
     0
  0
SCALE
  5
50
102
{ACAD_REACTORS
330
47
102
}
330
47
100
AcDbScale
 70
     0
300
1:30
140
1.0
141
30.0
290
     0
  0
SCALE
  5
51
102
{ACAD_REACTORS
330
47
102
}
330
47
100
AcDbScale
 70
     0
300
1:40
140
1.0
141
40.0
290
     0
  0
SCALE
  5
52
102
{ACAD_REACTORS
330
47
102
}
330
47
100
AcDbScale
 70
     0
300
1:50
140
1.0
141
50.0
290
     0
  0
SCALE
  5
53
102
{ACAD_REACTORS
330
47
102
}
330
47
100
AcDbScale
 70
     0
300
1:100
140
1.0
141
100.0
290
     0
  0
SCALE
  5
54
102
{ACAD_REACTORS
330
47
102
}
330
47
100
AcDbScale
 70
     0
300
2:1
140
2.0
141
1.0
290
     0
  0
SCALE
  5
55
102
{ACAD_REACTORS
330
47
102
}
330
47
100
AcDbScale
 70
     0
300
4:1
140
4.0
141
1.0
290
     0
  0
SCALE
  5
56
102
{ACAD_REACTORS
330
47
102
}
330
47
100
AcDbScale
 70
     0
300
8:1
140
8.0
141
1.0
290
     0
  0
SCALE
  5
57
102
{ACAD_REACTORS
330
47
102
}
330
47
100
AcDbScale
 70
     0
300
10:1
140
10.0
141
1.0
290
     0
  0
SCALE
  5
58
102
{ACAD_REACTORS
330
47
102
}
330
47
100
AcDbScale
 70
     0
300
100:1
140
100.0
141
1.0
290
     0
  0
SCALE
  5
59
102
{ACAD_REACTORS
330
47
102
}
330
47
100
AcDbScale
 70
     0
300
1/128" = 1'-0"
140
0.007812
141
12.0
290
     0
  0
SCALE
  5
5A
102
{ACAD_REACTORS
330
47
102
}
330
47
100
AcDbScale
 70
     0
300
1/64" = 1'-0"
140
0.015625
141
12.0
290
     0
  0
SCALE
  5
5B
102
{ACAD_REACTORS
330
47
102
}
330
47
100
AcDbScale
 70
     0
300
1/32" = 1'-0"
140
0.03125
141
12.0
290
     0
  0
SCALE
  5
5C
102
{ACAD_REACTORS
330
47
102
}
330
47
100
AcDbScale
 70
     0
300
1/16" = 1'-0"
140
0.0625
141
12.0
290
     0
  0
SCALE
  5
5D
102
{ACAD_REACTORS
330
47
102
}
330
47
100
AcDbScale
 70
     0
300
3/32" = 1'-0"
140
0.09375
141
12.0
290
     0
  0
SCALE
  5
5E
102
{ACAD_REACTORS
330
47
102
}
330
47
100
AcDbScale
 70
     0
300
1/8" = 1'-0"
140
0.125
141
12.0
290
     0
  0
SCALE
  5
5F
102
{ACAD_REACTORS
330
47
102
}
330
47
100
AcDbScale
 70
     0
300
3/16" = 1'-0"
140
0.1875
141
12.0
290
     0
  0
SCALE
  5
60
102
{ACAD_REACTORS
330
47
102
}
330
47
100
AcDbScale
 70
     0
300
1/4" = 1'-0"
140
0.25
141
12.0
290
     0
  0
SCALE
  5
61
102
{ACAD_REACTORS
330
47
102
}
330
47
100
AcDbScale
 70
     0
300
3/8" = 1'-0"
140
0.375
141
12.0
290
     0
  0
SCALE
  5
62
102
{ACAD_REACTORS
330
47
102
}
330
47
100
AcDbScale
 70
     0
300
1/2" = 1'-0"
140
0.5
141
12.0
290
     0
  0
SCALE
  5
63
102
{ACAD_REACTORS
330
47
102
}
330
47
100
AcDbScale
 70
     0
300
3/4" = 1'-0"
140
0.75
141
12.0
290
     0
  0
SCALE
  5
64
102
{ACAD_REACTORS
330
47
102
}
330
47
100
AcDbScale
 70
     0
300
1" = 1'-0"
140
1.0
141
12.0
290
     0
  0
SCALE
  5
65
102
{ACAD_REACTORS
330
47
102
}
330
47
100
AcDbScale
 70
     0
300
1-1/2" = 1'-0"
140
1.5
141
12.0
290
     0
  0
SCALE
  5
66
102
{ACAD_REACTORS
330
47
102
}
330
47
100
AcDbScale
 70
     0
300
3" = 1'-0"
140
3.0
141
12.0
290
     0
  0
SCALE
  5
67
102
{ACAD_REACTORS
330
47
102
}
330
47
100
AcDbScale
 70
     0
300
6" = 1'-0"
140
6.0
141
12.0
290
     0
  0
SCALE
  5
68
102
{ACAD_REACTORS
330
47
102
}
330
47
100
AcDbScale
 70
     0
300
1'-0" = 1'-0"
140
12.0
141
12.0
290
     0
  0
ACDBSECTIONVIEWSTYLE
  5
2CA
102
{ACAD_XDICTIONARY
360
39B
102
}
102
{ACAD_REACTORS
330
2C6
102
}
330
2C6
100
AcDbModelDocViewStyle
 70
     0
  3
Metric50
290
     0
100
AcDbSectionViewStyle
 70
     0
 71
     0
 90
      102
 71
     1
340
11
 62
   256
 40
5.0
340
0
340
0
 62
   256
 40
5.0
300
I, O, Q, S, X, Z
 40
10.0
 90
        0
 40
2.5
 90
        0
 71
     2
340
16
 90
       25
 62
   256
340
16
 90
       50
 62
   256
 40
5.0
 40
2.5
 40
5.0
 71
     3
340
11
 62
   256
 40
5.0
 90
        0
 40
15.0
 90
        1
300
%<\AcVar ViewSectionStartId>%-%<\AcVar ViewSectionEndId>% (%<\AcVar ViewScale \f "%sn">%)
 71
     4
 62
   256
 62
   257
300
ANSI31
 40
1.0
 90
        0
290
     0
290
     0
 90
        6
 40
0.0
 40
1.570796326794896
 40
0.2617993877991494
 40
1.308996938995747
 40
-0.2617993877991494
 40
1.832595714594046
  0
TABLESTYLE
  5
6A
102
{ACAD_XDICTIONARY
360
2BC
102
}
102
{ACAD_REACTORS
330
69
102
}
330
69
100
AcDbTableStyle
  3
Standard
 70
     0
 71
     0
 40
0.06
 41
0.06
280
     0
281
     0
  7
Standard
140
0.18
170
     2
 62
     0
 63
     7
283
     0
274
    -2
284
     1
 64
     0
275
    -2
285
     1
 65
     0
276
    -2
286
     1
 66
     0
277
    -2
287
     1
 67
     0
278
    -2
288
     1
 68
     0
279
    -2
289
     1
 69
     0
  7
Standard
140
0.25
170
     5
 62
     0
 63
     7
283
     0
274
    -2
284
     1
 64
     0
275
    -2
285
     1
 65
     0
276
    -2
286
     1
 66
     0
277
    -2
287
     1
 67
     0
278
    -2
288
     1
 68
     0
279
    -2
289
     1
 69
     0
  7
Standard
140
0.18
170
     5
 62
     0
 63
     7
283
     0
274
    -2
284
     1
 64
     0
275
    -2
285
     1
 65
     0
276
    -2
286
     1
 66
     0
277
    -2
287
     1
 67
     0
278
    -2
288
     1
 68
     0
279
    -2
289
     1
 69
     0
  0
VISUALSTYLE
  5
2F
102
{ACAD_XDICTIONARY
360
372
102
}
102
{ACAD_REACTORS
330
2A
102
}
330
2A
100
AcDbVisualStyle
  2

 70
     4
 71
     0
 72
     2
 73
     0
 90
        0
 40
-0.6
 41
-30.0
 62
     5
 63
     7
421
 16777215
 74
     1
 91
        4
 64
     7
 65
   257
 75
     1
175
     1
 42
1.0
 92
        0
 66
   257
 43
1.0
 76
     1
 77
     6
 78
     2
 67
     7
 79
     5
170
     0
171
     0
290
     0
174
     0
 93
        1
 44
0.0
173
     0
291
     0
 45
0.0
1001
ACAD
1000
AcDbSavedByObjectVersion
1070
     0
  0
VISUALSTYLE
  5
32
102
{ACAD_XDICTIONARY
360
378
102
}
102
{ACAD_REACTORS
330
2A
102
}
330
2A
100
AcDbVisualStyle
  2

 70
     7
 71
     1
 72
     0
 73
     1
 90
        0
 40
-0.6
 41
-30.0
 62
     5
 63
     7
421
 16777215
 74
     0
 91
        4
 64
     7
 65
   257
 75
     1
175
     1
 42
1.0
 92
        8
 66
     7
 43
1.0
 76
     1
 77
     6
 78
     2
 67
     7
 79
     5
170
     0
171
     0
290
     0
174
     0
 93
        1
 44
0.0
173
     0
291
     1
 45
0.0
1001
ACAD
1000
AcDbSavedByObjectVersion
1070
     0
  0
VISUALSTYLE
  5
36
102
{ACAD_XDICTIONARY
360
380
102
}
102
{ACAD_REACTORS
330
2A
102
}
330
2A
100
AcDbVisualStyle
  2

 70
    12
 71
     2
 72
     2
 73
     0
 90
        0
 40
-0.6
 41
-30.0
 62
     5
 63
     7
421
 16777215
 74
     1
 91
        4
 64
     7
 65
   257
 75
     1
175
     1
 42
1.0
 92
        8
 66
     7
 43
1.0
 76
     1
 77
     6
 78
     2
 67
     7
 79
     5
170
     0
171
     0
290
     0
174
     0
 93
        1
 44
50.0
173
     0
291
     1
 45
0.0
1001
ACAD
1000
AcDbSavedByObjectVersion
1070
     0
  0
VISUALSTYLE
  5
3A
102
{ACAD_XDICTIONARY
360
388
102
}
102
{ACAD_REACTORS
330
2A
102
}
330
2A
100
AcDbVisualStyle
  2

 70
    16
 71
     2
 72
     2
 73
     3
 90
        0
 40
-0.6
 41
-30.0
 62
     5
 63
     8
421
  8421504
 74
     1
 91
        4
 64
     7
 65
   257
 75
     1
175
     1
 42
1.0
 92
        8
 66
     8
424
  8421504
 43
1.0
 76
     1
 77
     6
 78
     2
 67
     7
 79
     5
170
     0
171
     0
290
     0
174
     0
 93
        1
 44
0.0
173
     0
291
     1
 45
0.0
1001
ACAD
1000
AcDbSavedByObjectVersion
1070
     0
  0
VISUALSTYLE
  5
34
102
{ACAD_XDICTIONARY
360
37C
102
}
102
{ACAD_REACTORS
330
2A
102
}
330
2A
100
AcDbVisualStyle
  2

 70
     9
 71
     3
 72
     2
 73
     0
 90
        0
 40
-0.6
 41
-30.0
 62
     5
 63
     7
421
 16777215
 74
     2
 91
        2
 64
     7
 65
   257
 75
     1
175
     1
 42
179.0
 92
        8
 66
     7
 43
1.0
 76
     1
 77
     6
 78
     2
 67
     7
 79
     3
170
     0
171
     0
290
     0
174
     0
 93
        1
 44
0.0
173
     0
291
     0
 45
0.0
1001
ACAD
1000
AcDbSavedByObjectVersion
1070
     0
  0
VISUALSTYLE
  5
35
102
{ACAD_XDICTIONARY
360
37E
102
}
102
{ACAD_REACTORS
330
2A
102
}
330
2A
100
AcDbVisualStyle
  2

 70
    11
 71
     2
 72
     2
 73
     0
 90
        0
 40
-0.6
 41
-30.0
 62
     5
 63
     7
421
 16777215
 74
     1
 91
        4
 64
     7
 65
   257
 75
     1
175
     1
 42
1.0
 92
        8
 66
     7
 43
1.0
 76
     1
 77
     6
 78
     2
 67
     7
 79
     5
170
     0
171
     0
290
     0
174
     0
 93
        1
 44
-50.0
173
     0
291
     1
 45
0.0
1001
ACAD
1000
AcDbSavedByObjectVersion
1070
     0
  0
VISUALSTYLE
  5
3D
102
{ACAD_XDICTIONARY
360
38E
102
}
102
{ACAD_REACTORS
330
2A
102
}
330
2A
100
AcDbVisualStyle
  2

 70
    22
 71
     2
 72
     2
 73
     0
 90
        0
 40
-0.6
 41
-30.0
 62
     5
 63
     7
421
 16777215
 74
     1
 91
        4
 64
     7
 65
   257
 75
     1
175
     1
 42
1.0
 92
        8
 66
     7
 43
1.0
 76
     1
 77
     6
 78
     2
 67
     7
 79
     5
170
     0
171
     0
290
     0
174
     0
 93
        1
 44
0.0
173
     0
291
     1
 45
0.0
1001
ACAD
1000
AcDbSavedByObjectVersion
1070
     0
  0
VISUALSTYLE
  5
39
102
{ACAD_XDICTIONARY
360
386
102
}
102
{ACAD_REACTORS
330
2A
102
}
330
2A
100
AcDbVisualStyle
  2

 70
    15
 71
     2
 72
     2
 73
     0
 90
        0
 40
-0.6
 41
-30.0
 62
     5
 63
     7
421
 16777215
 74
     1
 91
        4
 64
     7
 65
   257
 75
     1
175
     1
 42
1.0
 92
        8
 66
     7
 43
1.0
 76
     1
 77
     6
 78
     2
 67
     7
 79
     5
170
     0
171
     0
290
     0
174
     0
 93
        1
 44
0.0
173
     0
291
     1
 45
0.0
1001
ACAD
1000
AcDbSavedByObjectVersion
1070
     0
  0
VISUALSTYLE
  5
2B
102
{ACAD_XDICTIONARY
360
36A
102
}
102
{ACAD_REACTORS
330
2A
102
}
330
2A
100
AcDbVisualStyle
  2

 70
     0
 71
     2
 72
     1
 73
     1
 90
        2
 40
-0.6
 41
30.0
 62
     5
 63
     7
421
 16777215
 74
     0
 91
        0
 64
     7
 65
   257
 75
     1
175
     1
 42
1.0
 92
        8
 66
     7
 43
1.0
 76
     1
 77
     6
 78
     2
 67
     7
 79
     5
170
     0
171
     0
290
     0
174
     0
 93
       13
 44
0.0
173
     0
291
     1
 45
0.0
1001
ACAD
1000
AcDbSavedByObjectVersion
1070
     0
  0
VISUALSTYLE
  5
2C
102
{ACAD_XDICTIONARY
360
36C
102
}
102
{ACAD_REACTORS
330
2A
102
}
330
2A
100
AcDbVisualStyle
  2

 70
     1
 71
     2
 72
     1
 73
     1
 90
        2
 40
-0.6
 41
30.0
 62
     5
 63
     7
421
 16777215
 74
     1
 91
        0
 64
     7
 65
   257
 75
     1
175
     1
 42
1.0
 92
        0
 66
   257
 43
1.0
 76
     1
 77
     6
 78
     2
 67
     7
 79
     5
170
     0
171
     0
290
     0
174
     0
 93
       13
 44
0.0
173
     0
291
     1
 45
0.0
1001
ACAD
1000
AcDbSavedByObjectVersion
1070
     0
  0
VISUALSTYLE
  5
2D
102
{ACAD_XDICTIONARY
360
36E
102
}
102
{ACAD_REACTORS
330
2A
102
}
330
2A
100
AcDbVisualStyle
  2

 70
     2
 71
     2
 72
     2
 73
     1
 90
        2
 40
-0.6
 41
30.0
 62
     5
 63
     7
421
 16777215
 74
     0
 91
        0
 64
     7
 65
   257
 75
     1
175
     1
 42
1.0
 92
        0
 66
     7
 43
1.0
 76
     1
 77
     6
 78
     2
 67
     7
 79
     5
170
     0
171
     0
290
     0
174
     0
 93
       13
 44
0.0
173
     0
291
     1
 45
0.0
1001
ACAD
1000
AcDbSavedByObjectVersion
1070
     0
  0
VISUALSTYLE
  5
2E
102
{ACAD_XDICTIONARY
360
370
102
}
102
{ACAD_REACTORS
330
2A
102
}
330
2A
100
AcDbVisualStyle
  2

 70
     3
 71
     2
 72
     2
 73
     1
 90
        2
 40
-0.6
 41
30.0
 62
     5
 63
     7
421
 16777215
 74
     1
 91
        0
 64
     7
 65
   257
 75
     1
175
     1
 42
1.0
 92
        0
 66
   257
 43
1.0
 76
     1
 77
     6
 78
     2
 67
     7
 79
     5
170
     0
171
     0
290
     0
174
     0
 93
       13
 44
0.0
173
     0
291
     1
 45
0.0
1001
ACAD
1000
AcDbSavedByObjectVersion
1070
     0
  0
VISUALSTYLE
  5
31
102
{ACAD_XDICTIONARY
360
376
102
}
102
{ACAD_REACTORS
330
2A
102
}
330
2A
100
AcDbVisualStyle
  2

 70
     6
 71
     1
 72
     2
 73
     2
 90
        0
 40
-0.6
 41
-30.0
 62
     5
 63
     7
421
 16777215
 74
     2
 91
        2
 64
     7
 65
   257
 75
     2
175
     1
 42
40.0
 92
        0
 66
   257
 43
1.0
 76
     1
 77
     6
 78
     2
 67
     7
 79
     3
170
     0
171
     0
290
     0
174
     0
 93
        1
 44
0.0
173
     0
291
     0
 45
0.0
1001
ACAD
1000
AcDbSavedByObjectVersion
1070
     0
  0
VISUALSTYLE
  5
3B
102
{ACAD_XDICTIONARY
360
38A
102
}
102
{ACAD_REACTORS
330
2A
102
}
330
2A
100
AcDbVisualStyle
  2

 70
    20
 71
     2
 72
     2
 73
     0
 90
        0
 40
-0.6
 41
-30.0
 62
     5
 63
     7
421
 16777215
 74
     1
 91
        4
 64
     7
 65
   257
 75
     1
175
     1
 42
1.0
 92
       10
 66
     7
 43
1.0
 76
     1
 77
     6
 78
     2
 67
     7
 79
     5
170
     0
171
     0
290
     0
174
     0
 93
        1
 44
0.0
173
     0
291
     1
 45
0.0
1001
ACAD
1000
AcDbSavedByObjectVersion
1070
     0
  0
VISUALSTYLE
  5
38
102
{ACAD_XDICTIONARY
360
384
102
}
102
{ACAD_REACTORS
330
2A
102
}
330
2A
100
AcDbVisualStyle
  2

 70
    14
 71
     2
 72
     2
 73
     0
 90
        0
 40
-0.6
 41
-30.0
 62
     5
 63
     7
421
 16777215
 74
     1
 91
        4
 64
     7
 65
   257
 75
     7
175
     7
 42
1.0
 92
        8
 66
     7
 43
1.0
 76
     1
 77
     6
 78
     2
 67
     7
 79
     5
170
     0
171
     0
290
     0
174
     0
 93
        1
 44
0.0
173
     0
291
     1
 45
0.0
1001
ACAD
1000
AcDbSavedByObjectVersion
1070
     0
  0
VISUALSTYLE
  5
3C
102
{ACAD_XDICTIONARY
360
38C
102
}
102
{ACAD_REACTORS
330
2A
102
}
330
2A
100
AcDbVisualStyle
  2

 70
    21
 71
     2
 72
     2
 73
     0
 90
        0
 40
-0.6
 41
-30.0
 62
     5
 63
     7
421
 16777215
 74
     1
 91
        4
 64
     7
 65
   257
 75
     1
175
     1
 42
1.0
 92
        9
 66
     7
 43
1.0
 76
     1
 77
     6
 78
     2
 67
     7
 79
     5
170
     0
171
     0
290
     0
174
     0
 93
        1
 44
0.0
173
     0
291
     1
 45
0.0
1001
ACAD
1000
AcDbSavedByObjectVersion
1070
     0
  0
VISUALSTYLE
  5
33
102
{ACAD_XDICTIONARY
360
37A
102
}
102
{ACAD_REACTORS
330
2A
102
}
330
2A
100
AcDbVisualStyle
  2

 70
     8
 71
     2
 72
     3
 73
     0
 90
        2
 40
-0.6
 41
30.0
 62
     5
 63
     7
421
 16777215
 74
     0
 91
        0
 64
     7
 65
   257
 75
     1
175
     1
 42
1.0
 92
        8
 66
   257
 43
1.0
 76
     1
 77
     6
 78
     2
 67
     7
 79
     3
170
     0
171
     0
290
     0
174
     0
 93
       13
 44
0.0
173
     0
291
     0
 45
0.0
1001
ACAD
1000
AcDbSavedByObjectVersion
1070
     0
  0
VISUALSTYLE
  5
42
102
{ACAD_XDICTIONARY
360
398
102
}
102
{ACAD_REACTORS
330
2A
102
}
330
2A
100
AcDbVisualStyle
  2

 70
    27
 71
     2
 72
     2
 73
     1
 90
        2
 40
-0.6
 41
30.0
 62
     5
 63
     7
421
 16777215
 74
     0
 91
        4
 64
     7
 65
   257
 75
     1
175
     1
 42
1.0
 92
        8
 66
   257
 43
1.0
 76
     1
 77
     6
 78
     2
 67
     8
425
  7895160
 79
     3
170
     0
171
     0
290
     0
174
     0
 93
        5
 44
0.0
173
     0
291
     0
 45
0.0
1001
ACAD
1000
AcDbSavedByObjectVersion
1070
     0
  0
VISUALSTYLE
  5
41
102
{ACAD_XDICTIONARY
360
396
102
}
102
{ACAD_REACTORS
330
2A
102
}
330
2A
100
AcDbVisualStyle
  2

 70
    26
 71
     2
 72
     2
 73
     1
 90
        2
 40
-0.6
 41
30.0
 62
     5
 63
     7
421
 16777215
 74
     1
 91
       10
 64
     7
 65
   257
 75
     2
175
     1
 42
1.0
 92
        8
 66
   257
 43
1.0
 76
     1
 77
     6
 78
     2
 67
     7
 79
     3
170
     0
171
     0
290
     0
174
     0
 93
        5
 44
0.0
173
     0
291
     0
 45
0.0
1001
ACAD
1000
AcDbSavedByObjectVersion
1070
     0
  0
VISUALSTYLE
  5
3E
102
{ACAD_XDICTIONARY
360
390
102
}
102
{ACAD_REACTORS
330
2A
102
}
330
2A
100
AcDbVisualStyle
  2

 70
    23
 71
     2
 72
     2
 73
     3
 90
        0
 40
-0.6
 41
-30.0
 62
     5
 63
     7
421
 16777215
 74
     2
 91
        2
 64
     7
 65
     7
 75
     1
175
     1
 42
40.0
 92
        8
 66
     7
 43
1.0
 76
     1
 77
     6
 78
     2
 67
     7
 79
     3
170
     0
171
     0
290
     0
174
     0
 93
        1
 44
0.0
173
     0
291
     0
 45
0.0
1001
ACAD
1000
AcDbSavedByObjectVersion
1070
     0
  0
VISUALSTYLE
  5
3F
102
{ACAD_XDICTIONARY
360
392
102
}
102
{ACAD_REACTORS
330
2A
102
}
330
2A
100
AcDbVisualStyle
  2

 70
    24
 71
     1
 72
     2
 73
     2
 90
        0
 40
-0.6
 41
-30.0
 62
     5
 63
     7
421
 16777215
 74
     2
 91
        2
 64
     7
 65
     7
 75
     1
175
     1
 42
40.0
 92
       11
 66
     7
 43
1.0
 76
     1
 77
     6
 78
     2
 67
     7
 79
     6
170
     0
171
     0
290
     0
174
     0
 93
        1
 44
0.0
173
     0
291
     0
 45
0.0
1001
ACAD
1000
AcDbSavedByObjectVersion
1070
     0
  0
VISUALSTYLE
  5
37
102
{ACAD_XDICTIONARY
360
382
102
}
102
{ACAD_REACTORS
330
2A
102
}
330
2A
100
AcDbVisualStyle
  2

 70
    13
 71
     2
 72
     2
 73
     0
 90
        0
 40
-0.6
 41
-30.0
 62
     5
 63
     7
421
 16777215
 74
     1
 91
        4
 64
     7
 65
   257
 75
     1
175
     1
 42
1.0
 92
       12
 66
     7
 43
1.0
 76
     1
 77
     6
 78
     2
 67
     7
 79
     5
170
     0
171
     0
290
     0
174
     0
 93
        1
 44
0.0
173
     0
291
     1
 45
0.0
1001
ACAD
1000
AcDbSavedByObjectVersion
1070
     0
  0
VISUALSTYLE
  5
30
102
{ACAD_XDICTIONARY
360
374
102
}
102
{ACAD_REACTORS
330
2A
102
}
330
2A
100
AcDbVisualStyle
  2

 70
     5
 71
     0
 72
     2
 73
     0
 90
        0
 40
-0.6
 41
-30.0
 62
     5
 63
     7
421
 16777215
 74
     1
 91
        4
 64
     7
 65
   257
 75
     1
175
     1
 42
1.0
 92
        0
 66
   257
 43
1.0
 76
     1
 77
     6
 78
     2
 67
     7
 79
     3
170
     0
171
     0
290
     0
174
     0
 93
        1
 44
0.0
173
     0
291
     0
 45
0.0
1001
ACAD
1000
AcDbSavedByObjectVersion
1070
     0
  0
VISUALSTYLE
  5
40
102
{ACAD_XDICTIONARY
360
394
102
}
102
{ACAD_REACTORS
330
2A
102
}
330
2A
100
AcDbVisualStyle
  2

 70
    25
 71
     2
 72
     2
 73
     1
 90
        1
 40
0.5
 41
-30.0
 62
     5
 63
     7
421
 16777215
 74
     1
 91
        0
 64
     7
 65
   257
 75
     1
175
     1
 42
1.0
 92
        8
 66
     7
 43
1.0
 76
     1
 77
     6
 78
     2
 67
     7
 79
     3
170
     0
171
     0
290
     0
174
     0
 93
       13
 44
0.0
173
     0
291
     0
 45
0.0
1001
ACAD
1000
AcDbSavedByObjectVersion
1070
     0
  0
DICTIONARYVAR
  5
283
102
{ACAD_REACTORS
330
282
102
}
330
282
100
DictionaryVariables
280
     0
  1
1:1
  0
DICTIONARYVAR
  5
2C4
102
{ACAD_REACTORS
330
282
102
}
330
282
100
DictionaryVariables
280
     0
  1
STANDARD
  0
DICTIONARYVAR
  5
2C3
102
{ACAD_REACTORS
330
282
102
}
330
282
100
DictionaryVariables
280
     0
  1
STANDARD
  0
DICTIONARYVAR
  5
364
102
{ACAD_REACTORS
330
282
102
}
330
282
100
DictionaryVariables
280
     0
  1
Metric50
  0
DICTIONARYVAR
  5
365
102
{ACAD_REACTORS
330
282
102
}
330
282
100
DictionaryVariables
280
     0
  1
Metric50
  0
DICTIONARYVAR
  5
284
102
{ACAD_REACTORS
330
282
102
}
330
282
100
DictionaryVariables
280
     0
  1
1
  0
DICTIONARYVAR
  5
366
102
{ACAD_REACTORS
330
282
102
}
330
282
100
DictionaryVariables
280
     0
  1
2
  0
DICTIONARY
  5
39D
330
2CB
100
AcDbDictionary
280
     1
281
     1
  3
ACAD_XREC_ROUNDTRIP
360
39E
  0
DICTIONARY
  5
2B8
330
45
100
AcDbDictionary
280
     1
281
     1
  3
ACAD_XREC_ROUNDTRIP
360
2B9
  0
DICTIONARY
  5
2B6
330
44
100
AcDbDictionary
280
     1
281
     1
  3
ACAD_XREC_ROUNDTRIP
360
2B7
  0
DICTIONARY
  5
2BA
330
46
100
AcDbDictionary
280
     1
281
     1
  3
ACAD_XREC_ROUNDTRIP
360
2BB
  0
DICTIONARY
  5
39B
330
2CA
100
AcDbDictionary
280
     1
281
     1
  3
ACAD_XREC_ROUNDTRIP
360
39C
  0
DICTIONARY
  5
2BC
330
6A
100
AcDbDictionary
280
     1
281
     1
  3
ACAD_ROUNDTRIP_2008_TABLESTYLE_CELLSTYLEMAP
360
368
  3
ACAD_XREC_ROUNDTRIP
360
39A
  0
DICTIONARY
  5
372
330
2F
100
AcDbDictionary
280
     1
281
     1
  3
ACAD_XREC_ROUNDTRIP
360
373
  0
DICTIONARY
  5
378
330
32
100
AcDbDictionary
280
     1
281
     1
  3
ACAD_XREC_ROUNDTRIP
360
379
  0
DICTIONARY
  5
380
330
36
100
AcDbDictionary
280
     1
281
     1
  3
ACAD_XREC_ROUNDTRIP
360
381
  0
DICTIONARY
  5
388
330
3A
100
AcDbDictionary
280
     1
281
     1
  3
ACAD_XREC_ROUNDTRIP
360
389
  0
DICTIONARY
  5
37C
330
34
100
AcDbDictionary
280
     1
281
     1
  3
ACAD_XREC_ROUNDTRIP
360
37D
  0
DICTIONARY
  5
37E
330
35
100
AcDbDictionary
280
     1
281
     1
  3
ACAD_XREC_ROUNDTRIP
360
37F
  0
DICTIONARY
  5
38E
330
3D
100
AcDbDictionary
280
     1
281
     1
  3
ACAD_XREC_ROUNDTRIP
360
38F
  0
DICTIONARY
  5
386
330
39
100
AcDbDictionary
280
     1
281
     1
  3
ACAD_XREC_ROUNDTRIP
360
387
  0
DICTIONARY
  5
36A
330
2B
100
AcDbDictionary
280
     1
281
     1
  3
ACAD_XREC_ROUNDTRIP
360
36B
  0
DICTIONARY
  5
36C
330
2C
100
AcDbDictionary
280
     1
281
     1
  3
ACAD_XREC_ROUNDTRIP
360
36D
  0
DICTIONARY
  5
36E
330
2D
100
AcDbDictionary
280
     1
281
     1
  3
ACAD_XREC_ROUNDTRIP
360
36F
  0
DICTIONARY
  5
370
330
2E
100
AcDbDictionary
280
     1
281
     1
  3
ACAD_XREC_ROUNDTRIP
360
371
  0
DICTIONARY
  5
376
330
31
100
AcDbDictionary
280
     1
281
     1
  3
ACAD_XREC_ROUNDTRIP
360
377
  0
DICTIONARY
  5
38A
330
3B
100
AcDbDictionary
280
     1
281
     1
  3
ACAD_XREC_ROUNDTRIP
360
38B
  0
DICTIONARY
  5
384
330
38
100
AcDbDictionary
280
     1
281
     1
  3
ACAD_XREC_ROUNDTRIP
360
385
  0
DICTIONARY
  5
38C
330
3C
100
AcDbDictionary
280
     1
281
     1
  3
ACAD_XREC_ROUNDTRIP
360
38D
  0
DICTIONARY
  5
37A
330
33
100
AcDbDictionary
280
     1
281
     1
  3
ACAD_XREC_ROUNDTRIP
360
37B
  0
DICTIONARY
  5
398
330
42
100
AcDbDictionary
280
     1
281
     1
  3
ACAD_XREC_ROUNDTRIP
360
399
  0
DICTIONARY
  5
396
330
41
100
AcDbDictionary
280
     1
281
     1
  3
ACAD_XREC_ROUNDTRIP
360
397
  0
DICTIONARY
  5
390
330
3E
100
AcDbDictionary
280
     1
281
     1
  3
ACAD_XREC_ROUNDTRIP
360
391
  0
DICTIONARY
  5
392
330
3F
100
AcDbDictionary
280
     1
281
     1
  3
ACAD_XREC_ROUNDTRIP
360
393
  0
DICTIONARY
  5
382
330
37
100
AcDbDictionary
280
     1
281
     1
  3
ACAD_XREC_ROUNDTRIP
360
383
  0
DICTIONARY
  5
374
330
30
100
AcDbDictionary
280
     1
281
     1
  3
ACAD_XREC_ROUNDTRIP
360
375
  0
DICTIONARY
  5
394
330
40
100
AcDbDictionary
280
     1
281
     1
  3
ACAD_XREC_ROUNDTRIP
360
395
  0
XRECORD
  5
39E
102
{ACAD_REACTORS
330
39D
102
}
330
39D
100
AcDbXrecord
280
     1
102
DISPLAYNAME
  1
Metric50
102
FLAGS
 90
        0
  0
XRECORD
  5
2B9
102
{ACAD_REACTORS
330
2B8
102
}
330
2B8
100
AcDbXrecord
280
     1
102
MATERIAL
148
0.0
149
0.0
149
0.0
 93
        0
 94
      127
282
     0
 72
     1
 77
     1
171
     1
175
     1
179
     1
273
     0
  0
XRECORD
  5
2B7
102
{ACAD_REACTORS
330
2B6
102
}
330
2B6
100
AcDbXrecord
280
     1
102
MATERIAL
148
0.0
149
0.0
149
0.0
 93
        0
 94
      127
282
     0
 72
     1
 77
     1
171
     1
175
     1
179
     1
273
     0
  0
XRECORD
  5
2BB
102
{ACAD_REACTORS
330
2BA
102
}
330
2BA
100
AcDbXrecord
280
     1
102
MATERIAL
148
0.0
149
0.0
149
0.0
 93
        0
 94
      127
282
     0
 72
     1
 77
     1
171
     1
175
     1
179
     1
273
     0
  0
XRECORD
  5
39C
102
{ACAD_REACTORS
330
39B
102
}
330
39B
100
AcDbXrecord
280
     1
102
DISPLAYNAME
  1
Metric50
102
FLAGS
 90
        0
  0
CELLSTYLEMAP
  5
368
102
{ACAD_REACTORS
330
2BC
102
}
330
2BC
100
AcDbCellStyleMap
 90
        3
300
CELLSTYLE
  1
TABLEFORMAT_BEGIN
 90
        5
170
     1
 91
        0
 92
    32768
 62
   257
 93
        1
300
CONTENTFORMAT
  1
CONTENTFORMAT_BEGIN
 90
        0
 91
        0
 92
        4
 93
        0
300

 40
0.0
140
1.0
 94
        5
 62
     0
340
11
144
0.25
309
CONTENTFORMAT_END
171
     1
301
MARGIN
  1
CELLMARGIN_BEGIN
 40
0.06
 40
0.06
 40
0.06
 40
0.06
 40
0.18
 40
0.18
309
CELLMARGIN_END
 94
        6
 95
        1
302
GRIDFORMAT
  1
GRIDFORMAT_BEGIN
 90
        0
 91
        1
 62
     0
 92
       -2
340
14
 93
        0
 40
0.045
309
GRIDFORMAT_END
 95
        2
302
GRIDFORMAT
  1
GRIDFORMAT_BEGIN
 90
        0
 91
        1
 62
     0
 92
       -2
340
14
 93
        0
 40
0.045
309
GRIDFORMAT_END
 95
        4
302
GRIDFORMAT
  1
GRIDFORMAT_BEGIN
 90
        0
 91
        1
 62
     0
 92
       -2
340
14
 93
        0
 40
0.045
309
GRIDFORMAT_END
 95
        8
302
GRIDFORMAT
  1
GRIDFORMAT_BEGIN
 90
        0
 91
        1
 62
     0
 92
       -2
340
14
 93
        0
 40
0.045
309
GRIDFORMAT_END
 95
       16
302
GRIDFORMAT
  1
GRIDFORMAT_BEGIN
 90
        0
 91
        1
 62
     0
 92
       -2
340
14
 93
        0
 40
0.045
309
GRIDFORMAT_END
 95
       32
302
GRIDFORMAT
  1
GRIDFORMAT_BEGIN
 90
        0
 91
        1
 62
     0
 92
       -2
340
14
 93
        0
 40
0.045
309
GRIDFORMAT_END
309
TABLEFORMAT_END
  1
CELLSTYLE_BEGIN
 90
        1
 91
        1
300
_TITLE
309
CELLSTYLE_END
300
CELLSTYLE
  1
TABLEFORMAT_BEGIN
 90
        5
170
     1
 91
        0
 92
        0
 62
   257
 93
        1
300
CONTENTFORMAT
  1
CONTENTFORMAT_BEGIN
 90
        0
 91
        0
 92
        4
 93
        0
300

 40
0.0
140
1.0
 94
        5
 62
     0
340
11
144
0.18
309
CONTENTFORMAT_END
171
     1
301
MARGIN
  1
CELLMARGIN_BEGIN
 40
0.06
 40
0.06
 40
0.06
 40
0.06
 40
0.18
 40
0.18
309
CELLMARGIN_END
 94
        6
 95
        1
302
GRIDFORMAT
  1
GRIDFORMAT_BEGIN
 90
        0
 91
        1
 62
     0
 92
       -2
340
14
 93
        0
 40
0.045
309
GRIDFORMAT_END
 95
        2
302
GRIDFORMAT
  1
GRIDFORMAT_BEGIN
 90
        0
 91
        1
 62
     0
 92
       -2
340
14
 93
        0
 40
0.045
309
GRIDFORMAT_END
 95
        4
302
GRIDFORMAT
  1
GRIDFORMAT_BEGIN
 90
        0
 91
        1
 62
     0
 92
       -2
340
14
 93
        0
 40
0.045
309
GRIDFORMAT_END
 95
        8
302
GRIDFORMAT
  1
GRIDFORMAT_BEGIN
 90
        0
 91
        1
 62
     0
 92
       -2
340
14
 93
        0
 40
0.045
309
GRIDFORMAT_END
 95
       16
302
GRIDFORMAT
  1
GRIDFORMAT_BEGIN
 90
        0
 91
        1
 62
     0
 92
       -2
340
14
 93
        0
 40
0.045
309
GRIDFORMAT_END
 95
       32
302
GRIDFORMAT
  1
GRIDFORMAT_BEGIN
 90
        0
 91
        1
 62
     0
 92
       -2
340
14
 93
        0
 40
0.045
309
GRIDFORMAT_END
309
TABLEFORMAT_END
  1
CELLSTYLE_BEGIN
 90
        2
 91
        1
300
_HEADER
309
CELLSTYLE_END
300
CELLSTYLE
  1
TABLEFORMAT_BEGIN
 90
        5
170
     1
 91
        0
 92
        0
 62
   257
 93
        1
300
CONTENTFORMAT
  1
CONTENTFORMAT_BEGIN
 90
        0
 91
        0
 92
        4
 93
        0
300

 40
0.0
140
1.0
 94
        2
 62
     0
340
11
144
0.18
309
CONTENTFORMAT_END
171
     1
301
MARGIN
  1
CELLMARGIN_BEGIN
 40
0.06
 40
0.06
 40
0.06
 40
0.06
 40
0.18
 40
0.18
309
CELLMARGIN_END
 94
        6
 95
        1
302
GRIDFORMAT
  1
GRIDFORMAT_BEGIN
 90
        0
 91
        1
 62
     0
 92
       -2
340
14
 93
        0
 40
0.045
309
GRIDFORMAT_END
 95
        2
302
GRIDFORMAT
  1
GRIDFORMAT_BEGIN
 90
        0
 91
        1
 62
     0
 92
       -2
340
14
 93
        0
 40
0.045
309
GRIDFORMAT_END
 95
        4
302
GRIDFORMAT
  1
GRIDFORMAT_BEGIN
 90
        0
 91
        1
 62
     0
 92
       -2
340
14
 93
        0
 40
0.045
309
GRIDFORMAT_END
 95
        8
302
GRIDFORMAT
  1
GRIDFORMAT_BEGIN
 90
        0
 91
        1
 62
     0
 92
       -2
340
14
 93
        0
 40
0.045
309
GRIDFORMAT_END
 95
       16
302
GRIDFORMAT
  1
GRIDFORMAT_BEGIN
 90
        0
 91
        1
 62
     0
 92
       -2
340
14
 93
        0
 40
0.045
309
GRIDFORMAT_END
 95
       32
302
GRIDFORMAT
  1
GRIDFORMAT_BEGIN
 90
        0
 91
        1
 62
     0
 92
       -2
340
14
 93
        0
 40
0.045
309
GRIDFORMAT_END
309
TABLEFORMAT_END
  1
CELLSTYLE_BEGIN
 90
        3
 91
        2
300
_DATA
309
CELLSTYLE_END
  0
XRECORD
  5
39A
102
{ACAD_REACTORS
330
2BC
102
}
330
2BC
100
AcDbXrecord
280
     1
102
ACAD_ROUNDTRIP_PRE2007_TABLESTYLE
 90
        4
 91
        0
  1

 92
        4
 93
        0
  2

 94
        4
 95
        0
  3

  0
XRECORD
  5
373
102
{ACAD_REACTORS
330
372
102
}
330
372
100
AcDbXrecord
280
     1
102
RTVSPost2010Prop28
280
     1
102
RTVSPost2010PropOp28
 70
     1
102
RTVSPost2010Prop29
280
     1
102
RTVSPost2010PropOp29
 70
     1
102
RTVSPost2010Prop30
280
     0
102
RTVSPost2010PropOp30
 70
     1
102
RTVSPost2010Prop31
280
     0
102
RTVSPost2010PropOp31
 70
     1
102
RTVSPost2010Prop32
280
     0
102
RTVSPost2010PropOp32
 70
     1
102
RTVSPost2010Prop33
280
     0
102
RTVSPost2010PropOp33
 70
     1
102
RTVSPost2010Prop34
280
     0
102
RTVSPost2010PropOp34
 70
     1
102
RTVSPost2010Prop35
280
     0
102
RTVSPost2010PropOp35
 70
     1
102
RTVSPost2010Prop36
280
     0
102
RTVSPost2010PropOp36
 70
     1
102
RTVSPost2010Prop37
 90
       50
102
RTVSPost2010PropOp37
 70
     1
102
RTVSPost2010Prop38
140
0.0
102
RTVSPost2010PropOp38
 70
     1
102
RTVSPost2010Prop39
140
1.0
102
RTVSPost2010PropOp39
 70
     1
102
RTVSPost2010Prop40
 90
        0
102
RTVSPost2010PropOp40
 70
     1
102
RTVSPost2010Prop41ColorIndex
 90
       18
102
RTVSPost2010Prop41ColorRGB
 90
        0
102
RTVSPost2010PropOp41
 70
     1
102
RTVSPost2010Prop42
 90
       50
102
RTVSPost2010PropOp42
 70
     1
102
RTVSPost2010Prop43
 90
        3
102
RTVSPost2010PropOp43
 70
     1
102
RTVSPost2010Prop44ColorIndex
 90
        5
102
RTVSPost2010Prop44ColorRGB
 90
      255
102
RTVSPost2010PropOp44
 70
     1
102
RTVSPost2010Prop45
280
     0
102
RTVSPost2010PropOp45
 70
     1
102
RTVSPost2010Prop46
 90
       50
102
RTVSPost2010PropOp46
 70
     1
102
RTVSPost2010Prop47
 90
       50
102
RTVSPost2010PropOp47
 70
     1
102
RTVSPost2010Prop48
 90
       50
102
RTVSPost2010PropOp48
 70
     1
102
RTVSPost2010Prop49
280
     0
102
RTVSPost2010PropOp49
 70
     1
102
RTVSPost2010Prop50
 90
       50
102
RTVSPost2010PropOp50
 70
     1
102
RTVSPost2010Prop51ColorIndex
 90
      256
102
RTVSPost2010Prop51ColorRGB
 90
-16777216
102
RTVSPost2010PropOp51
 70
     0
102
RTVSPost2010Prop52
140
1.0
102
RTVSPost2010PropOp52
 70
     0
102
RTVSPost2010Prop53
 90
        2
102
RTVSPost2010PropOp53
 70
     1
102
RTVSPost2010Prop54
  1
strokes_ogs.tif
102
RTVSPost2010PropOp54
 70
     1
102
RTVSPost2010Prop55
280
     0
102
RTVSPost2010PropOp55
 70
     1
102
RTVSPost2010Prop56
140
1.0
102
RTVSPost2010PropOp56
 70
     1
102
RTVSPost2010Prop57
140
1.0
102
RTVSPost2010PropOp57
 70
     1
102
RTVSPropertyOp0
 70
     1
102
RTVSPropertyOp1
 70
     1
102
RTVSPropertyOp2
 70
     1
102
RTVSPropertyOp3
 70
     1
102
RTVSPropertyOp4
 70
     1
102
RTVSPropertyOp5
 70
     1
102
RTVSPropertyOp6
 70
     1
102
RTVSPropertyOp7
 70
     1
102
RTVSPropertyOp8
 70
     1
102
RTVSPropertyOp9
 70
     1
102
RTVSPropertyOp10
 70
     1
102
RTVSPropertyOp11
 70
     1
102
RTVSPropertyOp12
 70
     1
102
RTVSPropertyOp13
 70
     1
102
RTVSPropertyOp14
 70
     1
102
RTVSPropertyOp15
 70
     1
102
RTVSPropertyOp16
 70
     1
102
RTVSPropertyOp17
 70
     1
102
RTVSPropertyOp18
 70
     1
102
RTVSPropertyOp19
 70
     1
102
RTVSPropertyOp20
 70
     1
102
RTVSPropertyOp21
 70
     1
102
RTVSPropertyOp22
 70
     1
102
RTVSPropertyOp23
 70
     1
102
RTVSPropertyOp24
 70
     1
102
RTVSPropertyOp25
 70
     1
102
RTVSPropertyOp26
 70
     1
102
RTVSPropertyOp27
 70
     1
102
RTVSPropertyOp28
 70
     1
102
RTVSPropertyOp29
 70
     1
102
RTVSPropertyOp30
 70
     1
102
RTVSPropertyOp31
 70
     1
102
RTVSPropertyOp32
 70
     1
102
RTVSPropertyOp33
 70
     1
102
RTVSPropertyOp34
 70
     1
102
RTVSPropertyOp35
 70
     1
102
RTVSPropertyOp36
 70
     1
102
RTVSPropertyOp37
 70
     1
102
RTVSPropertyOp38
 70
     1
102
RTVSPropertyOp39
 70
     1
102
RTVSPropertyOp40
 70
     1
102
RTVSPropertyOp41
 70
     1
102
RTVSPropertyOp42
 70
     1
102
RTVSPropertyOp43
 70
     1
102
RTVSPropertyOp44
 70
     1
102
RTVSPropertyOp45
 70
     1
102
RTVSPropertyOp46
 70
     1
102
RTVSPropertyOp47
 70
     1
102
RTVSPropertyOp48
 70
     1
102
RTVSPropertyOp49
 70
     1
102
RTVSPropertyOp50
 70
     1
102
RTVSPropertyOp51
 70
     0
102
RTVSPropertyOp52
 70
     0
102
RTVSPropertyOp53
 70
     1
102
RTVSPropertyOp54
 70
     1
102
RTVSPropertyOp55
 70
     1
102
RTVSPropertyOp56
 70
     1
102
RTVSPropertyOp57
 70
     1
102
RTVSPropertyOp58
 70
     1
102
RTVSPropertyOp59
 70
     1
102
RTVSPropertyOp60
 70
     1
102
RTVSPropertyOp61
 70
     1
102
RTVSPropertyOp62
 70
     1
  0
XRECORD
  5
379
102
{ACAD_REACTORS
330
378
102
}
330
378
100
AcDbXrecord
280
     1
102
RTVSPost2010Prop28
280
     0
102
RTVSPost2010PropOp28
 70
     1
102
RTVSPost2010Prop29
280
     1
102
RTVSPost2010PropOp29
 70
     1
102
RTVSPost2010Prop30
280
     1
102
RTVSPost2010PropOp30
 70
     1
102
RTVSPost2010Prop31
280
     0
102
RTVSPost2010PropOp31
 70
     1
102
RTVSPost2010Prop32
280
     0
102
RTVSPost2010PropOp32
 70
     1
102
RTVSPost2010Prop33
280
     0
102
RTVSPost2010PropOp33
 70
     1
102
RTVSPost2010Prop34
280
     0
102
RTVSPost2010PropOp34
 70
     1
102
RTVSPost2010Prop35
280
     0
102
RTVSPost2010PropOp35
 70
     1
102
RTVSPost2010Prop36
280
     0
102
RTVSPost2010PropOp36
 70
     1
102
RTVSPost2010Prop37
 90
       50
102
RTVSPost2010PropOp37
 70
     1
102
RTVSPost2010Prop38
140
0.0
102
RTVSPost2010PropOp38
 70
     1
102
RTVSPost2010Prop39
140
1.0
102
RTVSPost2010PropOp39
 70
     1
102
RTVSPost2010Prop40
 90
        0
102
RTVSPost2010PropOp40
 70
     1
102
RTVSPost2010Prop41ColorIndex
 90
       18
102
RTVSPost2010Prop41ColorRGB
 90
        0
102
RTVSPost2010PropOp41
 70
     1
102
RTVSPost2010Prop42
 90
       50
102
RTVSPost2010PropOp42
 70
     1
102
RTVSPost2010Prop43
 90
        3
102
RTVSPost2010PropOp43
 70
     1
102
RTVSPost2010Prop44ColorIndex
 90
        5
102
RTVSPost2010Prop44ColorRGB
 90
      255
102
RTVSPost2010PropOp44
 70
     1
102
RTVSPost2010Prop45
280
     0
102
RTVSPost2010PropOp45
 70
     1
102
RTVSPost2010Prop46
 90
       50
102
RTVSPost2010PropOp46
 70
     1
102
RTVSPost2010Prop47
 90
       50
102
RTVSPost2010PropOp47
 70
     1
102
RTVSPost2010Prop48
 90
       50
102
RTVSPost2010PropOp48
 70
     1
102
RTVSPost2010Prop49
280
     0
102
RTVSPost2010PropOp49
 70
     1
102
RTVSPost2010Prop50
 90
       50
102
RTVSPost2010PropOp50
 70
     1
102
RTVSPost2010Prop51ColorIndex
 90
      256
102
RTVSPost2010Prop51ColorRGB
 90
-16777216
102
RTVSPost2010PropOp51
 70
     0
102
RTVSPost2010Prop52
140
1.0
102
RTVSPost2010PropOp52
 70
     0
102
RTVSPost2010Prop53
 90
        2
102
RTVSPost2010PropOp53
 70
     1
102
RTVSPost2010Prop54
  1
strokes_ogs.tif
102
RTVSPost2010PropOp54
 70
     1
102
RTVSPost2010Prop55
280
     0
102
RTVSPost2010PropOp55
 70
     1
102
RTVSPost2010Prop56
140
1.0
102
RTVSPost2010PropOp56
 70
     1
102
RTVSPost2010Prop57
140
1.0
102
RTVSPost2010PropOp57
 70
     1
102
RTVSPropertyOp0
 70
     1
102
RTVSPropertyOp1
 70
     1
102
RTVSPropertyOp2
 70
     1
102
RTVSPropertyOp3
 70
     1
102
RTVSPropertyOp4
 70
     1
102
RTVSPropertyOp5
 70
     1
102
RTVSPropertyOp6
 70
     1
102
RTVSPropertyOp7
 70
     1
102
RTVSPropertyOp8
 70
     1
102
RTVSPropertyOp9
 70
     1
102
RTVSPropertyOp10
 70
     1
102
RTVSPropertyOp11
 70
     1
102
RTVSPropertyOp12
 70
     1
102
RTVSPropertyOp13
 70
     1
102
RTVSPropertyOp14
 70
     1
102
RTVSPropertyOp15
 70
     1
102
RTVSPropertyOp16
 70
     1
102
RTVSPropertyOp17
 70
     1
102
RTVSPropertyOp18
 70
     1
102
RTVSPropertyOp19
 70
     1
102
RTVSPropertyOp20
 70
     1
102
RTVSPropertyOp21
 70
     1
102
RTVSPropertyOp22
 70
     1
102
RTVSPropertyOp23
 70
     1
102
RTVSPropertyOp24
 70
     1
102
RTVSPropertyOp25
 70
     1
102
RTVSPropertyOp26
 70
     1
102
RTVSPropertyOp27
 70
     1
102
RTVSPropertyOp28
 70
     1
102
RTVSPropertyOp29
 70
     1
102
RTVSPropertyOp30
 70
     1
102
RTVSPropertyOp31
 70
     1
102
RTVSPropertyOp32
 70
     1
102
RTVSPropertyOp33
 70
     1
102
RTVSPropertyOp34
 70
     1
102
RTVSPropertyOp35
 70
     1
102
RTVSPropertyOp36
 70
     1
102
RTVSPropertyOp37
 70
     1
102
RTVSPropertyOp38
 70
     1
102
RTVSPropertyOp39
 70
     1
102
RTVSPropertyOp40
 70
     1
102
RTVSPropertyOp41
 70
     1
102
RTVSPropertyOp42
 70
     1
102
RTVSPropertyOp43
 70
     1
102
RTVSPropertyOp44
 70
     1
102
RTVSPropertyOp45
 70
     1
102
RTVSPropertyOp46
 70
     1
102
RTVSPropertyOp47
 70
     1
102
RTVSPropertyOp48
 70
     1
102
RTVSPropertyOp49
 70
     1
102
RTVSPropertyOp50
 70
     1
102
RTVSPropertyOp51
 70
     0
102
RTVSPropertyOp52
 70
     0
102
RTVSPropertyOp53
 70
     1
102
RTVSPropertyOp54
 70
     1
102
RTVSPropertyOp55
 70
     1
102
RTVSPropertyOp56
 70
     1
102
RTVSPropertyOp57
 70
     1
102
RTVSPropertyOp58
 70
     1
102
RTVSPropertyOp59
 70
     1
102
RTVSPropertyOp60
 70
     1
102
RTVSPropertyOp61
 70
     1
102
RTVSPropertyOp62
 70
     1
  0
XRECORD
  5
381
102
{ACAD_REACTORS
330
380
102
}
330
380
100
AcDbXrecord
280
     1
102
RTVSPost2010Prop28
280
     0
102
RTVSPost2010PropOp28
 70
     1
102
RTVSPost2010Prop29
280
     1
102
RTVSPost2010PropOp29
 70
     1
102
RTVSPost2010Prop30
280
     1
102
RTVSPost2010PropOp30
 70
     1
102
RTVSPost2010Prop31
280
     0
102
RTVSPost2010PropOp31
 70
     1
102
RTVSPost2010Prop32
280
     0
102
RTVSPost2010PropOp32
 70
     1
102
RTVSPost2010Prop33
280
     0
102
RTVSPost2010PropOp33
 70
     1
102
RTVSPost2010Prop34
280
     0
102
RTVSPost2010PropOp34
 70
     1
102
RTVSPost2010Prop35
280
     0
102
RTVSPost2010PropOp35
 70
     1
102
RTVSPost2010Prop36
280
     0
102
RTVSPost2010PropOp36
 70
     1
102
RTVSPost2010Prop37
 90
       50
102
RTVSPost2010PropOp37
 70
     1
102
RTVSPost2010Prop38
140
0.0
102
RTVSPost2010PropOp38
 70
     1
102
RTVSPost2010Prop39
140
1.0
102
RTVSPost2010PropOp39
 70
     1
102
RTVSPost2010Prop40
 90
        0
102
RTVSPost2010PropOp40
 70
     1
102
RTVSPost2010Prop41ColorIndex
 90
       18
102
RTVSPost2010Prop41ColorRGB
 90
        0
102
RTVSPost2010PropOp41
 70
     1
102
RTVSPost2010Prop42
 90
       50
102
RTVSPost2010PropOp42
 70
     1
102
RTVSPost2010Prop43
 90
        3
102
RTVSPost2010PropOp43
 70
     1
102
RTVSPost2010Prop44ColorIndex
 90
        5
102
RTVSPost2010Prop44ColorRGB
 90
      255
102
RTVSPost2010PropOp44
 70
     1
102
RTVSPost2010Prop45
280
     0
102
RTVSPost2010PropOp45
 70
     1
102
RTVSPost2010Prop46
 90
       50
102
RTVSPost2010PropOp46
 70
     1
102
RTVSPost2010Prop47
 90
       50
102
RTVSPost2010PropOp47
 70
     1
102
RTVSPost2010Prop48
 90
       50
102
RTVSPost2010PropOp48
 70
     1
102
RTVSPost2010Prop49
280
     0
102
RTVSPost2010PropOp49
 70
     1
102
RTVSPost2010Prop50
 90
       50
102
RTVSPost2010PropOp50
 70
     1
102
RTVSPost2010Prop51ColorIndex
 90
      256
102
RTVSPost2010Prop51ColorRGB
 90
-16777216
102
RTVSPost2010PropOp51
 70
     0
102
RTVSPost2010Prop52
140
1.0
102
RTVSPost2010PropOp52
 70
     0
102
RTVSPost2010Prop53
 90
        2
102
RTVSPost2010PropOp53
 70
     1
102
RTVSPost2010Prop54
  1
strokes_ogs.tif
102
RTVSPost2010PropOp54
 70
     1
102
RTVSPost2010Prop55
280
     0
102
RTVSPost2010PropOp55
 70
     1
102
RTVSPost2010Prop56
140
1.0
102
RTVSPost2010PropOp56
 70
     1
102
RTVSPost2010Prop57
140
1.0
102
RTVSPost2010PropOp57
 70
     1
102
RTVSPropertyOp0
 70
     1
102
RTVSPropertyOp1
 70
     1
102
RTVSPropertyOp2
 70
     1
102
RTVSPropertyOp3
 70
     1
102
RTVSPropertyOp4
 70
     1
102
RTVSPropertyOp5
 70
     1
102
RTVSPropertyOp6
 70
     1
102
RTVSPropertyOp7
 70
     1
102
RTVSPropertyOp8
 70
     1
102
RTVSPropertyOp9
 70
     1
102
RTVSPropertyOp10
 70
     1
102
RTVSPropertyOp11
 70
     1
102
RTVSPropertyOp12
 70
     1
102
RTVSPropertyOp13
 70
     1
102
RTVSPropertyOp14
 70
     1
102
RTVSPropertyOp15
 70
     1
102
RTVSPropertyOp16
 70
     1
102
RTVSPropertyOp17
 70
     1
102
RTVSPropertyOp18
 70
     1
102
RTVSPropertyOp19
 70
     1
102
RTVSPropertyOp20
 70
     1
102
RTVSPropertyOp21
 70
     1
102
RTVSPropertyOp22
 70
     1
102
RTVSPropertyOp23
 70
     1
102
RTVSPropertyOp24
 70
     1
102
RTVSPropertyOp25
 70
     1
102
RTVSPropertyOp26
 70
     1
102
RTVSPropertyOp27
 70
     1
102
RTVSPropertyOp28
 70
     1
102
RTVSPropertyOp29
 70
     1
102
RTVSPropertyOp30
 70
     1
102
RTVSPropertyOp31
 70
     1
102
RTVSPropertyOp32
 70
     1
102
RTVSPropertyOp33
 70
     1
102
RTVSPropertyOp34
 70
     1
102
RTVSPropertyOp35
 70
     1
102
RTVSPropertyOp36
 70
     1
102
RTVSPropertyOp37
 70
     1
102
RTVSPropertyOp38
 70
     1
102
RTVSPropertyOp39
 70
     1
102
RTVSPropertyOp40
 70
     1
102
RTVSPropertyOp41
 70
     1
102
RTVSPropertyOp42
 70
     1
102
RTVSPropertyOp43
 70
     1
102
RTVSPropertyOp44
 70
     1
102
RTVSPropertyOp45
 70
     1
102
RTVSPropertyOp46
 70
     1
102
RTVSPropertyOp47
 70
     1
102
RTVSPropertyOp48
 70
     1
102
RTVSPropertyOp49
 70
     1
102
RTVSPropertyOp50
 70
     1
102
RTVSPropertyOp51
 70
     0
102
RTVSPropertyOp52
 70
     0
102
RTVSPropertyOp53
 70
     1
102
RTVSPropertyOp54
 70
     1
102
RTVSPropertyOp55
 70
     1
102
RTVSPropertyOp56
 70
     1
102
RTVSPropertyOp57
 70
     1
102
RTVSPropertyOp58
 70
     1
102
RTVSPropertyOp59
 70
     1
102
RTVSPropertyOp60
 70
     1
102
RTVSPropertyOp61
 70
     1
102
RTVSPropertyOp62
 70
     1
  0
XRECORD
  5
389
102
{ACAD_REACTORS
330
388
102
}
330
388
100
AcDbXrecord
280
     1
102
RTVSPost2010Prop28
280
     0
102
RTVSPost2010PropOp28
 70
     1
102
RTVSPost2010Prop29
280
     1
102
RTVSPost2010PropOp29
 70
     1
102
RTVSPost2010Prop30
280
     1
102
RTVSPost2010PropOp30
 70
     1
102
RTVSPost2010Prop31
280
     0
102
RTVSPost2010PropOp31
 70
     1
102
RTVSPost2010Prop32
280
     0
102
RTVSPost2010PropOp32
 70
     1
102
RTVSPost2010Prop33
280
     0
102
RTVSPost2010PropOp33
 70
     1
102
RTVSPost2010Prop34
280
     0
102
RTVSPost2010PropOp34
 70
     1
102
RTVSPost2010Prop35
280
     0
102
RTVSPost2010PropOp35
 70
     1
102
RTVSPost2010Prop36
280
     0
102
RTVSPost2010PropOp36
 70
     1
102
RTVSPost2010Prop37
 90
       50
102
RTVSPost2010PropOp37
 70
     1
102
RTVSPost2010Prop38
140
0.0
102
RTVSPost2010PropOp38
 70
     1
102
RTVSPost2010Prop39
140
1.0
102
RTVSPost2010PropOp39
 70
     1
102
RTVSPost2010Prop40
 90
        0
102
RTVSPost2010PropOp40
 70
     1
102
RTVSPost2010Prop41ColorIndex
 90
       18
102
RTVSPost2010Prop41ColorRGB
 90
        0
102
RTVSPost2010PropOp41
 70
     1
102
RTVSPost2010Prop42
 90
       50
102
RTVSPost2010PropOp42
 70
     1
102
RTVSPost2010Prop43
 90
        3
102
RTVSPost2010PropOp43
 70
     1
102
RTVSPost2010Prop44ColorIndex
 90
        5
102
RTVSPost2010Prop44ColorRGB
 90
      255
102
RTVSPost2010PropOp44
 70
     1
102
RTVSPost2010Prop45
280
     0
102
RTVSPost2010PropOp45
 70
     1
102
RTVSPost2010Prop46
 90
       50
102
RTVSPost2010PropOp46
 70
     1
102
RTVSPost2010Prop47
 90
       50
102
RTVSPost2010PropOp47
 70
     1
102
RTVSPost2010Prop48
 90
       50
102
RTVSPost2010PropOp48
 70
     1
102
RTVSPost2010Prop49
280
     0
102
RTVSPost2010PropOp49
 70
     1
102
RTVSPost2010Prop50
 90
       50
102
RTVSPost2010PropOp50
 70
     1
102
RTVSPost2010Prop51ColorIndex
 90
      256
102
RTVSPost2010Prop51ColorRGB
 90
-16777216
102
RTVSPost2010PropOp51
 70
     0
102
RTVSPost2010Prop52
140
1.0
102
RTVSPost2010PropOp52
 70
     0
102
RTVSPost2010Prop53
 90
        2
102
RTVSPost2010PropOp53
 70
     1
102
RTVSPost2010Prop54
  1
strokes_ogs.tif
102
RTVSPost2010PropOp54
 70
     1
102
RTVSPost2010Prop55
280
     0
102
RTVSPost2010PropOp55
 70
     1
102
RTVSPost2010Prop56
140
1.0
102
RTVSPost2010PropOp56
 70
     1
102
RTVSPost2010Prop57
140
1.0
102
RTVSPost2010PropOp57
 70
     1
102
RTVSPropertyOp0
 70
     1
102
RTVSPropertyOp1
 70
     1
102
RTVSPropertyOp2
 70
     1
102
RTVSPropertyOp3
 70
     1
102
RTVSPropertyOp4
 70
     1
102
RTVSPropertyOp5
 70
     1
102
RTVSPropertyOp6
 70
     1
102
RTVSPropertyOp7
 70
     1
102
RTVSPropertyOp8
 70
     1
102
RTVSPropertyOp9
 70
     1
102
RTVSPropertyOp10
 70
     1
102
RTVSPropertyOp11
 70
     1
102
RTVSPropertyOp12
 70
     1
102
RTVSPropertyOp13
 70
     1
102
RTVSPropertyOp14
 70
     1
102
RTVSPropertyOp15
 70
     1
102
RTVSPropertyOp16
 70
     1
102
RTVSPropertyOp17
 70
     1
102
RTVSPropertyOp18
 70
     1
102
RTVSPropertyOp19
 70
     1
102
RTVSPropertyOp20
 70
     1
102
RTVSPropertyOp21
 70
     1
102
RTVSPropertyOp22
 70
     1
102
RTVSPropertyOp23
 70
     1
102
RTVSPropertyOp24
 70
     1
102
RTVSPropertyOp25
 70
     1
102
RTVSPropertyOp26
 70
     1
102
RTVSPropertyOp27
 70
     1
102
RTVSPropertyOp28
 70
     1
102
RTVSPropertyOp29
 70
     1
102
RTVSPropertyOp30
 70
     1
102
RTVSPropertyOp31
 70
     1
102
RTVSPropertyOp32
 70
     1
102
RTVSPropertyOp33
 70
     1
102
RTVSPropertyOp34
 70
     1
102
RTVSPropertyOp35
 70
     1
102
RTVSPropertyOp36
 70
     1
102
RTVSPropertyOp37
 70
     1
102
RTVSPropertyOp38
 70
     1
102
RTVSPropertyOp39
 70
     1
102
RTVSPropertyOp40
 70
     1
102
RTVSPropertyOp41
 70
     1
102
RTVSPropertyOp42
 70
     1
102
RTVSPropertyOp43
 70
     1
102
RTVSPropertyOp44
 70
     1
102
RTVSPropertyOp45
 70
     1
102
RTVSPropertyOp46
 70
     1
102
RTVSPropertyOp47
 70
     1
102
RTVSPropertyOp48
 70
     1
102
RTVSPropertyOp49
 70
     1
102
RTVSPropertyOp50
 70
     1
102
RTVSPropertyOp51
 70
     0
102
RTVSPropertyOp52
 70
     0
102
RTVSPropertyOp53
 70
     1
102
RTVSPropertyOp54
 70
     1
102
RTVSPropertyOp55
 70
     1
102
RTVSPropertyOp56
 70
     1
102
RTVSPropertyOp57
 70
     1
102
RTVSPropertyOp58
 70
     1
102
RTVSPropertyOp59
 70
     1
102
RTVSPropertyOp60
 70
     1
102
RTVSPropertyOp61
 70
     1
102
RTVSPropertyOp62
 70
     1
  0
XRECORD
  5
37D
102
{ACAD_REACTORS
330
37C
102
}
330
37C
100
AcDbXrecord
280
     1
102
RTVSPost2010Prop28
280
     0
102
RTVSPost2010PropOp28
 70
     1
102
RTVSPost2010Prop29
280
     1
102
RTVSPost2010PropOp29
 70
     1
102
RTVSPost2010Prop30
280
     1
102
RTVSPost2010PropOp30
 70
     1
102
RTVSPost2010Prop31
280
     0
102
RTVSPost2010PropOp31
 70
     1
102
RTVSPost2010Prop32
280
     0
102
RTVSPost2010PropOp32
 70
     1
102
RTVSPost2010Prop33
280
     0
102
RTVSPost2010PropOp33
 70
     1
102
RTVSPost2010Prop34
280
     0
102
RTVSPost2010PropOp34
 70
     1
102
RTVSPost2010Prop35
280
     0
102
RTVSPost2010PropOp35
 70
     1
102
RTVSPost2010Prop36
280
     0
102
RTVSPost2010PropOp36
 70
     1
102
RTVSPost2010Prop37
 90
       50
102
RTVSPost2010PropOp37
 70
     1
102
RTVSPost2010Prop38
140
0.0
102
RTVSPost2010PropOp38
 70
     1
102
RTVSPost2010Prop39
140
1.0
102
RTVSPost2010PropOp39
 70
     1
102
RTVSPost2010Prop40
 90
        0
102
RTVSPost2010PropOp40
 70
     1
102
RTVSPost2010Prop41ColorIndex
 90
       18
102
RTVSPost2010Prop41ColorRGB
 90
        0
102
RTVSPost2010PropOp41
 70
     1
102
RTVSPost2010Prop42
 90
       50
102
RTVSPost2010PropOp42
 70
     1
102
RTVSPost2010Prop43
 90
        3
102
RTVSPost2010PropOp43
 70
     1
102
RTVSPost2010Prop44ColorIndex
 90
        5
102
RTVSPost2010Prop44ColorRGB
 90
      255
102
RTVSPost2010PropOp44
 70
     1
102
RTVSPost2010Prop45
280
     0
102
RTVSPost2010PropOp45
 70
     1
102
RTVSPost2010Prop46
 90
       50
102
RTVSPost2010PropOp46
 70
     1
102
RTVSPost2010Prop47
 90
       50
102
RTVSPost2010PropOp47
 70
     1
102
RTVSPost2010Prop48
 90
       50
102
RTVSPost2010PropOp48
 70
     1
102
RTVSPost2010Prop49
280
     0
102
RTVSPost2010PropOp49
 70
     1
102
RTVSPost2010Prop50
 90
       50
102
RTVSPost2010PropOp50
 70
     1
102
RTVSPost2010Prop51ColorIndex
 90
      256
102
RTVSPost2010Prop51ColorRGB
 90
-16777216
102
RTVSPost2010PropOp51
 70
     0
102
RTVSPost2010Prop52
140
1.0
102
RTVSPost2010PropOp52
 70
     0
102
RTVSPost2010Prop53
 90
        2
102
RTVSPost2010PropOp53
 70
     1
102
RTVSPost2010Prop54
  1
strokes_ogs.tif
102
RTVSPost2010PropOp54
 70
     1
102
RTVSPost2010Prop55
280
     0
102
RTVSPost2010PropOp55
 70
     1
102
RTVSPost2010Prop56
140
1.0
102
RTVSPost2010PropOp56
 70
     1
102
RTVSPost2010Prop57
140
1.0
102
RTVSPost2010PropOp57
 70
     1
102
RTVSPropertyOp0
 70
     1
102
RTVSPropertyOp1
 70
     1
102
RTVSPropertyOp2
 70
     1
102
RTVSPropertyOp3
 70
     1
102
RTVSPropertyOp4
 70
     1
102
RTVSPropertyOp5
 70
     1
102
RTVSPropertyOp6
 70
     1
102
RTVSPropertyOp7
 70
     1
102
RTVSPropertyOp8
 70
     1
102
RTVSPropertyOp9
 70
     1
102
RTVSPropertyOp10
 70
     1
102
RTVSPropertyOp11
 70
     1
102
RTVSPropertyOp12
 70
     1
102
RTVSPropertyOp13
 70
     1
102
RTVSPropertyOp14
 70
     1
102
RTVSPropertyOp15
 70
     1
102
RTVSPropertyOp16
 70
     1
102
RTVSPropertyOp17
 70
     1
102
RTVSPropertyOp18
 70
     1
102
RTVSPropertyOp19
 70
     1
102
RTVSPropertyOp20
 70
     1
102
RTVSPropertyOp21
 70
     1
102
RTVSPropertyOp22
 70
     1
102
RTVSPropertyOp23
 70
     1
102
RTVSPropertyOp24
 70
     1
102
RTVSPropertyOp25
 70
     1
102
RTVSPropertyOp26
 70
     1
102
RTVSPropertyOp27
 70
     1
102
RTVSPropertyOp28
 70
     1
102
RTVSPropertyOp29
 70
     1
102
RTVSPropertyOp30
 70
     1
102
RTVSPropertyOp31
 70
     1
102
RTVSPropertyOp32
 70
     1
102
RTVSPropertyOp33
 70
     1
102
RTVSPropertyOp34
 70
     1
102
RTVSPropertyOp35
 70
     1
102
RTVSPropertyOp36
 70
     1
102
RTVSPropertyOp37
 70
     1
102
RTVSPropertyOp38
 70
     1
102
RTVSPropertyOp39
 70
     1
102
RTVSPropertyOp40
 70
     1
102
RTVSPropertyOp41
 70
     1
102
RTVSPropertyOp42
 70
     1
102
RTVSPropertyOp43
 70
     1
102
RTVSPropertyOp44
 70
     1
102
RTVSPropertyOp45
 70
     1
102
RTVSPropertyOp46
 70
     1
102
RTVSPropertyOp47
 70
     1
102
RTVSPropertyOp48
 70
     1
102
RTVSPropertyOp49
 70
     1
102
RTVSPropertyOp50
 70
     1
102
RTVSPropertyOp51
 70
     0
102
RTVSPropertyOp52
 70
     0
102
RTVSPropertyOp53
 70
     1
102
RTVSPropertyOp54
 70
     1
102
RTVSPropertyOp55
 70
     1
102
RTVSPropertyOp56
 70
     1
102
RTVSPropertyOp57
 70
     1
102
RTVSPropertyOp58
 70
     1
102
RTVSPropertyOp59
 70
     1
102
RTVSPropertyOp60
 70
     1
102
RTVSPropertyOp61
 70
     1
102
RTVSPropertyOp62
 70
     1
  0
XRECORD
  5
37F
102
{ACAD_REACTORS
330
37E
102
}
330
37E
100
AcDbXrecord
280
     1
102
RTVSPost2010Prop28
280
     0
102
RTVSPost2010PropOp28
 70
     1
102
RTVSPost2010Prop29
280
     1
102
RTVSPost2010PropOp29
 70
     1
102
RTVSPost2010Prop30
280
     1
102
RTVSPost2010PropOp30
 70
     1
102
RTVSPost2010Prop31
280
     0
102
RTVSPost2010PropOp31
 70
     1
102
RTVSPost2010Prop32
280
     0
102
RTVSPost2010PropOp32
 70
     1
102
RTVSPost2010Prop33
280
     0
102
RTVSPost2010PropOp33
 70
     1
102
RTVSPost2010Prop34
280
     0
102
RTVSPost2010PropOp34
 70
     1
102
RTVSPost2010Prop35
280
     0
102
RTVSPost2010PropOp35
 70
     1
102
RTVSPost2010Prop36
280
     0
102
RTVSPost2010PropOp36
 70
     1
102
RTVSPost2010Prop37
 90
       50
102
RTVSPost2010PropOp37
 70
     1
102
RTVSPost2010Prop38
140
0.0
102
RTVSPost2010PropOp38
 70
     1
102
RTVSPost2010Prop39
140
1.0
102
RTVSPost2010PropOp39
 70
     1
102
RTVSPost2010Prop40
 90
        0
102
RTVSPost2010PropOp40
 70
     1
102
RTVSPost2010Prop41ColorIndex
 90
       18
102
RTVSPost2010Prop41ColorRGB
 90
        0
102
RTVSPost2010PropOp41
 70
     1
102
RTVSPost2010Prop42
 90
       50
102
RTVSPost2010PropOp42
 70
     1
102
RTVSPost2010Prop43
 90
        3
102
RTVSPost2010PropOp43
 70
     1
102
RTVSPost2010Prop44ColorIndex
 90
        5
102
RTVSPost2010Prop44ColorRGB
 90
      255
102
RTVSPost2010PropOp44
 70
     1
102
RTVSPost2010Prop45
280
     0
102
RTVSPost2010PropOp45
 70
     1
102
RTVSPost2010Prop46
 90
       50
102
RTVSPost2010PropOp46
 70
     1
102
RTVSPost2010Prop47
 90
       50
102
RTVSPost2010PropOp47
 70
     1
102
RTVSPost2010Prop48
 90
       50
102
RTVSPost2010PropOp48
 70
     1
102
RTVSPost2010Prop49
280
     0
102
RTVSPost2010PropOp49
 70
     1
102
RTVSPost2010Prop50
 90
       50
102
RTVSPost2010PropOp50
 70
     1
102
RTVSPost2010Prop51ColorIndex
 90
      256
102
RTVSPost2010Prop51ColorRGB
 90
-16777216
102
RTVSPost2010PropOp51
 70
     0
102
RTVSPost2010Prop52
140
1.0
102
RTVSPost2010PropOp52
 70
     0
102
RTVSPost2010Prop53
 90
        2
102
RTVSPost2010PropOp53
 70
     1
102
RTVSPost2010Prop54
  1
strokes_ogs.tif
102
RTVSPost2010PropOp54
 70
     1
102
RTVSPost2010Prop55
280
     0
102
RTVSPost2010PropOp55
 70
     1
102
RTVSPost2010Prop56
140
1.0
102
RTVSPost2010PropOp56
 70
     1
102
RTVSPost2010Prop57
140
1.0
102
RTVSPost2010PropOp57
 70
     1
102
RTVSPropertyOp0
 70
     1
102
RTVSPropertyOp1
 70
     1
102
RTVSPropertyOp2
 70
     1
102
RTVSPropertyOp3
 70
     1
102
RTVSPropertyOp4
 70
     1
102
RTVSPropertyOp5
 70
     1
102
RTVSPropertyOp6
 70
     1
102
RTVSPropertyOp7
 70
     1
102
RTVSPropertyOp8
 70
     1
102
RTVSPropertyOp9
 70
     1
102
RTVSPropertyOp10
 70
     1
102
RTVSPropertyOp11
 70
     1
102
RTVSPropertyOp12
 70
     1
102
RTVSPropertyOp13
 70
     1
102
RTVSPropertyOp14
 70
     1
102
RTVSPropertyOp15
 70
     1
102
RTVSPropertyOp16
 70
     1
102
RTVSPropertyOp17
 70
     1
102
RTVSPropertyOp18
 70
     1
102
RTVSPropertyOp19
 70
     1
102
RTVSPropertyOp20
 70
     1
102
RTVSPropertyOp21
 70
     1
102
RTVSPropertyOp22
 70
     1
102
RTVSPropertyOp23
 70
     1
102
RTVSPropertyOp24
 70
     1
102
RTVSPropertyOp25
 70
     1
102
RTVSPropertyOp26
 70
     1
102
RTVSPropertyOp27
 70
     1
102
RTVSPropertyOp28
 70
     1
102
RTVSPropertyOp29
 70
     1
102
RTVSPropertyOp30
 70
     1
102
RTVSPropertyOp31
 70
     1
102
RTVSPropertyOp32
 70
     1
102
RTVSPropertyOp33
 70
     1
102
RTVSPropertyOp34
 70
     1
102
RTVSPropertyOp35
 70
     1
102
RTVSPropertyOp36
 70
     1
102
RTVSPropertyOp37
 70
     1
102
RTVSPropertyOp38
 70
     1
102
RTVSPropertyOp39
 70
     1
102
RTVSPropertyOp40
 70
     1
102
RTVSPropertyOp41
 70
     1
102
RTVSPropertyOp42
 70
     1
102
RTVSPropertyOp43
 70
     1
102
RTVSPropertyOp44
 70
     1
102
RTVSPropertyOp45
 70
     1
102
RTVSPropertyOp46
 70
     1
102
RTVSPropertyOp47
 70
     1
102
RTVSPropertyOp48
 70
     1
102
RTVSPropertyOp49
 70
     1
102
RTVSPropertyOp50
 70
     1
102
RTVSPropertyOp51
 70
     0
102
RTVSPropertyOp52
 70
     0
102
RTVSPropertyOp53
 70
     1
102
RTVSPropertyOp54
 70
     1
102
RTVSPropertyOp55
 70
     1
102
RTVSPropertyOp56
 70
     1
102
RTVSPropertyOp57
 70
     1
102
RTVSPropertyOp58
 70
     1
102
RTVSPropertyOp59
 70
     1
102
RTVSPropertyOp60
 70
     1
102
RTVSPropertyOp61
 70
     1
102
RTVSPropertyOp62
 70
     1
  0
XRECORD
  5
38F
102
{ACAD_REACTORS
330
38E
102
}
330
38E
100
AcDbXrecord
280
     1
102
RTVSPost2010Prop28
280
     0
102
RTVSPost2010PropOp28
 70
     0
102
RTVSPost2010Prop29
280
     1
102
RTVSPost2010PropOp29
 70
     0
102
RTVSPost2010Prop30
280
     1
102
RTVSPost2010PropOp30
 70
     0
102
RTVSPost2010Prop31
280
     0
102
RTVSPost2010PropOp31
 70
     0
102
RTVSPost2010Prop32
280
     0
102
RTVSPost2010PropOp32
 70
     0
102
RTVSPost2010Prop33
280
     0
102
RTVSPost2010PropOp33
 70
     0
102
RTVSPost2010Prop34
280
     0
102
RTVSPost2010PropOp34
 70
     0
102
RTVSPost2010Prop35
280
     0
102
RTVSPost2010PropOp35
 70
     0
102
RTVSPost2010Prop36
280
     0
102
RTVSPost2010PropOp36
 70
     0
102
RTVSPost2010Prop37
 90
       50
102
RTVSPost2010PropOp37
 70
     0
102
RTVSPost2010Prop38
140
0.0
102
RTVSPost2010PropOp38
 70
     0
102
RTVSPost2010Prop39
140
1.0
102
RTVSPost2010PropOp39
 70
     0
102
RTVSPost2010Prop40
 90
        0
102
RTVSPost2010PropOp40
 70
     0
102
RTVSPost2010Prop41ColorIndex
 90
       18
102
RTVSPost2010Prop41ColorRGB
 90
        0
102
RTVSPost2010PropOp41
 70
     0
102
RTVSPost2010Prop42
 90
       50
102
RTVSPost2010PropOp42
 70
     0
102
RTVSPost2010Prop43
 90
        3
102
RTVSPost2010PropOp43
 70
     0
102
RTVSPost2010Prop44ColorIndex
 90
        5
102
RTVSPost2010Prop44ColorRGB
 90
      255
102
RTVSPost2010PropOp44
 70
     0
102
RTVSPost2010Prop45
280
     0
102
RTVSPost2010PropOp45
 70
     0
102
RTVSPost2010Prop46
 90
       50
102
RTVSPost2010PropOp46
 70
     0
102
RTVSPost2010Prop47
 90
       50
102
RTVSPost2010PropOp47
 70
     0
102
RTVSPost2010Prop48
 90
       50
102
RTVSPost2010PropOp48
 70
     0
102
RTVSPost2010Prop49
280
     0
102
RTVSPost2010PropOp49
 70
     0
102
RTVSPost2010Prop50
 90
       50
102
RTVSPost2010PropOp50
 70
     0
102
RTVSPost2010Prop51ColorIndex
 90
      256
102
RTVSPost2010Prop51ColorRGB
 90
-16777216
102
RTVSPost2010PropOp51
 70
     0
102
RTVSPost2010Prop52
140
1.0
102
RTVSPost2010PropOp52
 70
     0
102
RTVSPost2010Prop53
 90
        2
102
RTVSPost2010PropOp53
 70
     0
102
RTVSPost2010Prop54
  1
strokes_ogs.tif
102
RTVSPost2010PropOp54
 70
     0
102
RTVSPost2010Prop55
280
     0
102
RTVSPost2010PropOp55
 70
     0
102
RTVSPost2010Prop56
140
1.0
102
RTVSPost2010PropOp56
 70
     0
102
RTVSPost2010Prop57
140
1.0
102
RTVSPost2010PropOp57
 70
     0
102
RTVSPropertyOp0
 70
     0
102
RTVSPropertyOp1
 70
     0
102
RTVSPropertyOp2
 70
     0
102
RTVSPropertyOp3
 70
     0
102
RTVSPropertyOp4
 70
     0
102
RTVSPropertyOp5
 70
     0
102
RTVSPropertyOp6
 70
     0
102
RTVSPropertyOp7
 70
     0
102
RTVSPropertyOp8
 70
     0
102
RTVSPropertyOp9
 70
     0
102
RTVSPropertyOp10
 70
     0
102
RTVSPropertyOp11
 70
     0
102
RTVSPropertyOp12
 70
     0
102
RTVSPropertyOp13
 70
     0
102
RTVSPropertyOp14
 70
     2
102
RTVSPropertyOp15
 70
     0
102
RTVSPropertyOp16
 70
     0
102
RTVSPropertyOp17
 70
     0
102
RTVSPropertyOp18
 70
     0
102
RTVSPropertyOp19
 70
     0
102
RTVSPropertyOp20
 70
     0
102
RTVSPropertyOp21
 70
     0
102
RTVSPropertyOp22
 70
     0
102
RTVSPropertyOp23
 70
     0
102
RTVSPropertyOp24
 70
     0
102
RTVSPropertyOp25
 70
     0
102
RTVSPropertyOp26
 70
     0
102
RTVSPropertyOp27
 70
     0
102
RTVSPropertyOp28
 70
     0
102
RTVSPropertyOp29
 70
     0
102
RTVSPropertyOp30
 70
     0
102
RTVSPropertyOp31
 70
     0
102
RTVSPropertyOp32
 70
     0
102
RTVSPropertyOp33
 70
     0
102
RTVSPropertyOp34
 70
     0
102
RTVSPropertyOp35
 70
     0
102
RTVSPropertyOp36
 70
     0
102
RTVSPropertyOp37
 70
     0
102
RTVSPropertyOp38
 70
     0
102
RTVSPropertyOp39
 70
     0
102
RTVSPropertyOp40
 70
     0
102
RTVSPropertyOp41
 70
     0
102
RTVSPropertyOp42
 70
     0
102
RTVSPropertyOp43
 70
     0
102
RTVSPropertyOp44
 70
     0
102
RTVSPropertyOp45
 70
     0
102
RTVSPropertyOp46
 70
     0
102
RTVSPropertyOp47
 70
     0
102
RTVSPropertyOp48
 70
     0
102
RTVSPropertyOp49
 70
     0
102
RTVSPropertyOp50
 70
     0
102
RTVSPropertyOp51
 70
     0
102
RTVSPropertyOp52
 70
     0
102
RTVSPropertyOp53
 70
     0
102
RTVSPropertyOp54
 70
     0
102
RTVSPropertyOp55
 70
     0
102
RTVSPropertyOp56
 70
     0
102
RTVSPropertyOp57
 70
     0
102
RTVSPropertyOp58
 70
     1
102
RTVSPropertyOp59
 70
     1
102
RTVSPropertyOp60
 70
     1
102
RTVSPropertyOp61
 70
     1
102
RTVSPropertyOp62
 70
     1
  0
XRECORD
  5
387
102
{ACAD_REACTORS
330
386
102
}
330
386
100
AcDbXrecord
280
     1
102
RTVSPost2010Prop28
280
     0
102
RTVSPost2010PropOp28
 70
     1
102
RTVSPost2010Prop29
280
     1
102
RTVSPost2010PropOp29
 70
     1
102
RTVSPost2010Prop30
280
     1
102
RTVSPost2010PropOp30
 70
     1
102
RTVSPost2010Prop31
280
     0
102
RTVSPost2010PropOp31
 70
     1
102
RTVSPost2010Prop32
280
     0
102
RTVSPost2010PropOp32
 70
     1
102
RTVSPost2010Prop33
280
     0
102
RTVSPost2010PropOp33
 70
     1
102
RTVSPost2010Prop34
280
     0
102
RTVSPost2010PropOp34
 70
     1
102
RTVSPost2010Prop35
280
     0
102
RTVSPost2010PropOp35
 70
     1
102
RTVSPost2010Prop36
280
     0
102
RTVSPost2010PropOp36
 70
     1
102
RTVSPost2010Prop37
 90
       50
102
RTVSPost2010PropOp37
 70
     1
102
RTVSPost2010Prop38
140
0.0
102
RTVSPost2010PropOp38
 70
     1
102
RTVSPost2010Prop39
140
1.0
102
RTVSPost2010PropOp39
 70
     1
102
RTVSPost2010Prop40
 90
        0
102
RTVSPost2010PropOp40
 70
     1
102
RTVSPost2010Prop41ColorIndex
 90
       18
102
RTVSPost2010Prop41ColorRGB
 90
        0
102
RTVSPost2010PropOp41
 70
     1
102
RTVSPost2010Prop42
 90
       50
102
RTVSPost2010PropOp42
 70
     1
102
RTVSPost2010Prop43
 90
        3
102
RTVSPost2010PropOp43
 70
     1
102
RTVSPost2010Prop44ColorIndex
 90
        5
102
RTVSPost2010Prop44ColorRGB
 90
      255
102
RTVSPost2010PropOp44
 70
     1
102
RTVSPost2010Prop45
280
     0
102
RTVSPost2010PropOp45
 70
     1
102
RTVSPost2010Prop46
 90
       50
102
RTVSPost2010PropOp46
 70
     1
102
RTVSPost2010Prop47
 90
       50
102
RTVSPost2010PropOp47
 70
     1
102
RTVSPost2010Prop48
 90
       50
102
RTVSPost2010PropOp48
 70
     1
102
RTVSPost2010Prop49
280
     0
102
RTVSPost2010PropOp49
 70
     1
102
RTVSPost2010Prop50
 90
       50
102
RTVSPost2010PropOp50
 70
     1
102
RTVSPost2010Prop51ColorIndex
 90
      256
102
RTVSPost2010Prop51ColorRGB
 90
-16777216
102
RTVSPost2010PropOp51
 70
     0
102
RTVSPost2010Prop52
140
1.0
102
RTVSPost2010PropOp52
 70
     0
102
RTVSPost2010Prop53
 90
        2
102
RTVSPost2010PropOp53
 70
     1
102
RTVSPost2010Prop54
  1
strokes_ogs.tif
102
RTVSPost2010PropOp54
 70
     1
102
RTVSPost2010Prop55
280
     0
102
RTVSPost2010PropOp55
 70
     1
102
RTVSPost2010Prop56
140
1.0
102
RTVSPost2010PropOp56
 70
     1
102
RTVSPost2010Prop57
140
1.0
102
RTVSPost2010PropOp57
 70
     1
102
RTVSPropertyOp0
 70
     1
102
RTVSPropertyOp1
 70
     1
102
RTVSPropertyOp2
 70
     1
102
RTVSPropertyOp3
 70
     1
102
RTVSPropertyOp4
 70
     1
102
RTVSPropertyOp5
 70
     1
102
RTVSPropertyOp6
 70
     1
102
RTVSPropertyOp7
 70
     1
102
RTVSPropertyOp8
 70
     1
102
RTVSPropertyOp9
 70
     1
102
RTVSPropertyOp10
 70
     1
102
RTVSPropertyOp11
 70
     1
102
RTVSPropertyOp12
 70
     1
102
RTVSPropertyOp13
 70
     1
102
RTVSPropertyOp14
 70
     1
102
RTVSPropertyOp15
 70
     1
102
RTVSPropertyOp16
 70
     1
102
RTVSPropertyOp17
 70
     1
102
RTVSPropertyOp18
 70
     1
102
RTVSPropertyOp19
 70
     1
102
RTVSPropertyOp20
 70
     1
102
RTVSPropertyOp21
 70
     1
102
RTVSPropertyOp22
 70
     1
102
RTVSPropertyOp23
 70
     1
102
RTVSPropertyOp24
 70
     1
102
RTVSPropertyOp25
 70
     1
102
RTVSPropertyOp26
 70
     1
102
RTVSPropertyOp27
 70
     1
102
RTVSPropertyOp28
 70
     1
102
RTVSPropertyOp29
 70
     1
102
RTVSPropertyOp30
 70
     1
102
RTVSPropertyOp31
 70
     1
102
RTVSPropertyOp32
 70
     1
102
RTVSPropertyOp33
 70
     1
102
RTVSPropertyOp34
 70
     1
102
RTVSPropertyOp35
 70
     1
102
RTVSPropertyOp36
 70
     1
102
RTVSPropertyOp37
 70
     1
102
RTVSPropertyOp38
 70
     1
102
RTVSPropertyOp39
 70
     1
102
RTVSPropertyOp40
 70
     1
102
RTVSPropertyOp41
 70
     1
102
RTVSPropertyOp42
 70
     1
102
RTVSPropertyOp43
 70
     1
102
RTVSPropertyOp44
 70
     1
102
RTVSPropertyOp45
 70
     1
102
RTVSPropertyOp46
 70
     1
102
RTVSPropertyOp47
 70
     1
102
RTVSPropertyOp48
 70
     1
102
RTVSPropertyOp49
 70
     1
102
RTVSPropertyOp50
 70
     1
102
RTVSPropertyOp51
 70
     0
102
RTVSPropertyOp52
 70
     0
102
RTVSPropertyOp53
 70
     1
102
RTVSPropertyOp54
 70
     1
102
RTVSPropertyOp55
 70
     1
102
RTVSPropertyOp56
 70
     1
102
RTVSPropertyOp57
 70
     1
102
RTVSPropertyOp58
 70
     1
102
RTVSPropertyOp59
 70
     1
102
RTVSPropertyOp60
 70
     1
102
RTVSPropertyOp61
 70
     1
102
RTVSPropertyOp62
 70
     1
  0
XRECORD
  5
36B
102
{ACAD_REACTORS
330
36A
102
}
330
36A
100
AcDbXrecord
280
     1
102
RTVSPost2010Prop28
280
     0
102
RTVSPost2010PropOp28
 70
     1
102
RTVSPost2010Prop29
280
     1
102
RTVSPost2010PropOp29
 70
     1
102
RTVSPost2010Prop30
280
     1
102
RTVSPost2010PropOp30
 70
     1
102
RTVSPost2010Prop31
280
     0
102
RTVSPost2010PropOp31
 70
     1
102
RTVSPost2010Prop32
280
     0
102
RTVSPost2010PropOp32
 70
     1
102
RTVSPost2010Prop33
280
     0
102
RTVSPost2010PropOp33
 70
     1
102
RTVSPost2010Prop34
280
     0
102
RTVSPost2010PropOp34
 70
     1
102
RTVSPost2010Prop35
280
     0
102
RTVSPost2010PropOp35
 70
     1
102
RTVSPost2010Prop36
280
     0
102
RTVSPost2010PropOp36
 70
     1
102
RTVSPost2010Prop37
 90
       50
102
RTVSPost2010PropOp37
 70
     1
102
RTVSPost2010Prop38
140
0.0
102
RTVSPost2010PropOp38
 70
     1
102
RTVSPost2010Prop39
140
1.0
102
RTVSPost2010PropOp39
 70
     1
102
RTVSPost2010Prop40
 90
        0
102
RTVSPost2010PropOp40
 70
     1
102
RTVSPost2010Prop41ColorIndex
 90
       18
102
RTVSPost2010Prop41ColorRGB
 90
        0
102
RTVSPost2010PropOp41
 70
     1
102
RTVSPost2010Prop42
 90
       50
102
RTVSPost2010PropOp42
 70
     1
102
RTVSPost2010Prop43
 90
        3
102
RTVSPost2010PropOp43
 70
     1
102
RTVSPost2010Prop44ColorIndex
 90
        5
102
RTVSPost2010Prop44ColorRGB
 90
      255
102
RTVSPost2010PropOp44
 70
     1
102
RTVSPost2010Prop45
280
     0
102
RTVSPost2010PropOp45
 70
     1
102
RTVSPost2010Prop46
 90
       50
102
RTVSPost2010PropOp46
 70
     1
102
RTVSPost2010Prop47
 90
       50
102
RTVSPost2010PropOp47
 70
     1
102
RTVSPost2010Prop48
 90
       50
102
RTVSPost2010PropOp48
 70
     1
102
RTVSPost2010Prop49
280
     0
102
RTVSPost2010PropOp49
 70
     1
102
RTVSPost2010Prop50
 90
       50
102
RTVSPost2010PropOp50
 70
     1
102
RTVSPost2010Prop51ColorIndex
 90
      256
102
RTVSPost2010Prop51ColorRGB
 90
-16777216
102
RTVSPost2010PropOp51
 70
     0
102
RTVSPost2010Prop52
140
1.0
102
RTVSPost2010PropOp52
 70
     0
102
RTVSPost2010Prop53
 90
        2
102
RTVSPost2010PropOp53
 70
     1
102
RTVSPost2010Prop54
  1
strokes_ogs.tif
102
RTVSPost2010PropOp54
 70
     1
102
RTVSPost2010Prop55
280
     0
102
RTVSPost2010PropOp55
 70
     1
102
RTVSPost2010Prop56
140
1.0
102
RTVSPost2010PropOp56
 70
     1
102
RTVSPost2010Prop57
140
1.0
102
RTVSPost2010PropOp57
 70
     1
102
RTVSPropertyOp0
 70
     1
102
RTVSPropertyOp1
 70
     1
102
RTVSPropertyOp2
 70
     1
102
RTVSPropertyOp3
 70
     1
102
RTVSPropertyOp4
 70
     1
102
RTVSPropertyOp5
 70
     1
102
RTVSPropertyOp6
 70
     1
102
RTVSPropertyOp7
 70
     1
102
RTVSPropertyOp8
 70
     1
102
RTVSPropertyOp9
 70
     1
102
RTVSPropertyOp10
 70
     1
102
RTVSPropertyOp11
 70
     1
102
RTVSPropertyOp12
 70
     1
102
RTVSPropertyOp13
 70
     1
102
RTVSPropertyOp14
 70
     1
102
RTVSPropertyOp15
 70
     1
102
RTVSPropertyOp16
 70
     1
102
RTVSPropertyOp17
 70
     1
102
RTVSPropertyOp18
 70
     1
102
RTVSPropertyOp19
 70
     1
102
RTVSPropertyOp20
 70
     1
102
RTVSPropertyOp21
 70
     1
102
RTVSPropertyOp22
 70
     1
102
RTVSPropertyOp23
 70
     1
102
RTVSPropertyOp24
 70
     1
102
RTVSPropertyOp25
 70
     1
102
RTVSPropertyOp26
 70
     1
102
RTVSPropertyOp27
 70
     1
102
RTVSPropertyOp28
 70
     1
102
RTVSPropertyOp29
 70
     1
102
RTVSPropertyOp30
 70
     1
102
RTVSPropertyOp31
 70
     1
102
RTVSPropertyOp32
 70
     1
102
RTVSPropertyOp33
 70
     1
102
RTVSPropertyOp34
 70
     1
102
RTVSPropertyOp35
 70
     1
102
RTVSPropertyOp36
 70
     1
102
RTVSPropertyOp37
 70
     1
102
RTVSPropertyOp38
 70
     1
102
RTVSPropertyOp39
 70
     1
102
RTVSPropertyOp40
 70
     1
102
RTVSPropertyOp41
 70
     1
102
RTVSPropertyOp42
 70
     1
102
RTVSPropertyOp43
 70
     1
102
RTVSPropertyOp44
 70
     1
102
RTVSPropertyOp45
 70
     1
102
RTVSPropertyOp46
 70
     1
102
RTVSPropertyOp47
 70
     1
102
RTVSPropertyOp48
 70
     1
102
RTVSPropertyOp49
 70
     1
102
RTVSPropertyOp50
 70
     1
102
RTVSPropertyOp51
 70
     0
102
RTVSPropertyOp52
 70
     0
102
RTVSPropertyOp53
 70
     1
102
RTVSPropertyOp54
 70
     1
102
RTVSPropertyOp55
 70
     1
102
RTVSPropertyOp56
 70
     1
102
RTVSPropertyOp57
 70
     1
102
RTVSPropertyOp58
 70
     1
102
RTVSPropertyOp59
 70
     1
102
RTVSPropertyOp60
 70
     1
102
RTVSPropertyOp61
 70
     1
102
RTVSPropertyOp62
 70
     1
  0
XRECORD
  5
36D
102
{ACAD_REACTORS
330
36C
102
}
330
36C
100
AcDbXrecord
280
     1
102
RTVSPost2010Prop28
280
     0
102
RTVSPost2010PropOp28
 70
     1
102
RTVSPost2010Prop29
280
     1
102
RTVSPost2010PropOp29
 70
     1
102
RTVSPost2010Prop30
280
     1
102
RTVSPost2010PropOp30
 70
     1
102
RTVSPost2010Prop31
280
     0
102
RTVSPost2010PropOp31
 70
     1
102
RTVSPost2010Prop32
280
     0
102
RTVSPost2010PropOp32
 70
     1
102
RTVSPost2010Prop33
280
     0
102
RTVSPost2010PropOp33
 70
     1
102
RTVSPost2010Prop34
280
     0
102
RTVSPost2010PropOp34
 70
     1
102
RTVSPost2010Prop35
280
     0
102
RTVSPost2010PropOp35
 70
     1
102
RTVSPost2010Prop36
280
     0
102
RTVSPost2010PropOp36
 70
     1
102
RTVSPost2010Prop37
 90
       50
102
RTVSPost2010PropOp37
 70
     1
102
RTVSPost2010Prop38
140
0.0
102
RTVSPost2010PropOp38
 70
     1
102
RTVSPost2010Prop39
140
1.0
102
RTVSPost2010PropOp39
 70
     1
102
RTVSPost2010Prop40
 90
        0
102
RTVSPost2010PropOp40
 70
     1
102
RTVSPost2010Prop41ColorIndex
 90
       18
102
RTVSPost2010Prop41ColorRGB
 90
        0
102
RTVSPost2010PropOp41
 70
     1
102
RTVSPost2010Prop42
 90
       50
102
RTVSPost2010PropOp42
 70
     1
102
RTVSPost2010Prop43
 90
        3
102
RTVSPost2010PropOp43
 70
     1
102
RTVSPost2010Prop44ColorIndex
 90
        5
102
RTVSPost2010Prop44ColorRGB
 90
      255
102
RTVSPost2010PropOp44
 70
     1
102
RTVSPost2010Prop45
280
     0
102
RTVSPost2010PropOp45
 70
     1
102
RTVSPost2010Prop46
 90
       50
102
RTVSPost2010PropOp46
 70
     1
102
RTVSPost2010Prop47
 90
       50
102
RTVSPost2010PropOp47
 70
     1
102
RTVSPost2010Prop48
 90
       50
102
RTVSPost2010PropOp48
 70
     1
102
RTVSPost2010Prop49
280
     0
102
RTVSPost2010PropOp49
 70
     1
102
RTVSPost2010Prop50
 90
       50
102
RTVSPost2010PropOp50
 70
     1
102
RTVSPost2010Prop51ColorIndex
 90
      256
102
RTVSPost2010Prop51ColorRGB
 90
-16777216
102
RTVSPost2010PropOp51
 70
     0
102
RTVSPost2010Prop52
140
1.0
102
RTVSPost2010PropOp52
 70
     0
102
RTVSPost2010Prop53
 90
        2
102
RTVSPost2010PropOp53
 70
     1
102
RTVSPost2010Prop54
  1
strokes_ogs.tif
102
RTVSPost2010PropOp54
 70
     1
102
RTVSPost2010Prop55
280
     0
102
RTVSPost2010PropOp55
 70
     1
102
RTVSPost2010Prop56
140
1.0
102
RTVSPost2010PropOp56
 70
     1
102
RTVSPost2010Prop57
140
1.0
102
RTVSPost2010PropOp57
 70
     1
102
RTVSPropertyOp0
 70
     1
102
RTVSPropertyOp1
 70
     1
102
RTVSPropertyOp2
 70
     1
102
RTVSPropertyOp3
 70
     1
102
RTVSPropertyOp4
 70
     1
102
RTVSPropertyOp5
 70
     1
102
RTVSPropertyOp6
 70
     1
102
RTVSPropertyOp7
 70
     1
102
RTVSPropertyOp8
 70
     1
102
RTVSPropertyOp9
 70
     1
102
RTVSPropertyOp10
 70
     1
102
RTVSPropertyOp11
 70
     1
102
RTVSPropertyOp12
 70
     1
102
RTVSPropertyOp13
 70
     1
102
RTVSPropertyOp14
 70
     1
102
RTVSPropertyOp15
 70
     1
102
RTVSPropertyOp16
 70
     1
102
RTVSPropertyOp17
 70
     1
102
RTVSPropertyOp18
 70
     1
102
RTVSPropertyOp19
 70
     1
102
RTVSPropertyOp20
 70
     1
102
RTVSPropertyOp21
 70
     1
102
RTVSPropertyOp22
 70
     1
102
RTVSPropertyOp23
 70
     1
102
RTVSPropertyOp24
 70
     1
102
RTVSPropertyOp25
 70
     1
102
RTVSPropertyOp26
 70
     1
102
RTVSPropertyOp27
 70
     1
102
RTVSPropertyOp28
 70
     1
102
RTVSPropertyOp29
 70
     1
102
RTVSPropertyOp30
 70
     1
102
RTVSPropertyOp31
 70
     1
102
RTVSPropertyOp32
 70
     1
102
RTVSPropertyOp33
 70
     1
102
RTVSPropertyOp34
 70
     1
102
RTVSPropertyOp35
 70
     1
102
RTVSPropertyOp36
 70
     1
102
RTVSPropertyOp37
 70
     1
102
RTVSPropertyOp38
 70
     1
102
RTVSPropertyOp39
 70
     1
102
RTVSPropertyOp40
 70
     1
102
RTVSPropertyOp41
 70
     1
102
RTVSPropertyOp42
 70
     1
102
RTVSPropertyOp43
 70
     1
102
RTVSPropertyOp44
 70
     1
102
RTVSPropertyOp45
 70
     1
102
RTVSPropertyOp46
 70
     1
102
RTVSPropertyOp47
 70
     1
102
RTVSPropertyOp48
 70
     1
102
RTVSPropertyOp49
 70
     1
102
RTVSPropertyOp50
 70
     1
102
RTVSPropertyOp51
 70
     0
102
RTVSPropertyOp52
 70
     0
102
RTVSPropertyOp53
 70
     1
102
RTVSPropertyOp54
 70
     1
102
RTVSPropertyOp55
 70
     1
102
RTVSPropertyOp56
 70
     1
102
RTVSPropertyOp57
 70
     1
102
RTVSPropertyOp58
 70
     1
102
RTVSPropertyOp59
 70
     1
102
RTVSPropertyOp60
 70
     1
102
RTVSPropertyOp61
 70
     1
102
RTVSPropertyOp62
 70
     1
  0
XRECORD
  5
36F
102
{ACAD_REACTORS
330
36E
102
}
330
36E
100
AcDbXrecord
280
     1
102
RTVSPost2010Prop28
280
     0
102
RTVSPost2010PropOp28
 70
     1
102
RTVSPost2010Prop29
280
     1
102
RTVSPost2010PropOp29
 70
     1
102
RTVSPost2010Prop30
280
     1
102
RTVSPost2010PropOp30
 70
     1
102
RTVSPost2010Prop31
280
     0
102
RTVSPost2010PropOp31
 70
     1
102
RTVSPost2010Prop32
280
     0
102
RTVSPost2010PropOp32
 70
     1
102
RTVSPost2010Prop33
280
     0
102
RTVSPost2010PropOp33
 70
     1
102
RTVSPost2010Prop34
280
     0
102
RTVSPost2010PropOp34
 70
     1
102
RTVSPost2010Prop35
280
     0
102
RTVSPost2010PropOp35
 70
     1
102
RTVSPost2010Prop36
280
     0
102
RTVSPost2010PropOp36
 70
     1
102
RTVSPost2010Prop37
 90
       50
102
RTVSPost2010PropOp37
 70
     1
102
RTVSPost2010Prop38
140
0.0
102
RTVSPost2010PropOp38
 70
     1
102
RTVSPost2010Prop39
140
1.0
102
RTVSPost2010PropOp39
 70
     1
102
RTVSPost2010Prop40
 90
        0
102
RTVSPost2010PropOp40
 70
     1
102
RTVSPost2010Prop41ColorIndex
 90
       18
102
RTVSPost2010Prop41ColorRGB
 90
        0
102
RTVSPost2010PropOp41
 70
     1
102
RTVSPost2010Prop42
 90
       50
102
RTVSPost2010PropOp42
 70
     1
102
RTVSPost2010Prop43
 90
        3
102
RTVSPost2010PropOp43
 70
     1
102
RTVSPost2010Prop44ColorIndex
 90
        5
102
RTVSPost2010Prop44ColorRGB
 90
      255
102
RTVSPost2010PropOp44
 70
     1
102
RTVSPost2010Prop45
280
     0
102
RTVSPost2010PropOp45
 70
     1
102
RTVSPost2010Prop46
 90
       50
102
RTVSPost2010PropOp46
 70
     1
102
RTVSPost2010Prop47
 90
       50
102
RTVSPost2010PropOp47
 70
     1
102
RTVSPost2010Prop48
 90
       50
102
RTVSPost2010PropOp48
 70
     1
102
RTVSPost2010Prop49
280
     0
102
RTVSPost2010PropOp49
 70
     1
102
RTVSPost2010Prop50
 90
       50
102
RTVSPost2010PropOp50
 70
     1
102
RTVSPost2010Prop51ColorIndex
 90
      256
102
RTVSPost2010Prop51ColorRGB
 90
-16777216
102
RTVSPost2010PropOp51
 70
     0
102
RTVSPost2010Prop52
140
1.0
102
RTVSPost2010PropOp52
 70
     0
102
RTVSPost2010Prop53
 90
        2
102
RTVSPost2010PropOp53
 70
     1
102
RTVSPost2010Prop54
  1
strokes_ogs.tif
102
RTVSPost2010PropOp54
 70
     1
102
RTVSPost2010Prop55
280
     0
102
RTVSPost2010PropOp55
 70
     1
102
RTVSPost2010Prop56
140
1.0
102
RTVSPost2010PropOp56
 70
     1
102
RTVSPost2010Prop57
140
1.0
102
RTVSPost2010PropOp57
 70
     1
102
RTVSPropertyOp0
 70
     1
102
RTVSPropertyOp1
 70
     1
102
RTVSPropertyOp2
 70
     1
102
RTVSPropertyOp3
 70
     1
102
RTVSPropertyOp4
 70
     1
102
RTVSPropertyOp5
 70
     1
102
RTVSPropertyOp6
 70
     1
102
RTVSPropertyOp7
 70
     1
102
RTVSPropertyOp8
 70
     1
102
RTVSPropertyOp9
 70
     1
102
RTVSPropertyOp10
 70
     1
102
RTVSPropertyOp11
 70
     1
102
RTVSPropertyOp12
 70
     1
102
RTVSPropertyOp13
 70
     1
102
RTVSPropertyOp14
 70
     1
102
RTVSPropertyOp15
 70
     1
102
RTVSPropertyOp16
 70
     1
102
RTVSPropertyOp17
 70
     1
102
RTVSPropertyOp18
 70
     1
102
RTVSPropertyOp19
 70
     1
102
RTVSPropertyOp20
 70
     1
102
RTVSPropertyOp21
 70
     1
102
RTVSPropertyOp22
 70
     1
102
RTVSPropertyOp23
 70
     1
102
RTVSPropertyOp24
 70
     1
102
RTVSPropertyOp25
 70
     1
102
RTVSPropertyOp26
 70
     1
102
RTVSPropertyOp27
 70
     1
102
RTVSPropertyOp28
 70
     1
102
RTVSPropertyOp29
 70
     1
102
RTVSPropertyOp30
 70
     1
102
RTVSPropertyOp31
 70
     1
102
RTVSPropertyOp32
 70
     1
102
RTVSPropertyOp33
 70
     1
102
RTVSPropertyOp34
 70
     1
102
RTVSPropertyOp35
 70
     1
102
RTVSPropertyOp36
 70
     1
102
RTVSPropertyOp37
 70
     1
102
RTVSPropertyOp38
 70
     1
102
RTVSPropertyOp39
 70
     1
102
RTVSPropertyOp40
 70
     1
102
RTVSPropertyOp41
 70
     1
102
RTVSPropertyOp42
 70
     1
102
RTVSPropertyOp43
 70
     1
102
RTVSPropertyOp44
 70
     1
102
RTVSPropertyOp45
 70
     1
102
RTVSPropertyOp46
 70
     1
102
RTVSPropertyOp47
 70
     1
102
RTVSPropertyOp48
 70
     1
102
RTVSPropertyOp49
 70
     1
102
RTVSPropertyOp50
 70
     1
102
RTVSPropertyOp51
 70
     0
102
RTVSPropertyOp52
 70
     0
102
RTVSPropertyOp53
 70
     1
102
RTVSPropertyOp54
 70
     1
102
RTVSPropertyOp55
 70
     1
102
RTVSPropertyOp56
 70
     1
102
RTVSPropertyOp57
 70
     1
102
RTVSPropertyOp58
 70
     1
102
RTVSPropertyOp59
 70
     1
102
RTVSPropertyOp60
 70
     1
102
RTVSPropertyOp61
 70
     1
102
RTVSPropertyOp62
 70
     1
  0
XRECORD
  5
371
102
{ACAD_REACTORS
330
370
102
}
330
370
100
AcDbXrecord
280
     1
102
RTVSPost2010Prop28
280
     0
102
RTVSPost2010PropOp28
 70
     1
102
RTVSPost2010Prop29
280
     1
102
RTVSPost2010PropOp29
 70
     1
102
RTVSPost2010Prop30
280
     1
102
RTVSPost2010PropOp30
 70
     1
102
RTVSPost2010Prop31
280
     0
102
RTVSPost2010PropOp31
 70
     1
102
RTVSPost2010Prop32
280
     0
102
RTVSPost2010PropOp32
 70
     1
102
RTVSPost2010Prop33
280
     0
102
RTVSPost2010PropOp33
 70
     1
102
RTVSPost2010Prop34
280
     0
102
RTVSPost2010PropOp34
 70
     1
102
RTVSPost2010Prop35
280
     0
102
RTVSPost2010PropOp35
 70
     1
102
RTVSPost2010Prop36
280
     0
102
RTVSPost2010PropOp36
 70
     1
102
RTVSPost2010Prop37
 90
       50
102
RTVSPost2010PropOp37
 70
     1
102
RTVSPost2010Prop38
140
0.0
102
RTVSPost2010PropOp38
 70
     1
102
RTVSPost2010Prop39
140
1.0
102
RTVSPost2010PropOp39
 70
     1
102
RTVSPost2010Prop40
 90
        0
102
RTVSPost2010PropOp40
 70
     1
102
RTVSPost2010Prop41ColorIndex
 90
       18
102
RTVSPost2010Prop41ColorRGB
 90
        0
102
RTVSPost2010PropOp41
 70
     1
102
RTVSPost2010Prop42
 90
       50
102
RTVSPost2010PropOp42
 70
     1
102
RTVSPost2010Prop43
 90
        3
102
RTVSPost2010PropOp43
 70
     1
102
RTVSPost2010Prop44ColorIndex
 90
        5
102
RTVSPost2010Prop44ColorRGB
 90
      255
102
RTVSPost2010PropOp44
 70
     1
102
RTVSPost2010Prop45
280
     0
102
RTVSPost2010PropOp45
 70
     1
102
RTVSPost2010Prop46
 90
       50
102
RTVSPost2010PropOp46
 70
     1
102
RTVSPost2010Prop47
 90
       50
102
RTVSPost2010PropOp47
 70
     1
102
RTVSPost2010Prop48
 90
       50
102
RTVSPost2010PropOp48
 70
     1
102
RTVSPost2010Prop49
280
     0
102
RTVSPost2010PropOp49
 70
     1
102
RTVSPost2010Prop50
 90
       50
102
RTVSPost2010PropOp50
 70
     1
102
RTVSPost2010Prop51ColorIndex
 90
      256
102
RTVSPost2010Prop51ColorRGB
 90
-16777216
102
RTVSPost2010PropOp51
 70
     0
102
RTVSPost2010Prop52
140
1.0
102
RTVSPost2010PropOp52
 70
     0
102
RTVSPost2010Prop53
 90
        2
102
RTVSPost2010PropOp53
 70
     1
102
RTVSPost2010Prop54
  1
strokes_ogs.tif
102
RTVSPost2010PropOp54
 70
     1
102
RTVSPost2010Prop55
280
     0
102
RTVSPost2010PropOp55
 70
     1
102
RTVSPost2010Prop56
140
1.0
102
RTVSPost2010PropOp56
 70
     1
102
RTVSPost2010Prop57
140
1.0
102
RTVSPost2010PropOp57
 70
     1
102
RTVSPropertyOp0
 70
     1
102
RTVSPropertyOp1
 70
     1
102
RTVSPropertyOp2
 70
     1
102
RTVSPropertyOp3
 70
     1
102
RTVSPropertyOp4
 70
     1
102
RTVSPropertyOp5
 70
     1
102
RTVSPropertyOp6
 70
     1
102
RTVSPropertyOp7
 70
     1
102
RTVSPropertyOp8
 70
     1
102
RTVSPropertyOp9
 70
     1
102
RTVSPropertyOp10
 70
     1
102
RTVSPropertyOp11
 70
     1
102
RTVSPropertyOp12
 70
     1
102
RTVSPropertyOp13
 70
     1
102
RTVSPropertyOp14
 70
     1
102
RTVSPropertyOp15
 70
     1
102
RTVSPropertyOp16
 70
     1
102
RTVSPropertyOp17
 70
     1
102
RTVSPropertyOp18
 70
     1
102
RTVSPropertyOp19
 70
     1
102
RTVSPropertyOp20
 70
     1
102
RTVSPropertyOp21
 70
     1
102
RTVSPropertyOp22
 70
     1
102
RTVSPropertyOp23
 70
     1
102
RTVSPropertyOp24
 70
     1
102
RTVSPropertyOp25
 70
     1
102
RTVSPropertyOp26
 70
     1
102
RTVSPropertyOp27
 70
     1
102
RTVSPropertyOp28
 70
     1
102
RTVSPropertyOp29
 70
     1
102
RTVSPropertyOp30
 70
     1
102
RTVSPropertyOp31
 70
     1
102
RTVSPropertyOp32
 70
     1
102
RTVSPropertyOp33
 70
     1
102
RTVSPropertyOp34
 70
     1
102
RTVSPropertyOp35
 70
     1
102
RTVSPropertyOp36
 70
     1
102
RTVSPropertyOp37
 70
     1
102
RTVSPropertyOp38
 70
     1
102
RTVSPropertyOp39
 70
     1
102
RTVSPropertyOp40
 70
     1
102
RTVSPropertyOp41
 70
     1
102
RTVSPropertyOp42
 70
     1
102
RTVSPropertyOp43
 70
     1
102
RTVSPropertyOp44
 70
     1
102
RTVSPropertyOp45
 70
     1
102
RTVSPropertyOp46
 70
     1
102
RTVSPropertyOp47
 70
     1
102
RTVSPropertyOp48
 70
     1
102
RTVSPropertyOp49
 70
     1
102
RTVSPropertyOp50
 70
     1
102
RTVSPropertyOp51
 70
     0
102
RTVSPropertyOp52
 70
     0
102
RTVSPropertyOp53
 70
     1
102
RTVSPropertyOp54
 70
     1
102
RTVSPropertyOp55
 70
     1
102
RTVSPropertyOp56
 70
     1
102
RTVSPropertyOp57
 70
     1
102
RTVSPropertyOp58
 70
     1
102
RTVSPropertyOp59
 70
     1
102
RTVSPropertyOp60
 70
     1
102
RTVSPropertyOp61
 70
     1
102
RTVSPropertyOp62
 70
     1
  0
XRECORD
  5
377
102
{ACAD_REACTORS
330
376
102
}
330
376
100
AcDbXrecord
280
     1
102
RTVSPost2010Prop28
280
     0
102
RTVSPost2010PropOp28
 70
     1
102
RTVSPost2010Prop29
280
     1
102
RTVSPost2010PropOp29
 70
     1
102
RTVSPost2010Prop30
280
     1
102
RTVSPost2010PropOp30
 70
     1
102
RTVSPost2010Prop31
280
     0
102
RTVSPost2010PropOp31
 70
     1
102
RTVSPost2010Prop32
280
     0
102
RTVSPost2010PropOp32
 70
     1
102
RTVSPost2010Prop33
280
     0
102
RTVSPost2010PropOp33
 70
     1
102
RTVSPost2010Prop34
280
     0
102
RTVSPost2010PropOp34
 70
     1
102
RTVSPost2010Prop35
280
     0
102
RTVSPost2010PropOp35
 70
     1
102
RTVSPost2010Prop36
280
     0
102
RTVSPost2010PropOp36
 70
     1
102
RTVSPost2010Prop37
 90
       50
102
RTVSPost2010PropOp37
 70
     1
102
RTVSPost2010Prop38
140
0.0
102
RTVSPost2010PropOp38
 70
     1
102
RTVSPost2010Prop39
140
1.0
102
RTVSPost2010PropOp39
 70
     1
102
RTVSPost2010Prop40
 90
        0
102
RTVSPost2010PropOp40
 70
     1
102
RTVSPost2010Prop41ColorIndex
 90
       18
102
RTVSPost2010Prop41ColorRGB
 90
        0
102
RTVSPost2010PropOp41
 70
     1
102
RTVSPost2010Prop42
 90
       50
102
RTVSPost2010PropOp42
 70
     1
102
RTVSPost2010Prop43
 90
        3
102
RTVSPost2010PropOp43
 70
     1
102
RTVSPost2010Prop44ColorIndex
 90
        5
102
RTVSPost2010Prop44ColorRGB
 90
      255
102
RTVSPost2010PropOp44
 70
     1
102
RTVSPost2010Prop45
280
     0
102
RTVSPost2010PropOp45
 70
     1
102
RTVSPost2010Prop46
 90
       50
102
RTVSPost2010PropOp46
 70
     1
102
RTVSPost2010Prop47
 90
       50
102
RTVSPost2010PropOp47
 70
     1
102
RTVSPost2010Prop48
 90
       50
102
RTVSPost2010PropOp48
 70
     1
102
RTVSPost2010Prop49
280
     0
102
RTVSPost2010PropOp49
 70
     1
102
RTVSPost2010Prop50
 90
       50
102
RTVSPost2010PropOp50
 70
     1
102
RTVSPost2010Prop51ColorIndex
 90
      256
102
RTVSPost2010Prop51ColorRGB
 90
-16777216
102
RTVSPost2010PropOp51
 70
     0
102
RTVSPost2010Prop52
140
1.0
102
RTVSPost2010PropOp52
 70
     0
102
RTVSPost2010Prop53
 90
        2
102
RTVSPost2010PropOp53
 70
     1
102
RTVSPost2010Prop54
  1
strokes_ogs.tif
102
RTVSPost2010PropOp54
 70
     1
102
RTVSPost2010Prop55
280
     0
102
RTVSPost2010PropOp55
 70
     1
102
RTVSPost2010Prop56
140
1.0
102
RTVSPost2010PropOp56
 70
     1
102
RTVSPost2010Prop57
140
1.0
102
RTVSPost2010PropOp57
 70
     1
102
RTVSPropertyOp0
 70
     1
102
RTVSPropertyOp1
 70
     1
102
RTVSPropertyOp2
 70
     1
102
RTVSPropertyOp3
 70
     1
102
RTVSPropertyOp4
 70
     1
102
RTVSPropertyOp5
 70
     1
102
RTVSPropertyOp6
 70
     1
102
RTVSPropertyOp7
 70
     1
102
RTVSPropertyOp8
 70
     1
102
RTVSPropertyOp9
 70
     1
102
RTVSPropertyOp10
 70
     1
102
RTVSPropertyOp11
 70
     1
102
RTVSPropertyOp12
 70
     1
102
RTVSPropertyOp13
 70
     1
102
RTVSPropertyOp14
 70
     1
102
RTVSPropertyOp15
 70
     1
102
RTVSPropertyOp16
 70
     1
102
RTVSPropertyOp17
 70
     1
102
RTVSPropertyOp18
 70
     1
102
RTVSPropertyOp19
 70
     1
102
RTVSPropertyOp20
 70
     1
102
RTVSPropertyOp21
 70
     1
102
RTVSPropertyOp22
 70
     1
102
RTVSPropertyOp23
 70
     1
102
RTVSPropertyOp24
 70
     1
102
RTVSPropertyOp25
 70
     1
102
RTVSPropertyOp26
 70
     1
102
RTVSPropertyOp27
 70
     1
102
RTVSPropertyOp28
 70
     1
102
RTVSPropertyOp29
 70
     1
102
RTVSPropertyOp30
 70
     1
102
RTVSPropertyOp31
 70
     1
102
RTVSPropertyOp32
 70
     1
102
RTVSPropertyOp33
 70
     1
102
RTVSPropertyOp34
 70
     1
102
RTVSPropertyOp35
 70
     1
102
RTVSPropertyOp36
 70
     1
102
RTVSPropertyOp37
 70
     1
102
RTVSPropertyOp38
 70
     1
102
RTVSPropertyOp39
 70
     1
102
RTVSPropertyOp40
 70
     1
102
RTVSPropertyOp41
 70
     1
102
RTVSPropertyOp42
 70
     1
102
RTVSPropertyOp43
 70
     1
102
RTVSPropertyOp44
 70
     1
102
RTVSPropertyOp45
 70
     1
102
RTVSPropertyOp46
 70
     1
102
RTVSPropertyOp47
 70
     1
102
RTVSPropertyOp48
 70
     1
102
RTVSPropertyOp49
 70
     1
102
RTVSPropertyOp50
 70
     1
102
RTVSPropertyOp51
 70
     0
102
RTVSPropertyOp52
 70
     0
102
RTVSPropertyOp53
 70
     1
102
RTVSPropertyOp54
 70
     1
102
RTVSPropertyOp55
 70
     1
102
RTVSPropertyOp56
 70
     1
102
RTVSPropertyOp57
 70
     1
102
RTVSPropertyOp58
 70
     1
102
RTVSPropertyOp59
 70
     1
102
RTVSPropertyOp60
 70
     1
102
RTVSPropertyOp61
 70
     1
102
RTVSPropertyOp62
 70
     1
  0
XRECORD
  5
38B
102
{ACAD_REACTORS
330
38A
102
}
330
38A
100
AcDbXrecord
280
     1
102
RTVSPost2010Prop28
280
     0
102
RTVSPost2010PropOp28
 70
     0
102
RTVSPost2010Prop29
280
     1
102
RTVSPost2010PropOp29
 70
     0
102
RTVSPost2010Prop30
280
     1
102
RTVSPost2010PropOp30
 70
     0
102
RTVSPost2010Prop31
280
     0
102
RTVSPost2010PropOp31
 70
     0
102
RTVSPost2010Prop32
280
     0
102
RTVSPost2010PropOp32
 70
     0
102
RTVSPost2010Prop33
280
     0
102
RTVSPost2010PropOp33
 70
     0
102
RTVSPost2010Prop34
280
     0
102
RTVSPost2010PropOp34
 70
     0
102
RTVSPost2010Prop35
280
     0
102
RTVSPost2010PropOp35
 70
     0
102
RTVSPost2010Prop36
280
     0
102
RTVSPost2010PropOp36
 70
     0
102
RTVSPost2010Prop37
 90
       50
102
RTVSPost2010PropOp37
 70
     0
102
RTVSPost2010Prop38
140
0.0
102
RTVSPost2010PropOp38
 70
     0
102
RTVSPost2010Prop39
140
1.0
102
RTVSPost2010PropOp39
 70
     0
102
RTVSPost2010Prop40
 90
        0
102
RTVSPost2010PropOp40
 70
     0
102
RTVSPost2010Prop41ColorIndex
 90
       18
102
RTVSPost2010Prop41ColorRGB
 90
        0
102
RTVSPost2010PropOp41
 70
     0
102
RTVSPost2010Prop42
 90
       50
102
RTVSPost2010PropOp42
 70
     0
102
RTVSPost2010Prop43
 90
        3
102
RTVSPost2010PropOp43
 70
     0
102
RTVSPost2010Prop44ColorIndex
 90
        5
102
RTVSPost2010Prop44ColorRGB
 90
      255
102
RTVSPost2010PropOp44
 70
     0
102
RTVSPost2010Prop45
280
     0
102
RTVSPost2010PropOp45
 70
     0
102
RTVSPost2010Prop46
 90
       50
102
RTVSPost2010PropOp46
 70
     0
102
RTVSPost2010Prop47
 90
       50
102
RTVSPost2010PropOp47
 70
     0
102
RTVSPost2010Prop48
 90
       50
102
RTVSPost2010PropOp48
 70
     0
102
RTVSPost2010Prop49
280
     0
102
RTVSPost2010PropOp49
 70
     0
102
RTVSPost2010Prop50
 90
       50
102
RTVSPost2010PropOp50
 70
     0
102
RTVSPost2010Prop51ColorIndex
 90
      256
102
RTVSPost2010Prop51ColorRGB
 90
-16777216
102
RTVSPost2010PropOp51
 70
     0
102
RTVSPost2010Prop52
140
1.0
102
RTVSPost2010PropOp52
 70
     0
102
RTVSPost2010Prop53
 90
        2
102
RTVSPost2010PropOp53
 70
     0
102
RTVSPost2010Prop54
  1
strokes_ogs.tif
102
RTVSPost2010PropOp54
 70
     0
102
RTVSPost2010Prop55
280
     0
102
RTVSPost2010PropOp55
 70
     0
102
RTVSPost2010Prop56
140
1.0
102
RTVSPost2010PropOp56
 70
     0
102
RTVSPost2010Prop57
140
1.0
102
RTVSPost2010PropOp57
 70
     0
102
RTVSPropertyOp0
 70
     0
102
RTVSPropertyOp1
 70
     0
102
RTVSPropertyOp2
 70
     0
102
RTVSPropertyOp3
 70
     0
102
RTVSPropertyOp4
 70
     0
102
RTVSPropertyOp5
 70
     0
102
RTVSPropertyOp6
 70
     0
102
RTVSPropertyOp7
 70
     0
102
RTVSPropertyOp8
 70
     0
102
RTVSPropertyOp9
 70
     0
102
RTVSPropertyOp10
 70
     0
102
RTVSPropertyOp11
 70
     0
102
RTVSPropertyOp12
 70
     0
102
RTVSPropertyOp13
 70
     0
102
RTVSPropertyOp14
 70
     2
102
RTVSPropertyOp15
 70
     0
102
RTVSPropertyOp16
 70
     0
102
RTVSPropertyOp17
 70
     0
102
RTVSPropertyOp18
 70
     0
102
RTVSPropertyOp19
 70
     0
102
RTVSPropertyOp20
 70
     0
102
RTVSPropertyOp21
 70
     0
102
RTVSPropertyOp22
 70
     0
102
RTVSPropertyOp23
 70
     0
102
RTVSPropertyOp24
 70
     0
102
RTVSPropertyOp25
 70
     0
102
RTVSPropertyOp26
 70
     0
102
RTVSPropertyOp27
 70
     0
102
RTVSPropertyOp28
 70
     0
102
RTVSPropertyOp29
 70
     0
102
RTVSPropertyOp30
 70
     0
102
RTVSPropertyOp31
 70
     0
102
RTVSPropertyOp32
 70
     0
102
RTVSPropertyOp33
 70
     0
102
RTVSPropertyOp34
 70
     0
102
RTVSPropertyOp35
 70
     0
102
RTVSPropertyOp36
 70
     0
102
RTVSPropertyOp37
 70
     0
102
RTVSPropertyOp38
 70
     0
102
RTVSPropertyOp39
 70
     0
102
RTVSPropertyOp40
 70
     0
102
RTVSPropertyOp41
 70
     0
102
RTVSPropertyOp42
 70
     0
102
RTVSPropertyOp43
 70
     0
102
RTVSPropertyOp44
 70
     0
102
RTVSPropertyOp45
 70
     0
102
RTVSPropertyOp46
 70
     0
102
RTVSPropertyOp47
 70
     0
102
RTVSPropertyOp48
 70
     0
102
RTVSPropertyOp49
 70
     0
102
RTVSPropertyOp50
 70
     0
102
RTVSPropertyOp51
 70
     0
102
RTVSPropertyOp52
 70
     0
102
RTVSPropertyOp53
 70
     0
102
RTVSPropertyOp54
 70
     0
102
RTVSPropertyOp55
 70
     0
102
RTVSPropertyOp56
 70
     0
102
RTVSPropertyOp57
 70
     0
102
RTVSPropertyOp58
 70
     1
102
RTVSPropertyOp59
 70
     1
102
RTVSPropertyOp60
 70
     1
102
RTVSPropertyOp61
 70
     1
102
RTVSPropertyOp62
 70
     1
  0
XRECORD
  5
385
102
{ACAD_REACTORS
330
384
102
}
330
384
100
AcDbXrecord
280
     1
102
RTVSPost2010Prop28
280
     0
102
RTVSPost2010PropOp28
 70
     1
102
RTVSPost2010Prop29
280
     1
102
RTVSPost2010PropOp29
 70
     1
102
RTVSPost2010Prop30
280
     1
102
RTVSPost2010PropOp30
 70
     1
102
RTVSPost2010Prop31
280
     0
102
RTVSPost2010PropOp31
 70
     1
102
RTVSPost2010Prop32
280
     0
102
RTVSPost2010PropOp32
 70
     1
102
RTVSPost2010Prop33
280
     0
102
RTVSPost2010PropOp33
 70
     1
102
RTVSPost2010Prop34
280
     0
102
RTVSPost2010PropOp34
 70
     1
102
RTVSPost2010Prop35
280
     0
102
RTVSPost2010PropOp35
 70
     1
102
RTVSPost2010Prop36
280
     0
102
RTVSPost2010PropOp36
 70
     1
102
RTVSPost2010Prop37
 90
       50
102
RTVSPost2010PropOp37
 70
     1
102
RTVSPost2010Prop38
140
0.0
102
RTVSPost2010PropOp38
 70
     1
102
RTVSPost2010Prop39
140
1.0
102
RTVSPost2010PropOp39
 70
     1
102
RTVSPost2010Prop40
 90
        0
102
RTVSPost2010PropOp40
 70
     1
102
RTVSPost2010Prop41ColorIndex
 90
       18
102
RTVSPost2010Prop41ColorRGB
 90
        0
102
RTVSPost2010PropOp41
 70
     1
102
RTVSPost2010Prop42
 90
       50
102
RTVSPost2010PropOp42
 70
     1
102
RTVSPost2010Prop43
 90
        3
102
RTVSPost2010PropOp43
 70
     1
102
RTVSPost2010Prop44ColorIndex
 90
        5
102
RTVSPost2010Prop44ColorRGB
 90
      255
102
RTVSPost2010PropOp44
 70
     1
102
RTVSPost2010Prop45
280
     0
102
RTVSPost2010PropOp45
 70
     1
102
RTVSPost2010Prop46
 90
       50
102
RTVSPost2010PropOp46
 70
     1
102
RTVSPost2010Prop47
 90
       50
102
RTVSPost2010PropOp47
 70
     1
102
RTVSPost2010Prop48
 90
       50
102
RTVSPost2010PropOp48
 70
     1
102
RTVSPost2010Prop49
280
     0
102
RTVSPost2010PropOp49
 70
     1
102
RTVSPost2010Prop50
 90
       50
102
RTVSPost2010PropOp50
 70
     1
102
RTVSPost2010Prop51ColorIndex
 90
      256
102
RTVSPost2010Prop51ColorRGB
 90
-16777216
102
RTVSPost2010PropOp51
 70
     0
102
RTVSPost2010Prop52
140
1.0
102
RTVSPost2010PropOp52
 70
     0
102
RTVSPost2010Prop53
 90
        2
102
RTVSPost2010PropOp53
 70
     1
102
RTVSPost2010Prop54
  1
strokes_ogs.tif
102
RTVSPost2010PropOp54
 70
     1
102
RTVSPost2010Prop55
280
     0
102
RTVSPost2010PropOp55
 70
     1
102
RTVSPost2010Prop56
140
1.0
102
RTVSPost2010PropOp56
 70
     1
102
RTVSPost2010Prop57
140
1.0
102
RTVSPost2010PropOp57
 70
     1
102
RTVSPropertyOp0
 70
     1
102
RTVSPropertyOp1
 70
     1
102
RTVSPropertyOp2
 70
     1
102
RTVSPropertyOp3
 70
     1
102
RTVSPropertyOp4
 70
     1
102
RTVSPropertyOp5
 70
     1
102
RTVSPropertyOp6
 70
     1
102
RTVSPropertyOp7
 70
     1
102
RTVSPropertyOp8
 70
     1
102
RTVSPropertyOp9
 70
     1
102
RTVSPropertyOp10
 70
     1
102
RTVSPropertyOp11
 70
     1
102
RTVSPropertyOp12
 70
     1
102
RTVSPropertyOp13
 70
     1
102
RTVSPropertyOp14
 70
     1
102
RTVSPropertyOp15
 70
     1
102
RTVSPropertyOp16
 70
     1
102
RTVSPropertyOp17
 70
     1
102
RTVSPropertyOp18
 70
     1
102
RTVSPropertyOp19
 70
     1
102
RTVSPropertyOp20
 70
     1
102
RTVSPropertyOp21
 70
     1
102
RTVSPropertyOp22
 70
     1
102
RTVSPropertyOp23
 70
     1
102
RTVSPropertyOp24
 70
     1
102
RTVSPropertyOp25
 70
     1
102
RTVSPropertyOp26
 70
     1
102
RTVSPropertyOp27
 70
     1
102
RTVSPropertyOp28
 70
     1
102
RTVSPropertyOp29
 70
     1
102
RTVSPropertyOp30
 70
     1
102
RTVSPropertyOp31
 70
     1
102
RTVSPropertyOp32
 70
     1
102
RTVSPropertyOp33
 70
     1
102
RTVSPropertyOp34
 70
     1
102
RTVSPropertyOp35
 70
     1
102
RTVSPropertyOp36
 70
     1
102
RTVSPropertyOp37
 70
     1
102
RTVSPropertyOp38
 70
     1
102
RTVSPropertyOp39
 70
     1
102
RTVSPropertyOp40
 70
     1
102
RTVSPropertyOp41
 70
     1
102
RTVSPropertyOp42
 70
     1
102
RTVSPropertyOp43
 70
     1
102
RTVSPropertyOp44
 70
     1
102
RTVSPropertyOp45
 70
     1
102
RTVSPropertyOp46
 70
     1
102
RTVSPropertyOp47
 70
     1
102
RTVSPropertyOp48
 70
     1
102
RTVSPropertyOp49
 70
     1
102
RTVSPropertyOp50
 70
     1
102
RTVSPropertyOp51
 70
     0
102
RTVSPropertyOp52
 70
     0
102
RTVSPropertyOp53
 70
     1
102
RTVSPropertyOp54
 70
     1
102
RTVSPropertyOp55
 70
     1
102
RTVSPropertyOp56
 70
     1
102
RTVSPropertyOp57
 70
     1
102
RTVSPropertyOp58
 70
     1
102
RTVSPropertyOp59
 70
     1
102
RTVSPropertyOp60
 70
     1
102
RTVSPropertyOp61
 70
     1
102
RTVSPropertyOp62
 70
     1
  0
XRECORD
  5
38D
102
{ACAD_REACTORS
330
38C
102
}
330
38C
100
AcDbXrecord
280
     1
102
RTVSPost2010Prop28
280
     0
102
RTVSPost2010PropOp28
 70
     0
102
RTVSPost2010Prop29
280
     1
102
RTVSPost2010PropOp29
 70
     0
102
RTVSPost2010Prop30
280
     1
102
RTVSPost2010PropOp30
 70
     0
102
RTVSPost2010Prop31
280
     0
102
RTVSPost2010PropOp31
 70
     0
102
RTVSPost2010Prop32
280
     0
102
RTVSPost2010PropOp32
 70
     0
102
RTVSPost2010Prop33
280
     0
102
RTVSPost2010PropOp33
 70
     0
102
RTVSPost2010Prop34
280
     0
102
RTVSPost2010PropOp34
 70
     0
102
RTVSPost2010Prop35
280
     0
102
RTVSPost2010PropOp35
 70
     0
102
RTVSPost2010Prop36
280
     0
102
RTVSPost2010PropOp36
 70
     0
102
RTVSPost2010Prop37
 90
       50
102
RTVSPost2010PropOp37
 70
     0
102
RTVSPost2010Prop38
140
0.0
102
RTVSPost2010PropOp38
 70
     0
102
RTVSPost2010Prop39
140
1.0
102
RTVSPost2010PropOp39
 70
     0
102
RTVSPost2010Prop40
 90
        0
102
RTVSPost2010PropOp40
 70
     0
102
RTVSPost2010Prop41ColorIndex
 90
       18
102
RTVSPost2010Prop41ColorRGB
 90
        0
102
RTVSPost2010PropOp41
 70
     0
102
RTVSPost2010Prop42
 90
       50
102
RTVSPost2010PropOp42
 70
     0
102
RTVSPost2010Prop43
 90
        3
102
RTVSPost2010PropOp43
 70
     0
102
RTVSPost2010Prop44ColorIndex
 90
        5
102
RTVSPost2010Prop44ColorRGB
 90
      255
102
RTVSPost2010PropOp44
 70
     0
102
RTVSPost2010Prop45
280
     0
102
RTVSPost2010PropOp45
 70
     0
102
RTVSPost2010Prop46
 90
       50
102
RTVSPost2010PropOp46
 70
     0
102
RTVSPost2010Prop47
 90
       50
102
RTVSPost2010PropOp47
 70
     0
102
RTVSPost2010Prop48
 90
       50
102
RTVSPost2010PropOp48
 70
     0
102
RTVSPost2010Prop49
280
     0
102
RTVSPost2010PropOp49
 70
     0
102
RTVSPost2010Prop50
 90
       50
102
RTVSPost2010PropOp50
 70
     0
102
RTVSPost2010Prop51ColorIndex
 90
      256
102
RTVSPost2010Prop51ColorRGB
 90
-16777216
102
RTVSPost2010PropOp51
 70
     0
102
RTVSPost2010Prop52
140
1.0
102
RTVSPost2010PropOp52
 70
     0
102
RTVSPost2010Prop53
 90
        2
102
RTVSPost2010PropOp53
 70
     0
102
RTVSPost2010Prop54
  1
strokes_ogs.tif
102
RTVSPost2010PropOp54
 70
     0
102
RTVSPost2010Prop55
280
     0
102
RTVSPost2010PropOp55
 70
     0
102
RTVSPost2010Prop56
140
1.0
102
RTVSPost2010PropOp56
 70
     0
102
RTVSPost2010Prop57
140
1.0
102
RTVSPost2010PropOp57
 70
     0
102
RTVSPropertyOp0
 70
     0
102
RTVSPropertyOp1
 70
     0
102
RTVSPropertyOp2
 70
     0
102
RTVSPropertyOp3
 70
     0
102
RTVSPropertyOp4
 70
     0
102
RTVSPropertyOp5
 70
     0
102
RTVSPropertyOp6
 70
     0
102
RTVSPropertyOp7
 70
     0
102
RTVSPropertyOp8
 70
     0
102
RTVSPropertyOp9
 70
     0
102
RTVSPropertyOp10
 70
     0
102
RTVSPropertyOp11
 70
     0
102
RTVSPropertyOp12
 70
     0
102
RTVSPropertyOp13
 70
     0
102
RTVSPropertyOp14
 70
     2
102
RTVSPropertyOp15
 70
     0
102
RTVSPropertyOp16
 70
     0
102
RTVSPropertyOp17
 70
     0
102
RTVSPropertyOp18
 70
     0
102
RTVSPropertyOp19
 70
     0
102
RTVSPropertyOp20
 70
     0
102
RTVSPropertyOp21
 70
     0
102
RTVSPropertyOp22
 70
     0
102
RTVSPropertyOp23
 70
     0
102
RTVSPropertyOp24
 70
     0
102
RTVSPropertyOp25
 70
     0
102
RTVSPropertyOp26
 70
     0
102
RTVSPropertyOp27
 70
     0
102
RTVSPropertyOp28
 70
     0
102
RTVSPropertyOp29
 70
     0
102
RTVSPropertyOp30
 70
     0
102
RTVSPropertyOp31
 70
     0
102
RTVSPropertyOp32
 70
     0
102
RTVSPropertyOp33
 70
     0
102
RTVSPropertyOp34
 70
     0
102
RTVSPropertyOp35
 70
     0
102
RTVSPropertyOp36
 70
     0
102
RTVSPropertyOp37
 70
     0
102
RTVSPropertyOp38
 70
     0
102
RTVSPropertyOp39
 70
     0
102
RTVSPropertyOp40
 70
     0
102
RTVSPropertyOp41
 70
     0
102
RTVSPropertyOp42
 70
     0
102
RTVSPropertyOp43
 70
     0
102
RTVSPropertyOp44
 70
     0
102
RTVSPropertyOp45
 70
     0
102
RTVSPropertyOp46
 70
     0
102
RTVSPropertyOp47
 70
     0
102
RTVSPropertyOp48
 70
     0
102
RTVSPropertyOp49
 70
     0
102
RTVSPropertyOp50
 70
     0
102
RTVSPropertyOp51
 70
     0
102
RTVSPropertyOp52
 70
     0
102
RTVSPropertyOp53
 70
     0
102
RTVSPropertyOp54
 70
     0
102
RTVSPropertyOp55
 70
     0
102
RTVSPropertyOp56
 70
     0
102
RTVSPropertyOp57
 70
     0
102
RTVSPropertyOp58
 70
     1
102
RTVSPropertyOp59
 70
     1
102
RTVSPropertyOp60
 70
     1
102
RTVSPropertyOp61
 70
     1
102
RTVSPropertyOp62
 70
     1
  0
XRECORD
  5
37B
102
{ACAD_REACTORS
330
37A
102
}
330
37A
100
AcDbXrecord
280
     1
102
RTVSPost2010Prop28
280
     0
102
RTVSPost2010PropOp28
 70
     1
102
RTVSPost2010Prop29
280
     1
102
RTVSPost2010PropOp29
 70
     1
102
RTVSPost2010Prop30
280
     1
102
RTVSPost2010PropOp30
 70
     1
102
RTVSPost2010Prop31
280
     0
102
RTVSPost2010PropOp31
 70
     1
102
RTVSPost2010Prop32
280
     0
102
RTVSPost2010PropOp32
 70
     1
102
RTVSPost2010Prop33
280
     0
102
RTVSPost2010PropOp33
 70
     1
102
RTVSPost2010Prop34
280
     0
102
RTVSPost2010PropOp34
 70
     1
102
RTVSPost2010Prop35
280
     0
102
RTVSPost2010PropOp35
 70
     1
102
RTVSPost2010Prop36
280
     0
102
RTVSPost2010PropOp36
 70
     1
102
RTVSPost2010Prop37
 90
       50
102
RTVSPost2010PropOp37
 70
     1
102
RTVSPost2010Prop38
140
0.0
102
RTVSPost2010PropOp38
 70
     1
102
RTVSPost2010Prop39
140
1.0
102
RTVSPost2010PropOp39
 70
     1
102
RTVSPost2010Prop40
 90
        0
102
RTVSPost2010PropOp40
 70
     1
102
RTVSPost2010Prop41ColorIndex
 90
       18
102
RTVSPost2010Prop41ColorRGB
 90
        0
102
RTVSPost2010PropOp41
 70
     1
102
RTVSPost2010Prop42
 90
       50
102
RTVSPost2010PropOp42
 70
     1
102
RTVSPost2010Prop43
 90
        3
102
RTVSPost2010PropOp43
 70
     1
102
RTVSPost2010Prop44ColorIndex
 90
        5
102
RTVSPost2010Prop44ColorRGB
 90
      255
102
RTVSPost2010PropOp44
 70
     1
102
RTVSPost2010Prop45
280
     0
102
RTVSPost2010PropOp45
 70
     1
102
RTVSPost2010Prop46
 90
       50
102
RTVSPost2010PropOp46
 70
     1
102
RTVSPost2010Prop47
 90
       50
102
RTVSPost2010PropOp47
 70
     1
102
RTVSPost2010Prop48
 90
       50
102
RTVSPost2010PropOp48
 70
     1
102
RTVSPost2010Prop49
280
     0
102
RTVSPost2010PropOp49
 70
     1
102
RTVSPost2010Prop50
 90
       50
102
RTVSPost2010PropOp50
 70
     1
102
RTVSPost2010Prop51ColorIndex
 90
      256
102
RTVSPost2010Prop51ColorRGB
 90
-16777216
102
RTVSPost2010PropOp51
 70
     0
102
RTVSPost2010Prop52
140
1.0
102
RTVSPost2010PropOp52
 70
     0
102
RTVSPost2010Prop53
 90
        2
102
RTVSPost2010PropOp53
 70
     1
102
RTVSPost2010Prop54
  1
strokes_ogs.tif
102
RTVSPost2010PropOp54
 70
     1
102
RTVSPost2010Prop55
280
     0
102
RTVSPost2010PropOp55
 70
     1
102
RTVSPost2010Prop56
140
1.0
102
RTVSPost2010PropOp56
 70
     1
102
RTVSPost2010Prop57
140
1.0
102
RTVSPost2010PropOp57
 70
     1
102
RTVSPropertyOp0
 70
     1
102
RTVSPropertyOp1
 70
     1
102
RTVSPropertyOp2
 70
     1
102
RTVSPropertyOp3
 70
     1
102
RTVSPropertyOp4
 70
     1
102
RTVSPropertyOp5
 70
     1
102
RTVSPropertyOp6
 70
     1
102
RTVSPropertyOp7
 70
     1
102
RTVSPropertyOp8
 70
     1
102
RTVSPropertyOp9
 70
     1
102
RTVSPropertyOp10
 70
     1
102
RTVSPropertyOp11
 70
     1
102
RTVSPropertyOp12
 70
     1
102
RTVSPropertyOp13
 70
     1
102
RTVSPropertyOp14
 70
     1
102
RTVSPropertyOp15
 70
     1
102
RTVSPropertyOp16
 70
     1
102
RTVSPropertyOp17
 70
     1
102
RTVSPropertyOp18
 70
     1
102
RTVSPropertyOp19
 70
     1
102
RTVSPropertyOp20
 70
     1
102
RTVSPropertyOp21
 70
     1
102
RTVSPropertyOp22
 70
     1
102
RTVSPropertyOp23
 70
     1
102
RTVSPropertyOp24
 70
     1
102
RTVSPropertyOp25
 70
     1
102
RTVSPropertyOp26
 70
     1
102
RTVSPropertyOp27
 70
     1
102
RTVSPropertyOp28
 70
     1
102
RTVSPropertyOp29
 70
     1
102
RTVSPropertyOp30
 70
     1
102
RTVSPropertyOp31
 70
     1
102
RTVSPropertyOp32
 70
     1
102
RTVSPropertyOp33
 70
     1
102
RTVSPropertyOp34
 70
     1
102
RTVSPropertyOp35
 70
     1
102
RTVSPropertyOp36
 70
     1
102
RTVSPropertyOp37
 70
     1
102
RTVSPropertyOp38
 70
     1
102
RTVSPropertyOp39
 70
     1
102
RTVSPropertyOp40
 70
     1
102
RTVSPropertyOp41
 70
     1
102
RTVSPropertyOp42
 70
     1
102
RTVSPropertyOp43
 70
     1
102
RTVSPropertyOp44
 70
     1
102
RTVSPropertyOp45
 70
     1
102
RTVSPropertyOp46
 70
     1
102
RTVSPropertyOp47
 70
     1
102
RTVSPropertyOp48
 70
     1
102
RTVSPropertyOp49
 70
     1
102
RTVSPropertyOp50
 70
     1
102
RTVSPropertyOp51
 70
     0
102
RTVSPropertyOp52
 70
     0
102
RTVSPropertyOp53
 70
     1
102
RTVSPropertyOp54
 70
     1
102
RTVSPropertyOp55
 70
     1
102
RTVSPropertyOp56
 70
     1
102
RTVSPropertyOp57
 70
     1
102
RTVSPropertyOp58
 70
     1
102
RTVSPropertyOp59
 70
     1
102
RTVSPropertyOp60
 70
     1
102
RTVSPropertyOp61
 70
     1
102
RTVSPropertyOp62
 70
     1
  0
XRECORD
  5
399
102
{ACAD_REACTORS
330
398
102
}
330
398
100
AcDbXrecord
280
     1
102
RTVSPost2010Prop28
280
     0
102
RTVSPost2010PropOp28
 70
     1
102
RTVSPost2010Prop29
280
     1
102
RTVSPost2010PropOp29
 70
     1
102
RTVSPost2010Prop30
280
     1
102
RTVSPost2010PropOp30
 70
     1
102
RTVSPost2010Prop31
280
     0
102
RTVSPost2010PropOp31
 70
     1
102
RTVSPost2010Prop32
280
     0
102
RTVSPost2010PropOp32
 70
     1
102
RTVSPost2010Prop33
280
     0
102
RTVSPost2010PropOp33
 70
     1
102
RTVSPost2010Prop34
280
     0
102
RTVSPost2010PropOp34
 70
     1
102
RTVSPost2010Prop35
280
     0
102
RTVSPost2010PropOp35
 70
     1
102
RTVSPost2010Prop36
280
     0
102
RTVSPost2010PropOp36
 70
     1
102
RTVSPost2010Prop37
 90
       50
102
RTVSPost2010PropOp37
 70
     1
102
RTVSPost2010Prop38
140
0.0
102
RTVSPost2010PropOp38
 70
     1
102
RTVSPost2010Prop39
140
1.0
102
RTVSPost2010PropOp39
 70
     1
102
RTVSPost2010Prop40
 90
        0
102
RTVSPost2010PropOp40
 70
     1
102
RTVSPost2010Prop41ColorIndex
 90
       18
102
RTVSPost2010Prop41ColorRGB
 90
        0
102
RTVSPost2010PropOp41
 70
     1
102
RTVSPost2010Prop42
 90
       50
102
RTVSPost2010PropOp42
 70
     1
102
RTVSPost2010Prop43
 90
        3
102
RTVSPost2010PropOp43
 70
     1
102
RTVSPost2010Prop44ColorIndex
 90
        5
102
RTVSPost2010Prop44ColorRGB
 90
      255
102
RTVSPost2010PropOp44
 70
     1
102
RTVSPost2010Prop45
280
     0
102
RTVSPost2010PropOp45
 70
     1
102
RTVSPost2010Prop46
 90
       50
102
RTVSPost2010PropOp46
 70
     1
102
RTVSPost2010Prop47
 90
       50
102
RTVSPost2010PropOp47
 70
     1
102
RTVSPost2010Prop48
 90
       50
102
RTVSPost2010PropOp48
 70
     1
102
RTVSPost2010Prop49
280
     0
102
RTVSPost2010PropOp49
 70
     1
102
RTVSPost2010Prop50
 90
       50
102
RTVSPost2010PropOp50
 70
     1
102
RTVSPost2010Prop51ColorIndex
 90
      256
102
RTVSPost2010Prop51ColorRGB
 90
-16777216
102
RTVSPost2010PropOp51
 70
     0
102
RTVSPost2010Prop52
140
1.0
102
RTVSPost2010PropOp52
 70
     0
102
RTVSPost2010Prop53
 90
        2
102
RTVSPost2010PropOp53
 70
     1
102
RTVSPost2010Prop54
  1
strokes_ogs.tif
102
RTVSPost2010PropOp54
 70
     1
102
RTVSPost2010Prop55
280
     0
102
RTVSPost2010PropOp55
 70
     1
102
RTVSPost2010Prop56
140
1.0
102
RTVSPost2010PropOp56
 70
     1
102
RTVSPost2010Prop57
140
1.0
102
RTVSPost2010PropOp57
 70
     1
102
RTVSPropertyOp0
 70
     1
102
RTVSPropertyOp1
 70
     1
102
RTVSPropertyOp2
 70
     1
102
RTVSPropertyOp3
 70
     1
102
RTVSPropertyOp4
 70
     1
102
RTVSPropertyOp5
 70
     1
102
RTVSPropertyOp6
 70
     1
102
RTVSPropertyOp7
 70
     1
102
RTVSPropertyOp8
 70
     1
102
RTVSPropertyOp9
 70
     1
102
RTVSPropertyOp10
 70
     1
102
RTVSPropertyOp11
 70
     1
102
RTVSPropertyOp12
 70
     1
102
RTVSPropertyOp13
 70
     1
102
RTVSPropertyOp14
 70
     1
102
RTVSPropertyOp15
 70
     1
102
RTVSPropertyOp16
 70
     1
102
RTVSPropertyOp17
 70
     1
102
RTVSPropertyOp18
 70
     1
102
RTVSPropertyOp19
 70
     1
102
RTVSPropertyOp20
 70
     1
102
RTVSPropertyOp21
 70
     1
102
RTVSPropertyOp22
 70
     1
102
RTVSPropertyOp23
 70
     1
102
RTVSPropertyOp24
 70
     1
102
RTVSPropertyOp25
 70
     1
102
RTVSPropertyOp26
 70
     1
102
RTVSPropertyOp27
 70
     1
102
RTVSPropertyOp28
 70
     1
102
RTVSPropertyOp29
 70
     1
102
RTVSPropertyOp30
 70
     1
102
RTVSPropertyOp31
 70
     1
102
RTVSPropertyOp32
 70
     1
102
RTVSPropertyOp33
 70
     1
102
RTVSPropertyOp34
 70
     1
102
RTVSPropertyOp35
 70
     1
102
RTVSPropertyOp36
 70
     1
102
RTVSPropertyOp37
 70
     1
102
RTVSPropertyOp38
 70
     1
102
RTVSPropertyOp39
 70
     1
102
RTVSPropertyOp40
 70
     1
102
RTVSPropertyOp41
 70
     1
102
RTVSPropertyOp42
 70
     1
102
RTVSPropertyOp43
 70
     1
102
RTVSPropertyOp44
 70
     1
102
RTVSPropertyOp45
 70
     1
102
RTVSPropertyOp46
 70
     1
102
RTVSPropertyOp47
 70
     1
102
RTVSPropertyOp48
 70
     1
102
RTVSPropertyOp49
 70
     1
102
RTVSPropertyOp50
 70
     1
102
RTVSPropertyOp51
 70
     0
102
RTVSPropertyOp52
 70
     0
102
RTVSPropertyOp53
 70
     1
102
RTVSPropertyOp54
 70
     1
102
RTVSPropertyOp55
 70
     1
102
RTVSPropertyOp56
 70
     1
102
RTVSPropertyOp57
 70
     1
102
RTVSPropertyOp58
 70
     1
102
RTVSPropertyOp59
 70
     1
102
RTVSPropertyOp60
 70
     1
102
RTVSPropertyOp61
 70
     1
102
RTVSPropertyOp62
 70
     1
  0
XRECORD
  5
397
102
{ACAD_REACTORS
330
396
102
}
330
396
100
AcDbXrecord
280
     1
102
RTVSPost2010Prop28
280
     0
102
RTVSPost2010PropOp28
 70
     1
102
RTVSPost2010Prop29
280
     1
102
RTVSPost2010PropOp29
 70
     1
102
RTVSPost2010Prop30
280
     1
102
RTVSPost2010PropOp30
 70
     1
102
RTVSPost2010Prop31
280
     0
102
RTVSPost2010PropOp31
 70
     1
102
RTVSPost2010Prop32
280
     0
102
RTVSPost2010PropOp32
 70
     1
102
RTVSPost2010Prop33
280
     0
102
RTVSPost2010PropOp33
 70
     1
102
RTVSPost2010Prop34
280
     0
102
RTVSPost2010PropOp34
 70
     1
102
RTVSPost2010Prop35
280
     0
102
RTVSPost2010PropOp35
 70
     1
102
RTVSPost2010Prop36
280
     0
102
RTVSPost2010PropOp36
 70
     1
102
RTVSPost2010Prop37
 90
       50
102
RTVSPost2010PropOp37
 70
     1
102
RTVSPost2010Prop38
140
0.0
102
RTVSPost2010PropOp38
 70
     1
102
RTVSPost2010Prop39
140
1.0
102
RTVSPost2010PropOp39
 70
     1
102
RTVSPost2010Prop40
 90
        0
102
RTVSPost2010PropOp40
 70
     1
102
RTVSPost2010Prop41ColorIndex
 90
       18
102
RTVSPost2010Prop41ColorRGB
 90
        0
102
RTVSPost2010PropOp41
 70
     1
102
RTVSPost2010Prop42
 90
       50
102
RTVSPost2010PropOp42
 70
     1
102
RTVSPost2010Prop43
 90
        3
102
RTVSPost2010PropOp43
 70
     1
102
RTVSPost2010Prop44ColorIndex
 90
        5
102
RTVSPost2010Prop44ColorRGB
 90
      255
102
RTVSPost2010PropOp44
 70
     1
102
RTVSPost2010Prop45
280
     0
102
RTVSPost2010PropOp45
 70
     1
102
RTVSPost2010Prop46
 90
       50
102
RTVSPost2010PropOp46
 70
     1
102
RTVSPost2010Prop47
 90
       50
102
RTVSPost2010PropOp47
 70
     1
102
RTVSPost2010Prop48
 90
       50
102
RTVSPost2010PropOp48
 70
     1
102
RTVSPost2010Prop49
280
     0
102
RTVSPost2010PropOp49
 70
     1
102
RTVSPost2010Prop50
 90
       50
102
RTVSPost2010PropOp50
 70
     1
102
RTVSPost2010Prop51ColorIndex
 90
      256
102
RTVSPost2010Prop51ColorRGB
 90
-16777216
102
RTVSPost2010PropOp51
 70
     0
102
RTVSPost2010Prop52
140
1.0
102
RTVSPost2010PropOp52
 70
     0
102
RTVSPost2010Prop53
 90
        2
102
RTVSPost2010PropOp53
 70
     1
102
RTVSPost2010Prop54
  1
strokes_ogs.tif
102
RTVSPost2010PropOp54
 70
     1
102
RTVSPost2010Prop55
280
     0
102
RTVSPost2010PropOp55
 70
     1
102
RTVSPost2010Prop56
140
1.0
102
RTVSPost2010PropOp56
 70
     1
102
RTVSPost2010Prop57
140
1.0
102
RTVSPost2010PropOp57
 70
     1
102
RTVSPropertyOp0
 70
     1
102
RTVSPropertyOp1
 70
     1
102
RTVSPropertyOp2
 70
     1
102
RTVSPropertyOp3
 70
     1
102
RTVSPropertyOp4
 70
     1
102
RTVSPropertyOp5
 70
     1
102
RTVSPropertyOp6
 70
     1
102
RTVSPropertyOp7
 70
     1
102
RTVSPropertyOp8
 70
     1
102
RTVSPropertyOp9
 70
     1
102
RTVSPropertyOp10
 70
     1
102
RTVSPropertyOp11
 70
     1
102
RTVSPropertyOp12
 70
     1
102
RTVSPropertyOp13
 70
     1
102
RTVSPropertyOp14
 70
     1
102
RTVSPropertyOp15
 70
     1
102
RTVSPropertyOp16
 70
     1
102
RTVSPropertyOp17
 70
     1
102
RTVSPropertyOp18
 70
     1
102
RTVSPropertyOp19
 70
     1
102
RTVSPropertyOp20
 70
     1
102
RTVSPropertyOp21
 70
     1
102
RTVSPropertyOp22
 70
     1
102
RTVSPropertyOp23
 70
     1
102
RTVSPropertyOp24
 70
     1
102
RTVSPropertyOp25
 70
     1
102
RTVSPropertyOp26
 70
     1
102
RTVSPropertyOp27
 70
     1
102
RTVSPropertyOp28
 70
     1
102
RTVSPropertyOp29
 70
     1
102
RTVSPropertyOp30
 70
     1
102
RTVSPropertyOp31
 70
     1
102
RTVSPropertyOp32
 70
     1
102
RTVSPropertyOp33
 70
     1
102
RTVSPropertyOp34
 70
     1
102
RTVSPropertyOp35
 70
     1
102
RTVSPropertyOp36
 70
     1
102
RTVSPropertyOp37
 70
     1
102
RTVSPropertyOp38
 70
     1
102
RTVSPropertyOp39
 70
     1
102
RTVSPropertyOp40
 70
     1
102
RTVSPropertyOp41
 70
     1
102
RTVSPropertyOp42
 70
     1
102
RTVSPropertyOp43
 70
     1
102
RTVSPropertyOp44
 70
     1
102
RTVSPropertyOp45
 70
     1
102
RTVSPropertyOp46
 70
     1
102
RTVSPropertyOp47
 70
     1
102
RTVSPropertyOp48
 70
     1
102
RTVSPropertyOp49
 70
     1
102
RTVSPropertyOp50
 70
     1
102
RTVSPropertyOp51
 70
     0
102
RTVSPropertyOp52
 70
     0
102
RTVSPropertyOp53
 70
     1
102
RTVSPropertyOp54
 70
     1
102
RTVSPropertyOp55
 70
     1
102
RTVSPropertyOp56
 70
     1
102
RTVSPropertyOp57
 70
     1
102
RTVSPropertyOp58
 70
     1
102
RTVSPropertyOp59
 70
     1
102
RTVSPropertyOp60
 70
     1
102
RTVSPropertyOp61
 70
     1
102
RTVSPropertyOp62
 70
     1
  0
XRECORD
  5
391
102
{ACAD_REACTORS
330
390
102
}
330
390
100
AcDbXrecord
280
     1
102
RTVSPost2010Prop28
280
     0
102
RTVSPost2010PropOp28
 70
     1
102
RTVSPost2010Prop29
280
     1
102
RTVSPost2010PropOp29
 70
     1
102
RTVSPost2010Prop30
280
     1
102
RTVSPost2010PropOp30
 70
     1
102
RTVSPost2010Prop31
280
     0
102
RTVSPost2010PropOp31
 70
     1
102
RTVSPost2010Prop32
280
     0
102
RTVSPost2010PropOp32
 70
     1
102
RTVSPost2010Prop33
280
     0
102
RTVSPost2010PropOp33
 70
     1
102
RTVSPost2010Prop34
280
     0
102
RTVSPost2010PropOp34
 70
     1
102
RTVSPost2010Prop35
280
     0
102
RTVSPost2010PropOp35
 70
     1
102
RTVSPost2010Prop36
280
     0
102
RTVSPost2010PropOp36
 70
     1
102
RTVSPost2010Prop37
 90
       50
102
RTVSPost2010PropOp37
 70
     1
102
RTVSPost2010Prop38
140
0.0
102
RTVSPost2010PropOp38
 70
     1
102
RTVSPost2010Prop39
140
1.0
102
RTVSPost2010PropOp39
 70
     1
102
RTVSPost2010Prop40
 90
        0
102
RTVSPost2010PropOp40
 70
     1
102
RTVSPost2010Prop41ColorIndex
 90
       18
102
RTVSPost2010Prop41ColorRGB
 90
        0
102
RTVSPost2010PropOp41
 70
     1
102
RTVSPost2010Prop42
 90
       50
102
RTVSPost2010PropOp42
 70
     1
102
RTVSPost2010Prop43
 90
        3
102
RTVSPost2010PropOp43
 70
     1
102
RTVSPost2010Prop44ColorIndex
 90
        5
102
RTVSPost2010Prop44ColorRGB
 90
      255
102
RTVSPost2010PropOp44
 70
     1
102
RTVSPost2010Prop45
280
     0
102
RTVSPost2010PropOp45
 70
     1
102
RTVSPost2010Prop46
 90
       50
102
RTVSPost2010PropOp46
 70
     1
102
RTVSPost2010Prop47
 90
       50
102
RTVSPost2010PropOp47
 70
     1
102
RTVSPost2010Prop48
 90
       50
102
RTVSPost2010PropOp48
 70
     1
102
RTVSPost2010Prop49
280
     0
102
RTVSPost2010PropOp49
 70
     1
102
RTVSPost2010Prop50
 90
       50
102
RTVSPost2010PropOp50
 70
     1
102
RTVSPost2010Prop51ColorIndex
 90
      256
102
RTVSPost2010Prop51ColorRGB
 90
-16777216
102
RTVSPost2010PropOp51
 70
     0
102
RTVSPost2010Prop52
140
1.0
102
RTVSPost2010PropOp52
 70
     0
102
RTVSPost2010Prop53
 90
        2
102
RTVSPost2010PropOp53
 70
     1
102
RTVSPost2010Prop54
  1
strokes_ogs.tif
102
RTVSPost2010PropOp54
 70
     1
102
RTVSPost2010Prop55
280
     0
102
RTVSPost2010PropOp55
 70
     1
102
RTVSPost2010Prop56
140
1.0
102
RTVSPost2010PropOp56
 70
     1
102
RTVSPost2010Prop57
140
1.0
102
RTVSPost2010PropOp57
 70
     1
102
RTVSPropertyOp0
 70
     1
102
RTVSPropertyOp1
 70
     1
102
RTVSPropertyOp2
 70
     1
102
RTVSPropertyOp3
 70
     1
102
RTVSPropertyOp4
 70
     1
102
RTVSPropertyOp5
 70
     1
102
RTVSPropertyOp6
 70
     1
102
RTVSPropertyOp7
 70
     1
102
RTVSPropertyOp8
 70
     1
102
RTVSPropertyOp9
 70
     1
102
RTVSPropertyOp10
 70
     1
102
RTVSPropertyOp11
 70
     1
102
RTVSPropertyOp12
 70
     1
102
RTVSPropertyOp13
 70
     1
102
RTVSPropertyOp14
 70
     1
102
RTVSPropertyOp15
 70
     1
102
RTVSPropertyOp16
 70
     1
102
RTVSPropertyOp17
 70
     1
102
RTVSPropertyOp18
 70
     1
102
RTVSPropertyOp19
 70
     1
102
RTVSPropertyOp20
 70
     1
102
RTVSPropertyOp21
 70
     1
102
RTVSPropertyOp22
 70
     1
102
RTVSPropertyOp23
 70
     1
102
RTVSPropertyOp24
 70
     1
102
RTVSPropertyOp25
 70
     1
102
RTVSPropertyOp26
 70
     1
102
RTVSPropertyOp27
 70
     1
102
RTVSPropertyOp28
 70
     1
102
RTVSPropertyOp29
 70
     1
102
RTVSPropertyOp30
 70
     1
102
RTVSPropertyOp31
 70
     1
102
RTVSPropertyOp32
 70
     1
102
RTVSPropertyOp33
 70
     1
102
RTVSPropertyOp34
 70
     1
102
RTVSPropertyOp35
 70
     1
102
RTVSPropertyOp36
 70
     1
102
RTVSPropertyOp37
 70
     1
102
RTVSPropertyOp38
 70
     1
102
RTVSPropertyOp39
 70
     1
102
RTVSPropertyOp40
 70
     1
102
RTVSPropertyOp41
 70
     1
102
RTVSPropertyOp42
 70
     1
102
RTVSPropertyOp43
 70
     1
102
RTVSPropertyOp44
 70
     1
102
RTVSPropertyOp45
 70
     1
102
RTVSPropertyOp46
 70
     1
102
RTVSPropertyOp47
 70
     1
102
RTVSPropertyOp48
 70
     1
102
RTVSPropertyOp49
 70
     1
102
RTVSPropertyOp50
 70
     1
102
RTVSPropertyOp51
 70
     0
102
RTVSPropertyOp52
 70
     0
102
RTVSPropertyOp53
 70
     1
102
RTVSPropertyOp54
 70
     1
102
RTVSPropertyOp55
 70
     1
102
RTVSPropertyOp56
 70
     1
102
RTVSPropertyOp57
 70
     1
102
RTVSPropertyOp58
 70
     1
102
RTVSPropertyOp59
 70
     1
102
RTVSPropertyOp60
 70
     1
102
RTVSPropertyOp61
 70
     1
102
RTVSPropertyOp62
 70
     1
  0
XRECORD
  5
393
102
{ACAD_REACTORS
330
392
102
}
330
392
100
AcDbXrecord
280
     1
102
RTVSPost2010Prop28
280
     0
102
RTVSPost2010PropOp28
 70
     1
102
RTVSPost2010Prop29
280
     1
102
RTVSPost2010PropOp29
 70
     1
102
RTVSPost2010Prop30
280
     1
102
RTVSPost2010PropOp30
 70
     1
102
RTVSPost2010Prop31
280
     0
102
RTVSPost2010PropOp31
 70
     1
102
RTVSPost2010Prop32
280
     0
102
RTVSPost2010PropOp32
 70
     1
102
RTVSPost2010Prop33
280
     0
102
RTVSPost2010PropOp33
 70
     1
102
RTVSPost2010Prop34
280
     0
102
RTVSPost2010PropOp34
 70
     1
102
RTVSPost2010Prop35
280
     0
102
RTVSPost2010PropOp35
 70
     1
102
RTVSPost2010Prop36
280
     0
102
RTVSPost2010PropOp36
 70
     1
102
RTVSPost2010Prop37
 90
       50
102
RTVSPost2010PropOp37
 70
     1
102
RTVSPost2010Prop38
140
0.0
102
RTVSPost2010PropOp38
 70
     1
102
RTVSPost2010Prop39
140
1.0
102
RTVSPost2010PropOp39
 70
     1
102
RTVSPost2010Prop40
 90
        0
102
RTVSPost2010PropOp40
 70
     1
102
RTVSPost2010Prop41ColorIndex
 90
       18
102
RTVSPost2010Prop41ColorRGB
 90
        0
102
RTVSPost2010PropOp41
 70
     1
102
RTVSPost2010Prop42
 90
       50
102
RTVSPost2010PropOp42
 70
     1
102
RTVSPost2010Prop43
 90
        3
102
RTVSPost2010PropOp43
 70
     1
102
RTVSPost2010Prop44ColorIndex
 90
        5
102
RTVSPost2010Prop44ColorRGB
 90
      255
102
RTVSPost2010PropOp44
 70
     1
102
RTVSPost2010Prop45
280
     0
102
RTVSPost2010PropOp45
 70
     1
102
RTVSPost2010Prop46
 90
       50
102
RTVSPost2010PropOp46
 70
     1
102
RTVSPost2010Prop47
 90
       50
102
RTVSPost2010PropOp47
 70
     1
102
RTVSPost2010Prop48
 90
       50
102
RTVSPost2010PropOp48
 70
     1
102
RTVSPost2010Prop49
280
     0
102
RTVSPost2010PropOp49
 70
     1
102
RTVSPost2010Prop50
 90
       50
102
RTVSPost2010PropOp50
 70
     1
102
RTVSPost2010Prop51ColorIndex
 90
      256
102
RTVSPost2010Prop51ColorRGB
 90
-16777216
102
RTVSPost2010PropOp51
 70
     0
102
RTVSPost2010Prop52
140
1.0
102
RTVSPost2010PropOp52
 70
     0
102
RTVSPost2010Prop53
 90
        2
102
RTVSPost2010PropOp53
 70
     1
102
RTVSPost2010Prop54
  1
strokes_ogs.tif
102
RTVSPost2010PropOp54
 70
     1
102
RTVSPost2010Prop55
280
     0
102
RTVSPost2010PropOp55
 70
     1
102
RTVSPost2010Prop56
140
1.0
102
RTVSPost2010PropOp56
 70
     1
102
RTVSPost2010Prop57
140
1.0
102
RTVSPost2010PropOp57
 70
     1
102
RTVSPropertyOp0
 70
     1
102
RTVSPropertyOp1
 70
     1
102
RTVSPropertyOp2
 70
     1
102
RTVSPropertyOp3
 70
     1
102
RTVSPropertyOp4
 70
     1
102
RTVSPropertyOp5
 70
     1
102
RTVSPropertyOp6
 70
     1
102
RTVSPropertyOp7
 70
     1
102
RTVSPropertyOp8
 70
     1
102
RTVSPropertyOp9
 70
     1
102
RTVSPropertyOp10
 70
     1
102
RTVSPropertyOp11
 70
     1
102
RTVSPropertyOp12
 70
     1
102
RTVSPropertyOp13
 70
     1
102
RTVSPropertyOp14
 70
     1
102
RTVSPropertyOp15
 70
     1
102
RTVSPropertyOp16
 70
     1
102
RTVSPropertyOp17
 70
     1
102
RTVSPropertyOp18
 70
     1
102
RTVSPropertyOp19
 70
     1
102
RTVSPropertyOp20
 70
     1
102
RTVSPropertyOp21
 70
     1
102
RTVSPropertyOp22
 70
     1
102
RTVSPropertyOp23
 70
     1
102
RTVSPropertyOp24
 70
     1
102
RTVSPropertyOp25
 70
     1
102
RTVSPropertyOp26
 70
     1
102
RTVSPropertyOp27
 70
     1
102
RTVSPropertyOp28
 70
     1
102
RTVSPropertyOp29
 70
     1
102
RTVSPropertyOp30
 70
     1
102
RTVSPropertyOp31
 70
     1
102
RTVSPropertyOp32
 70
     1
102
RTVSPropertyOp33
 70
     1
102
RTVSPropertyOp34
 70
     1
102
RTVSPropertyOp35
 70
     1
102
RTVSPropertyOp36
 70
     1
102
RTVSPropertyOp37
 70
     1
102
RTVSPropertyOp38
 70
     1
102
RTVSPropertyOp39
 70
     1
102
RTVSPropertyOp40
 70
     1
102
RTVSPropertyOp41
 70
     1
102
RTVSPropertyOp42
 70
     1
102
RTVSPropertyOp43
 70
     1
102
RTVSPropertyOp44
 70
     1
102
RTVSPropertyOp45
 70
     1
102
RTVSPropertyOp46
 70
     1
102
RTVSPropertyOp47
 70
     1
102
RTVSPropertyOp48
 70
     1
102
RTVSPropertyOp49
 70
     1
102
RTVSPropertyOp50
 70
     1
102
RTVSPropertyOp51
 70
     0
102
RTVSPropertyOp52
 70
     0
102
RTVSPropertyOp53
 70
     1
102
RTVSPropertyOp54
 70
     1
102
RTVSPropertyOp55
 70
     1
102
RTVSPropertyOp56
 70
     1
102
RTVSPropertyOp57
 70
     1
102
RTVSPropertyOp58
 70
     1
102
RTVSPropertyOp59
 70
     1
102
RTVSPropertyOp60
 70
     1
102
RTVSPropertyOp61
 70
     1
102
RTVSPropertyOp62
 70
     1
  0
XRECORD
  5
383
102
{ACAD_REACTORS
330
382
102
}
330
382
100
AcDbXrecord
280
     1
102
RTVSPost2010Prop28
280
     0
102
RTVSPost2010PropOp28
 70
     1
102
RTVSPost2010Prop29
280
     1
102
RTVSPost2010PropOp29
 70
     1
102
RTVSPost2010Prop30
280
     1
102
RTVSPost2010PropOp30
 70
     1
102
RTVSPost2010Prop31
280
     0
102
RTVSPost2010PropOp31
 70
     1
102
RTVSPost2010Prop32
280
     0
102
RTVSPost2010PropOp32
 70
     1
102
RTVSPost2010Prop33
280
     0
102
RTVSPost2010PropOp33
 70
     1
102
RTVSPost2010Prop34
280
     0
102
RTVSPost2010PropOp34
 70
     1
102
RTVSPost2010Prop35
280
     0
102
RTVSPost2010PropOp35
 70
     1
102
RTVSPost2010Prop36
280
     0
102
RTVSPost2010PropOp36
 70
     1
102
RTVSPost2010Prop37
 90
       50
102
RTVSPost2010PropOp37
 70
     1
102
RTVSPost2010Prop38
140
0.0
102
RTVSPost2010PropOp38
 70
     1
102
RTVSPost2010Prop39
140
1.0
102
RTVSPost2010PropOp39
 70
     1
102
RTVSPost2010Prop40
 90
        0
102
RTVSPost2010PropOp40
 70
     1
102
RTVSPost2010Prop41ColorIndex
 90
       18
102
RTVSPost2010Prop41ColorRGB
 90
        0
102
RTVSPost2010PropOp41
 70
     1
102
RTVSPost2010Prop42
 90
       50
102
RTVSPost2010PropOp42
 70
     1
102
RTVSPost2010Prop43
 90
        3
102
RTVSPost2010PropOp43
 70
     1
102
RTVSPost2010Prop44ColorIndex
 90
        5
102
RTVSPost2010Prop44ColorRGB
 90
      255
102
RTVSPost2010PropOp44
 70
     1
102
RTVSPost2010Prop45
280
     0
102
RTVSPost2010PropOp45
 70
     1
102
RTVSPost2010Prop46
 90
       50
102
RTVSPost2010PropOp46
 70
     1
102
RTVSPost2010Prop47
 90
       50
102
RTVSPost2010PropOp47
 70
     1
102
RTVSPost2010Prop48
 90
       50
102
RTVSPost2010PropOp48
 70
     1
102
RTVSPost2010Prop49
280
     0
102
RTVSPost2010PropOp49
 70
     1
102
RTVSPost2010Prop50
 90
       50
102
RTVSPost2010PropOp50
 70
     1
102
RTVSPost2010Prop51ColorIndex
 90
      256
102
RTVSPost2010Prop51ColorRGB
 90
-16777216
102
RTVSPost2010PropOp51
 70
     0
102
RTVSPost2010Prop52
140
1.0
102
RTVSPost2010PropOp52
 70
     0
102
RTVSPost2010Prop53
 90
        2
102
RTVSPost2010PropOp53
 70
     1
102
RTVSPost2010Prop54
  1
strokes_ogs.tif
102
RTVSPost2010PropOp54
 70
     1
102
RTVSPost2010Prop55
280
     0
102
RTVSPost2010PropOp55
 70
     1
102
RTVSPost2010Prop56
140
1.0
102
RTVSPost2010PropOp56
 70
     1
102
RTVSPost2010Prop57
140
1.0
102
RTVSPost2010PropOp57
 70
     1
102
RTVSPropertyOp0
 70
     1
102
RTVSPropertyOp1
 70
     1
102
RTVSPropertyOp2
 70
     1
102
RTVSPropertyOp3
 70
     1
102
RTVSPropertyOp4
 70
     1
102
RTVSPropertyOp5
 70
     1
102
RTVSPropertyOp6
 70
     1
102
RTVSPropertyOp7
 70
     1
102
RTVSPropertyOp8
 70
     1
102
RTVSPropertyOp9
 70
     1
102
RTVSPropertyOp10
 70
     1
102
RTVSPropertyOp11
 70
     1
102
RTVSPropertyOp12
 70
     1
102
RTVSPropertyOp13
 70
     1
102
RTVSPropertyOp14
 70
     1
102
RTVSPropertyOp15
 70
     1
102
RTVSPropertyOp16
 70
     1
102
RTVSPropertyOp17
 70
     1
102
RTVSPropertyOp18
 70
     1
102
RTVSPropertyOp19
 70
     1
102
RTVSPropertyOp20
 70
     1
102
RTVSPropertyOp21
 70
     1
102
RTVSPropertyOp22
 70
     1
102
RTVSPropertyOp23
 70
     1
102
RTVSPropertyOp24
 70
     1
102
RTVSPropertyOp25
 70
     1
102
RTVSPropertyOp26
 70
     1
102
RTVSPropertyOp27
 70
     1
102
RTVSPropertyOp28
 70
     1
102
RTVSPropertyOp29
 70
     1
102
RTVSPropertyOp30
 70
     1
102
RTVSPropertyOp31
 70
     1
102
RTVSPropertyOp32
 70
     1
102
RTVSPropertyOp33
 70
     1
102
RTVSPropertyOp34
 70
     1
102
RTVSPropertyOp35
 70
     1
102
RTVSPropertyOp36
 70
     1
102
RTVSPropertyOp37
 70
     1
102
RTVSPropertyOp38
 70
     1
102
RTVSPropertyOp39
 70
     1
102
RTVSPropertyOp40
 70
     1
102
RTVSPropertyOp41
 70
     1
102
RTVSPropertyOp42
 70
     1
102
RTVSPropertyOp43
 70
     1
102
RTVSPropertyOp44
 70
     1
102
RTVSPropertyOp45
 70
     1
102
RTVSPropertyOp46
 70
     1
102
RTVSPropertyOp47
 70
     1
102
RTVSPropertyOp48
 70
     1
102
RTVSPropertyOp49
 70
     1
102
RTVSPropertyOp50
 70
     1
102
RTVSPropertyOp51
 70
     0
102
RTVSPropertyOp52
 70
     0
102
RTVSPropertyOp53
 70
     1
102
RTVSPropertyOp54
 70
     1
102
RTVSPropertyOp55
 70
     1
102
RTVSPropertyOp56
 70
     1
102
RTVSPropertyOp57
 70
     1
102
RTVSPropertyOp58
 70
     1
102
RTVSPropertyOp59
 70
     1
102
RTVSPropertyOp60
 70
     1
102
RTVSPropertyOp61
 70
     1
102
RTVSPropertyOp62
 70
     1
  0
XRECORD
  5
375
102
{ACAD_REACTORS
330
374
102
}
330
374
100
AcDbXrecord
280
     1
102
RTVSPost2010Prop28
280
     0
102
RTVSPost2010PropOp28
 70
     1
102
RTVSPost2010Prop29
280
     1
102
RTVSPost2010PropOp29
 70
     1
102
RTVSPost2010Prop30
280
     1
102
RTVSPost2010PropOp30
 70
     1
102
RTVSPost2010Prop31
280
     0
102
RTVSPost2010PropOp31
 70
     1
102
RTVSPost2010Prop32
280
     0
102
RTVSPost2010PropOp32
 70
     1
102
RTVSPost2010Prop33
280
     0
102
RTVSPost2010PropOp33
 70
     1
102
RTVSPost2010Prop34
280
     0
102
RTVSPost2010PropOp34
 70
     1
102
RTVSPost2010Prop35
280
     0
102
RTVSPost2010PropOp35
 70
     1
102
RTVSPost2010Prop36
280
     0
102
RTVSPost2010PropOp36
 70
     1
102
RTVSPost2010Prop37
 90
       50
102
RTVSPost2010PropOp37
 70
     1
102
RTVSPost2010Prop38
140
0.0
102
RTVSPost2010PropOp38
 70
     1
102
RTVSPost2010Prop39
140
1.0
102
RTVSPost2010PropOp39
 70
     1
102
RTVSPost2010Prop40
 90
        0
102
RTVSPost2010PropOp40
 70
     1
102
RTVSPost2010Prop41ColorIndex
 90
       18
102
RTVSPost2010Prop41ColorRGB
 90
        0
102
RTVSPost2010PropOp41
 70
     1
102
RTVSPost2010Prop42
 90
       50
102
RTVSPost2010PropOp42
 70
     1
102
RTVSPost2010Prop43
 90
        3
102
RTVSPost2010PropOp43
 70
     1
102
RTVSPost2010Prop44ColorIndex
 90
        5
102
RTVSPost2010Prop44ColorRGB
 90
      255
102
RTVSPost2010PropOp44
 70
     1
102
RTVSPost2010Prop45
280
     0
102
RTVSPost2010PropOp45
 70
     1
102
RTVSPost2010Prop46
 90
       50
102
RTVSPost2010PropOp46
 70
     1
102
RTVSPost2010Prop47
 90
       50
102
RTVSPost2010PropOp47
 70
     1
102
RTVSPost2010Prop48
 90
       50
102
RTVSPost2010PropOp48
 70
     1
102
RTVSPost2010Prop49
280
     0
102
RTVSPost2010PropOp49
 70
     1
102
RTVSPost2010Prop50
 90
       50
102
RTVSPost2010PropOp50
 70
     1
102
RTVSPost2010Prop51ColorIndex
 90
      256
102
RTVSPost2010Prop51ColorRGB
 90
-16777216
102
RTVSPost2010PropOp51
 70
     0
102
RTVSPost2010Prop52
140
1.0
102
RTVSPost2010PropOp52
 70
     0
102
RTVSPost2010Prop53
 90
        2
102
RTVSPost2010PropOp53
 70
     1
102
RTVSPost2010Prop54
  1
strokes_ogs.tif
102
RTVSPost2010PropOp54
 70
     1
102
RTVSPost2010Prop55
280
     0
102
RTVSPost2010PropOp55
 70
     1
102
RTVSPost2010Prop56
140
1.0
102
RTVSPost2010PropOp56
 70
     1
102
RTVSPost2010Prop57
140
1.0
102
RTVSPost2010PropOp57
 70
     1
102
RTVSPropertyOp0
 70
     1
102
RTVSPropertyOp1
 70
     1
102
RTVSPropertyOp2
 70
     1
102
RTVSPropertyOp3
 70
     1
102
RTVSPropertyOp4
 70
     1
102
RTVSPropertyOp5
 70
     1
102
RTVSPropertyOp6
 70
     1
102
RTVSPropertyOp7
 70
     1
102
RTVSPropertyOp8
 70
     1
102
RTVSPropertyOp9
 70
     1
102
RTVSPropertyOp10
 70
     1
102
RTVSPropertyOp11
 70
     1
102
RTVSPropertyOp12
 70
     1
102
RTVSPropertyOp13
 70
     1
102
RTVSPropertyOp14
 70
     1
102
RTVSPropertyOp15
 70
     1
102
RTVSPropertyOp16
 70
     1
102
RTVSPropertyOp17
 70
     1
102
RTVSPropertyOp18
 70
     1
102
RTVSPropertyOp19
 70
     1
102
RTVSPropertyOp20
 70
     1
102
RTVSPropertyOp21
 70
     1
102
RTVSPropertyOp22
 70
     1
102
RTVSPropertyOp23
 70
     1
102
RTVSPropertyOp24
 70
     1
102
RTVSPropertyOp25
 70
     1
102
RTVSPropertyOp26
 70
     1
102
RTVSPropertyOp27
 70
     1
102
RTVSPropertyOp28
 70
     1
102
RTVSPropertyOp29
 70
     1
102
RTVSPropertyOp30
 70
     1
102
RTVSPropertyOp31
 70
     1
102
RTVSPropertyOp32
 70
     1
102
RTVSPropertyOp33
 70
     1
102
RTVSPropertyOp34
 70
     1
102
RTVSPropertyOp35
 70
     1
102
RTVSPropertyOp36
 70
     1
102
RTVSPropertyOp37
 70
     1
102
RTVSPropertyOp38
 70
     1
102
RTVSPropertyOp39
 70
     1
102
RTVSPropertyOp40
 70
     1
102
RTVSPropertyOp41
 70
     1
102
RTVSPropertyOp42
 70
     1
102
RTVSPropertyOp43
 70
     1
102
RTVSPropertyOp44
 70
     1
102
RTVSPropertyOp45
 70
     1
102
RTVSPropertyOp46
 70
     1
102
RTVSPropertyOp47
 70
     1
102
RTVSPropertyOp48
 70
     1
102
RTVSPropertyOp49
 70
     1
102
RTVSPropertyOp50
 70
     1
102
RTVSPropertyOp51
 70
     0
102
RTVSPropertyOp52
 70
     0
102
RTVSPropertyOp53
 70
     1
102
RTVSPropertyOp54
 70
     1
102
RTVSPropertyOp55
 70
     1
102
RTVSPropertyOp56
 70
     1
102
RTVSPropertyOp57
 70
     1
102
RTVSPropertyOp58
 70
     1
102
RTVSPropertyOp59
 70
     1
102
RTVSPropertyOp60
 70
     1
102
RTVSPropertyOp61
 70
     1
102
RTVSPropertyOp62
 70
     1
  0
XRECORD
  5
395
102
{ACAD_REACTORS
330
394
102
}
330
394
100
AcDbXrecord
280
     1
102
RTVSPost2010Prop28
280
     0
102
RTVSPost2010PropOp28
 70
     1
102
RTVSPost2010Prop29
280
     1
102
RTVSPost2010PropOp29
 70
     1
102
RTVSPost2010Prop30
280
     1
102
RTVSPost2010PropOp30
 70
     1
102
RTVSPost2010Prop31
280
     0
102
RTVSPost2010PropOp31
 70
     1
102
RTVSPost2010Prop32
280
     0
102
RTVSPost2010PropOp32
 70
     1
102
RTVSPost2010Prop33
280
     0
102
RTVSPost2010PropOp33
 70
     1
102
RTVSPost2010Prop34
280
     0
102
RTVSPost2010PropOp34
 70
     1
102
RTVSPost2010Prop35
280
     0
102
RTVSPost2010PropOp35
 70
     1
102
RTVSPost2010Prop36
280
     0
102
RTVSPost2010PropOp36
 70
     1
102
RTVSPost2010Prop37
 90
       50
102
RTVSPost2010PropOp37
 70
     1
102
RTVSPost2010Prop38
140
0.0
102
RTVSPost2010PropOp38
 70
     1
102
RTVSPost2010Prop39
140
1.0
102
RTVSPost2010PropOp39
 70
     1
102
RTVSPost2010Prop40
 90
        0
102
RTVSPost2010PropOp40
 70
     1
102
RTVSPost2010Prop41ColorIndex
 90
       18
102
RTVSPost2010Prop41ColorRGB
 90
        0
102
RTVSPost2010PropOp41
 70
     1
102
RTVSPost2010Prop42
 90
       50
102
RTVSPost2010PropOp42
 70
     1
102
RTVSPost2010Prop43
 90
        3
102
RTVSPost2010PropOp43
 70
     1
102
RTVSPost2010Prop44ColorIndex
 90
        5
102
RTVSPost2010Prop44ColorRGB
 90
      255
102
RTVSPost2010PropOp44
 70
     1
102
RTVSPost2010Prop45
280
     0
102
RTVSPost2010PropOp45
 70
     1
102
RTVSPost2010Prop46
 90
       50
102
RTVSPost2010PropOp46
 70
     1
102
RTVSPost2010Prop47
 90
       50
102
RTVSPost2010PropOp47
 70
     1
102
RTVSPost2010Prop48
 90
       50
102
RTVSPost2010PropOp48
 70
     1
102
RTVSPost2010Prop49
280
     0
102
RTVSPost2010PropOp49
 70
     1
102
RTVSPost2010Prop50
 90
       50
102
RTVSPost2010PropOp50
 70
     1
102
RTVSPost2010Prop51ColorIndex
 90
      256
102
RTVSPost2010Prop51ColorRGB
 90
-16777216
102
RTVSPost2010PropOp51
 70
     0
102
RTVSPost2010Prop52
140
1.0
102
RTVSPost2010PropOp52
 70
     0
102
RTVSPost2010Prop53
 90
        2
102
RTVSPost2010PropOp53
 70
     1
102
RTVSPost2010Prop54
  1
strokes_ogs.tif
102
RTVSPost2010PropOp54
 70
     1
102
RTVSPost2010Prop55
280
     0
102
RTVSPost2010PropOp55
 70
     1
102
RTVSPost2010Prop56
140
1.0
102
RTVSPost2010PropOp56
 70
     1
102
RTVSPost2010Prop57
140
1.0
102
RTVSPost2010PropOp57
 70
     1
102
RTVSPropertyOp0
 70
     1
102
RTVSPropertyOp1
 70
     1
102
RTVSPropertyOp2
 70
     1
102
RTVSPropertyOp3
 70
     1
102
RTVSPropertyOp4
 70
     1
102
RTVSPropertyOp5
 70
     1
102
RTVSPropertyOp6
 70
     1
102
RTVSPropertyOp7
 70
     1
102
RTVSPropertyOp8
 70
     1
102
RTVSPropertyOp9
 70
     1
102
RTVSPropertyOp10
 70
     1
102
RTVSPropertyOp11
 70
     1
102
RTVSPropertyOp12
 70
     1
102
RTVSPropertyOp13
 70
     1
102
RTVSPropertyOp14
 70
     1
102
RTVSPropertyOp15
 70
     1
102
RTVSPropertyOp16
 70
     1
102
RTVSPropertyOp17
 70
     1
102
RTVSPropertyOp18
 70
     1
102
RTVSPropertyOp19
 70
     1
102
RTVSPropertyOp20
 70
     1
102
RTVSPropertyOp21
 70
     1
102
RTVSPropertyOp22
 70
     1
102
RTVSPropertyOp23
 70
     1
102
RTVSPropertyOp24
 70
     1
102
RTVSPropertyOp25
 70
     1
102
RTVSPropertyOp26
 70
     1
102
RTVSPropertyOp27
 70
     1
102
RTVSPropertyOp28
 70
     1
102
RTVSPropertyOp29
 70
     1
102
RTVSPropertyOp30
 70
     1
102
RTVSPropertyOp31
 70
     1
102
RTVSPropertyOp32
 70
     1
102
RTVSPropertyOp33
 70
     1
102
RTVSPropertyOp34
 70
     1
102
RTVSPropertyOp35
 70
     1
102
RTVSPropertyOp36
 70
     1
102
RTVSPropertyOp37
 70
     1
102
RTVSPropertyOp38
 70
     1
102
RTVSPropertyOp39
 70
     1
102
RTVSPropertyOp40
 70
     1
102
RTVSPropertyOp41
 70
     1
102
RTVSPropertyOp42
 70
     1
102
RTVSPropertyOp43
 70
     1
102
RTVSPropertyOp44
 70
     1
102
RTVSPropertyOp45
 70
     1
102
RTVSPropertyOp46
 70
     1
102
RTVSPropertyOp47
 70
     1
102
RTVSPropertyOp48
 70
     1
102
RTVSPropertyOp49
 70
     1
102
RTVSPropertyOp50
 70
     1
102
RTVSPropertyOp51
 70
     0
102
RTVSPropertyOp52
 70
     0
102
RTVSPropertyOp53
 70
     1
102
RTVSPropertyOp54
 70
     1
102
RTVSPropertyOp55
 70
     1
102
RTVSPropertyOp56
 70
     1
102
RTVSPropertyOp57
 70
     1
102
RTVSPropertyOp58
 70
     1
102
RTVSPropertyOp59
 70
     1
102
RTVSPropertyOp60
 70
     1
102
RTVSPropertyOp61
 70
     1
102
RTVSPropertyOp62
 70
     1
  0
ENDSEC
  0
EOF
