  0
SECTION
  2
HEADER
  9
$ACADVER
  1
AC1018
  9
$ACADMAINTVER
 70
   104
  9
$DWGCODEPAGE
  3
ANSI_1250
  9
$LASTSAVEDBY
  1
hc7230
  9
$INSBASE
 10
0.0
 20
0.0
 30
0.0
  9
$EXTMIN
 10
163.4925353333333
 20
213.1691216666665
 30
0.0
  9
$EXTMAX
 10
392.517964
 20
297.4554926666666
 30
0.0
  9
$LIMMIN
 10
-0.5
 20
-0.5
  9
$LIMMAX
 10
5.0
 20
5.0
  9
$ORTHOMODE
 70
     0
  9
$REGENMODE
 70
     1
  9
$FILLMODE
 70
     1
  9
$QTEXTMODE
 70
     0
  9
$MIRRTEXT
 70
     1
  9
$LTSCALE
 40
1.0
  9
$ATTMODE
 70
     1
  9
$TEXTSIZE
 40
0.2
  9
$TRACEWID
 40
0.05
  9
$TEXTSTYLE
  7
Standard
  9
$CLAYER
  8
0
  9
$CELTYPE
  6
ByLayer
  9
$CECOLOR
 62
   256
  9
$CELTSCALE
 40
1.0
  9
$DISPSILH
 70
     0
  9
$DIMSCALE
 40
1.0
  9
$DIMASZ
 40
0.18
  9
$DIMEXO
 40
0.0625
  9
$DIMDLI
 40
0.38
  9
$DIMRND
 40
0.0
  9
$DIMDLE
 40
0.0
  9
$DIMEXE
 40
0.18
  9
$DIMTP
 40
0.0
  9
$DIMTM
 40
0.0
  9
$DIMTXT
 40
0.18
  9
$DIMCEN
 40
0.09
  9
$DIMTSZ
 40
0.0
  9
$DIMTOL
 70
     0
  9
$DIMLIM
 70
     0
  9
$DIMTIH
 70
     1
  9
$DIMTOH
 70
     1
  9
$DIMSE1
 70
     0
  9
$DIMSE2
 70
     0
  9
$DIMTAD
 70
     0
  9
$DIMZIN
 70
     0
  9
$DIMBLK
  1

  9
$DIMASO
 70
     1
  9
$DIMSHO
 70
     1
  9
$DIMPOST
  1

  9
$DIMAPOST
  1

  9
$DIMALT
 70
     0
  9
$DIMALTD
 70
     2
  9
$DIMALTF
 40
25.4
  9
$DIMLFAC
 40
1.0
  9
$DIMTOFL
 70
     0
  9
$DIMTVP
 40
0.0
  9
$DIMTIX
 70
     0
  9
$DIMSOXD
 70
     0
  9
$DIMSAH
 70
     0
  9
$DIMBLK1
  1

  9
$DIMBLK2
  1

  9
$DIMSTYLE
  2
Standard
  9
$DIMCLRD
 70
     0
  9
$DIMCLRE
 70
     0
  9
$DIMCLRT
 70
     0
  9
$DIMTFAC
 40
1.0
  9
$DIMGAP
 40
0.09
  9
$DIMJUST
 70
     0
  9
$DIMSD1
 70
     0
  9
$DIMSD2
 70
     0
  9
$DIMTOLJ
 70
     1
  9
$DIMTZIN
 70
     0
  9
$DIMALTZ
 70
     0
  9
$DIMALTTZ
 70
     0
  9
$DIMUPT
 70
     0
  9
$DIMDEC
 70
     4
  9
$DIMTDEC
 70
     4
  9
$DIMALTU
 70
     2
  9
$DIMALTTD
 70
     2
  9
$DIMTXSTY
  7
Standard
  9
$DIMAUNIT
 70
     0
  9
$DIMADEC
 70
     0
  9
$DIMALTRND
 40
0.0
  9
$DIMAZIN
 70
     0
  9
$DIMDSEP
 70
    46
  9
$DIMATFIT
 70
     3
  9
$DIMFRAC
 70
     0
  9
$DIMLDRBLK
  1

  9
$DIMLUNIT
 70
     2
  9
$DIMLWD
 70
    -2
  9
$DIMLWE
 70
    -2
  9
$DIMTMOVE
 70
     0
  9
$LUNITS
 70
     2
  9
$LUPREC
 70
     4
  9
$SKETCHINC
 40
0.1
  9
$FILLETRAD
 40
0.5
  9
$AUNITS
 70
     0
  9
$AUPREC
 70
     0
  9
$MENU
  1
.
  9
$ELEVATION
 40
0.0
  9
$PELEVATION
 40
0.0
  9
$THICKNESS
 40
0.0
  9
$LIMCHECK
 70
     0
  9
$CHAMFERA
 40
0.0
  9
$CHAMFERB
 40
0.0
  9
$CHAMFERC
 40
0.0
  9
$CHAMFERD
 40
0.0
  9
$SKPOLY
 70
     0
  9
$TDCREATE
 40
2458836.412696759
  9
$TDUCREATE
 40
2458836.371040070
  9
$TDUPDATE
 40
2458836.414282408
  9
$TDUUPDATE
 40
2458836.372615741
  9
$TDINDWG
 40
0.0007639005
  9
$TDUSRTIMER
 40
0.0007639005
  9
$USRTIMER
 70
     1
  9
$ANGBASE
 50
0.0
  9
$ANGDIR
 70
     0
  9
$PDMODE
 70
     0
  9
$PDSIZE
 40
0.0
  9
$PLINEWID
 40
0.0
  9
$SPLFRAME
 70
     0
  9
$SPLINETYPE
 70
     6
  9
$SPLINESEGS
 70
     8
  9
$HANDSEED
  5
38B
  9
$SURFTAB1
 70
     6
  9
$SURFTAB2
 70
     6
  9
$SURFTYPE
 70
     6
  9
$SURFU
 70
     6
  9
$SURFV
 70
     6
  9
$UCSBASE
  2

  9
$UCSNAME
  2

  9
$UCSORG
 10
237.144248
 20
243.731161
 30
0.0
  9
$UCSXDIR
 10
1.0
 20
0.0
 30
0.0
  9
$UCSYDIR
 10
0.0
 20
1.0
 30
0.0
  9
$UCSORTHOREF
  2

  9
$UCSORTHOVIEW
 70
     0
  9
$UCSORGTOP
 10
0.0
 20
0.0
 30
0.0
  9
$UCSORGBOTTOM
 10
0.0
 20
0.0
 30
0.0
  9
$UCSORGLEFT
 10
0.0
 20
0.0
 30
0.0
  9
$UCSORGRIGHT
 10
0.0
 20
0.0
 30
0.0
  9
$UCSORGFRONT
 10
0.0
 20
0.0
 30
0.0
  9
$UCSORGBACK
 10
0.0
 20
0.0
 30
0.0
  9
$PUCSBASE
  2

  9
$PUCSNAME
  2

  9
$PUCSORG
 10
0.0
 20
0.0
 30
0.0
  9
$PUCSXDIR
 10
1.0
 20
0.0
 30
0.0
  9
$PUCSYDIR
 10
0.0
 20
1.0
 30
0.0
  9
$PUCSORTHOREF
  2

  9
$PUCSORTHOVIEW
 70
     0
  9
$PUCSORGTOP
 10
0.0
 20
0.0
 30
0.0
  9
$PUCSORGBOTTOM
 10
0.0
 20
0.0
 30
0.0
  9
$PUCSORGLEFT
 10
0.0
 20
0.0
 30
0.0
  9
$PUCSORGRIGHT
 10
0.0
 20
0.0
 30
0.0
  9
$PUCSORGFRONT
 10
0.0
 20
0.0
 30
0.0
  9
$PUCSORGBACK
 10
0.0
 20
0.0
 30
0.0
  9
$USERI1
 70
     0
  9
$USERI2
 70
     0
  9
$USERI3
 70
     0
  9
$USERI4
 70
     0
  9
$USERI5
 70
     0
  9
$USERR1
 40
0.0
  9
$USERR2
 40
0.0
  9
$USERR3
 40
0.0
  9
$USERR4
 40
0.0
  9
$USERR5
 40
0.0
  9
$WORLDVIEW
 70
     1
  9
$SHADEDGE
 70
     3
  9
$SHADEDIF
 70
    70
  9
$TILEMODE
 70
     1
  9
$MAXACTVP
 70
    64
  9
$PINSBASE
 10
0.0
 20
0.0
 30
0.0
  9
$PLIMCHECK
 70
     0
  9
$PEXTMIN
 10
-0.5
 20
-0.5
 30
-0.5
  9
$PEXTMAX
 10
5.0
 20
5.0
 30
5.0
  9
$PLIMMIN
 10
-0.5
 20
-0.5
  9
$PLIMMAX
 10
5.0
 20
5.0
  9
$UNITMODE
 70
     0
  9
$VISRETAIN
 70
     1
  9
$PLINEGEN
 70
     0
  9
$PSLTSCALE
 70
     1
  9
$TREEDEPTH
 70
  3020
  9
$CMLSTYLE
  2
Standard
  9
$CMLJUST
 70
     0
  9
$CMLSCALE
 40
1.0
  9
$PROXYGRAPHICS
 70
     1
  9
$MEASUREMENT
 70
     1
  9
$CELWEIGHT
370
    13
  9
$ENDCAPS
280
     0
  9
$JOINSTYLE
280
     0
  9
$LWDISPLAY
290
     0
  9
$INSUNITS
 70
     4
  9
$HYPERLINKBASE
  1

  9
$STYLESHEET
  1

  9
$XEDIT
290
     1
  9
$CEPSNTYPE
380
     0
  9
$PSTYLEMODE
290
     1
  9
$FINGERPRINTGUID
  2
{09F512F2-E0E3-4951-B1DB-7FC6144D0AD2}
  9
$VERSIONGUID
  2
{86A22969-510F-4C45-B396-FCA483880E67}
  9
$EXTNAMES
290
     1
  9
$PSVPSCALE
 40
0.0
  9
$OLESTARTUP
290
     0
  9
$SORTENTS
280
   127
  9
$INDEXCTL
280
     0
  9
$HIDETEXT
280
     1
  9
$XCLIPFRAME
290
     0
  9
$HALOGAP
280
     0
  9
$OBSCOLOR
 70
   257
  9
$OBSLTYPE
280
     0
  9
$INTERSECTIONDISPLAY
280
     0
  9
$INTERSECTIONCOLOR
 70
   257
  9
$DIMASSOC
280
     2
  9
$PROJECTNAME
  1

  0
ENDSEC
  0
SECTION
  2
CLASSES
  0
CLASS
  1
ACDBDICTIONARYWDFLT
  2
AcDbDictionaryWithDefault
  3
ObjectDBX Classes
 90
        0
 91
        1
280
     0
281
     0
  0
CLASS
  1
VISUALSTYLE
  2
AcDbVisualStyle
  3
ObjectDBX Classes
 90
     4095
 91
       24
280
     0
281
     0
  0
CLASS
  1
MATERIAL
  2
AcDbMaterial
  3
ObjectDBX Classes
 90
     1153
 91
        3
280
     0
281
     0
  0
CLASS
  1
SCALE
  2
AcDbScale
  3
ObjectDBX Classes
 90
     1153
 91
       33
280
     0
281
     0
  0
CLASS
  1
TABLESTYLE
  2
AcDbTableStyle
  3
ObjectDBX Classes
 90
     4095
 91
        1
280
     0
281
     0
  0
CLASS
  1
MLEADERSTYLE
  2
AcDbMLeaderStyle
  3
ACDB_MLEADERSTYLE_CLASS
 90
     4095
 91
        1
280
     0
281
     0
  0
CLASS
  1
SUN
  2
AcDbSun
  3
SCENEOE
 90
     1153
 91
        0
280
     0
281
     0
  0
CLASS
  1
DIMASSOC
  2
AcDbDimAssoc
  3
"AcDbDimAssoc|Product Desc:     AcDim ARX App For Dimension|Company:          Autodesk, Inc.|WEB Address:      www.autodesk.com"
 90
        0
 91
        6
280
     0
281
     0
  0
CLASS
  1
DICTIONARYVAR
  2
AcDbDictionaryVar
  3
ObjectDBX Classes
 90
        0
 91
        8
280
     0
281
     0
  0
CLASS
  1
CELLSTYLEMAP
  2
AcDbCellStyleMap
  3
ObjectDBX Classes
 90
     1152
 91
        2
280
     0
281
     0
  0
CLASS
  1
ACDBSECTIONVIEWSTYLE
  2
AcDbSectionViewStyle
  3
ObjectDBX Classes
 90
     1025
 91
        1
280
     0
281
     0
  0
CLASS
  1
ACDBDETAILVIEWSTYLE
  2
AcDbDetailViewStyle
  3
ObjectDBX Classes
 90
     1025
 91
        1
280
     0
281
     0
  0
CLASS
  1
SORTENTSTABLE
  2
AcDbSortentsTable
  3
ObjectDBX Classes
 90
        0
 91
        1
280
     0
281
     0
  0
ENDSEC
  0
SECTION
  2
TABLES
  0
TABLE
  2
VPORT
  5
8
330
0
100
AcDbSymbolTable
 70
    16
  0
VPORT
  5
29
330
8
100
AcDbSymbolTableRecord
100
AcDbViewportTableRecord
  2
*Active
 70
     0
 10
0.0
 20
0.0
 11
1.0
 21
1.0
 12
303.8605826185211
 22
233.4558655307637
 13
0.0
 23
0.0
 14
0.5
 24
0.5
 15
0.5
 25
0.5
 16
0.0
 26
0.0
 36
1.0
 17
0.0
 27
0.0
 37
0.0
 40
206.228299202718
 41
2.283154121863799
 42
50.0
 43
377.24683
 44
-377.24683
 50
0.0
 51
0.0
 71
     0
 72
   100
 73
     1
 74
     3
 75
     0
 76
     0
 77
     0
 78
     0
281
     0
 65
     1
110
237.144248
120
243.731161
130
0.0
111
1.0
121
0.0
131
0.0
112
0.0
122
1.0
132
0.0
 79
     0
146
0.0
1001
ACAD_NAV_VCDISPLAY
1070
     3
  0
VPORT
  5
24F
330
8
100
AcDbSymbolTableRecord
100
AcDbViewportTableRecord
  2
L1
 70
     0
 10
0.0
 20
0.0
 11
1.0
 21
1.0
 12
277.501045
 22
255.321472
 13
0.0
 23
0.0
 14
0.5
 24
0.5
 15
0.5
 25
0.5
 16
0.0
 26
0.0
 36
1.0
 17
0.0
 27
0.0
 37
0.0
 40
209.020833
 41
0.084952
 42
50.0
 43
377.24683
 44
-377.24683
 50
0.0
 51
0.0
 71
     0
 72
   100
 73
     1
 74
     3
 75
     0
 76
     0
 77
     0
 78
     0
281
     0
 65
     1
110
0.0
120
0.0
130
0.0
111
1.0
121
0.0
131
0.0
112
0.0
122
1.0
132
0.0
 79
     0
146
0.0
  0
VPORT
  5
250
330
8
100
AcDbSymbolTableRecord
100
AcDbViewportTableRecord
  2
L2
 70
     0
 10
0.0
 20
0.0
 11
0.5
 21
1.0
 12
0.0
 22
0.0
 13
0.0
 23
0.0
 14
0.5
 24
0.5
 15
0.5
 25
0.5
 16
0.0
 26
-1.0
 36
0.0
 17
0.0
 27
0.0
 37
0.0
 40
1496.710499
 41
0.011864
 42
50.0
 43
774.8657309999999
 44
-774.8657309999999
 50
0.0
 51
0.0
 71
     0
 72
   100
 73
     1
 74
     3
 75
     0
 76
     0
 77
     0
 78
     0
281
     0
 65
     1
110
0.0
120
0.0
130
0.0
111
1.0
121
0.0
131
0.0
112
0.0
122
1.0
132
0.0
 79
     0
146
0.0
  0
VPORT
  5
251
330
8
100
AcDbSymbolTableRecord
100
AcDbViewportTableRecord
  2
L2
 70
     0
 10
0.5
 20
0.0
 11
1.0
 21
1.0
 12
0.0
 22
0.0
 13
0.0
 23
0.0
 14
0.5
 24
0.5
 15
0.5
 25
0.5
 16
1.0
 26
0.0
 36
0.0
 17
0.0
 27
0.0
 37
0.0
 40
1496.710499
 41
0.011864
 42
50.0
 43
755.6176329999999
 44
-755.6176329999999
 50
0.0
 51
0.0
 71
     0
 72
   100
 73
     1
 74
     3
 75
     0
 76
     0
 77
     0
 78
     0
281
     0
 65
     1
110
0.0
120
0.0
130
0.0
111
1.0
121
0.0
131
0.0
112
0.0
122
1.0
132
0.0
 79
     0
146
0.0
  0
VPORT
  5
252
330
8
100
AcDbSymbolTableRecord
100
AcDbViewportTableRecord
  2
L3
 70
     0
 10
0.0
 20
0.5
 11
1.0
 21
1.0
 12
277.501045
 22
255.321472
 13
0.0
 23
0.0
 14
0.5
 24
0.5
 15
0.5
 25
0.5
 16
0.0
 26
0.0
 36
1.0
 17
0.0
 27
0.0
 37
0.0
 40
209.020833
 41
0.084952
 42
50.0
 43
377.24683
 44
-377.24683
 50
0.0
 51
0.0
 71
     0
 72
   100
 73
     1
 74
     3
 75
     0
 76
     0
 77
     0
 78
     0
281
     0
 65
     1
110
0.0
120
0.0
130
0.0
111
1.0
121
0.0
131
0.0
112
0.0
122
1.0
132
0.0
 79
     0
146
0.0
  0
VPORT
  5
253
330
8
100
AcDbSymbolTableRecord
100
AcDbViewportTableRecord
  2
L3
 70
     0
 10
0.0
 20
0.0
 11
1.0
 21
0.5
 12
0.0
 22
0.0
 13
0.0
 23
0.0
 14
0.5
 24
0.5
 15
0.5
 25
0.5
 16
0.0
 26
-1.0
 36
0.0
 17
0.0
 27
0.0
 37
0.0
 40
1496.710499
 41
0.011864
 42
50.0
 43
774.8657309999999
 44
-774.8657309999999
 50
0.0
 51
0.0
 71
     0
 72
   100
 73
     1
 74
     3
 75
     0
 76
     0
 77
     0
 78
     0
281
     0
 65
     1
110
0.0
120
0.0
130
0.0
111
1.0
121
0.0
131
0.0
112
0.0
122
1.0
132
0.0
 79
     0
146
0.0
  0
VPORT
  5
254
330
8
100
AcDbSymbolTableRecord
100
AcDbViewportTableRecord
  2
L4
 70
     0
 10
0.0
 20
0.5
 11
0.5
 21
1.0
 12
277.501045
 22
255.321472
 13
0.0
 23
0.0
 14
0.5
 24
0.5
 15
0.5
 25
0.5
 16
0.0
 26
0.0
 36
1.0
 17
0.0
 27
0.0
 37
0.0
 40
209.020833
 41
0.084952
 42
50.0
 43
377.24683
 44
-377.24683
 50
0.0
 51
0.0
 71
     0
 72
   100
 73
     1
 74
     3
 75
     0
 76
     0
 77
     0
 78
     0
281
     0
 65
     1
110
0.0
120
0.0
130
0.0
111
1.0
121
0.0
131
0.0
112
0.0
122
1.0
132
0.0
 79
     0
146
0.0
  0
VPORT
  5
255
330
8
100
AcDbSymbolTableRecord
100
AcDbViewportTableRecord
  2
L4
 70
     0
 10
0.0
 20
0.0
 11
0.5
 21
0.5
 12
0.0
 22
0.0
 13
0.0
 23
0.0
 14
0.5
 24
0.5
 15
0.5
 25
0.5
 16
0.0
 26
-1.0
 36
0.0
 17
0.0
 27
0.0
 37
0.0
 40
1496.710499
 41
0.011864
 42
50.0
 43
774.8657309999999
 44
-774.8657309999999
 50
0.0
 51
0.0
 71
     0
 72
   100
 73
     1
 74
     3
 75
     0
 76
     0
 77
     0
 78
     0
281
     0
 65
     1
110
0.0
120
0.0
130
0.0
111
1.0
121
0.0
131
0.0
112
0.0
122
1.0
132
0.0
 79
     0
146
0.0
  0
VPORT
  5
256
330
8
100
AcDbSymbolTableRecord
100
AcDbViewportTableRecord
  2
L4
 70
     0
 10
0.5
 20
0.0
 11
1.0
 21
0.5
 12
0.0
 22
0.0
 13
0.0
 23
0.0
 14
0.5
 24
0.5
 15
0.5
 25
0.5
 16
1.0
 26
0.0
 36
0.0
 17
0.0
 27
0.0
 37
0.0
 40
1496.710499
 41
0.011864
 42
50.0
 43
755.6176329999999
 44
-755.6176329999999
 50
0.0
 51
0.0
 71
     0
 72
   100
 73
     1
 74
     3
 75
     0
 76
     0
 77
     0
 78
     0
281
     0
 65
     1
110
0.0
120
0.0
130
0.0
111
1.0
121
0.0
131
0.0
112
0.0
122
1.0
132
0.0
 79
     0
146
0.0
  0
VPORT
  5
257
330
8
100
AcDbSymbolTableRecord
100
AcDbViewportTableRecord
  2
L4
 70
     0
 10
0.5
 20
0.5
 11
1.0
 21
1.0
 12
0.0
 22
0.0
 13
0.0
 23
0.0
 14
0.5
 24
0.5
 15
0.5
 25
0.5
 16
0.5773502691896259
 26
-0.5773502691896259
 36
0.5773502691896259
 17
0.0
 27
0.0
 37
0.0
 40
1471.467242
 41
0.012067
 42
50.0
 43
766.783745
 44
-766.783745
 50
0.0
 51
0.0
 71
     0
 72
   100
 73
     1
 74
     3
 75
     0
 76
     0
 77
     0
 78
     0
281
     0
 65
     1
110
0.0
120
0.0
130
0.0
111
1.0
121
0.0
131
0.0
112
0.0
122
1.0
132
0.0
 79
     0
146
0.0
  0
VPORT
  5
258
330
8
100
AcDbSymbolTableRecord
100
AcDbViewportTableRecord
  2
L6
 70
     0
 10
0.0
 20
0.5
 11
0.333333
 21
1.0
 12
0.0
 22
0.0
 13
0.0
 23
0.0
 14
0.5
 24
0.5
 15
0.5
 25
0.5
 16
0.7188730927569434
 26
-0.5850486126764433
 36
0.3754192287502549
 17
0.0
 27
0.0
 37
0.0
 40
1553.790414
 41
0.011428
 42
50.0
 43
804.2324119999999
 44
-804.2324119999999
 50
0.0
 51
0.0
 71
     0
 72
   100
 73
     1
 74
     3
 75
     0
 76
     0
 77
     0
 78
     0
281
     0
 65
     1
110
0.0
120
0.0
130
0.0
111
1.0
121
0.0
131
0.0
112
0.0
122
1.0
132
0.0
 79
     0
146
0.0
  0
VPORT
  5
259
330
8
100
AcDbSymbolTableRecord
100
AcDbViewportTableRecord
  2
L6
 70
     0
 10
0.0
 20
0.0
 11
0.333333
 21
0.5
 12
0.0
 22
0.0
 13
0.0
 23
0.0
 14
0.5
 24
0.5
 15
0.5
 25
0.5
 16
-1.0
 26
0.0
 36
0.0
 17
0.0
 27
0.0
 37
0.0
 40
1496.710499
 41
0.011864
 42
50.0
 43
755.6176329999999
 44
-755.6176329999999
 50
0.0
 51
0.0
 71
     0
 72
   100
 73
     1
 74
     3
 75
     0
 76
     0
 77
     0
 78
     0
281
     0
 65
     1
110
0.0
120
0.0
130
0.0
111
1.0
121
0.0
131
0.0
112
0.0
122
1.0
132
0.0
 79
     0
146
0.0
  0
VPORT
  5
25A
330
8
100
AcDbSymbolTableRecord
100
AcDbViewportTableRecord
  2
L6
 70
     0
 10
0.333333
 20
0.5
 11
0.666667
 21
1.0
 12
277.501045
 22
255.321472
 13
0.0
 23
0.0
 14
0.5
 24
0.5
 15
0.5
 25
0.5
 16
0.0
 26
0.0
 36
1.0
 17
0.0
 27
0.0
 37
0.0
 40
209.020833
 41
0.084952
 42
50.0
 43
377.24683
 44
-377.24683
 50
0.0
 51
0.0
 71
     0
 72
   100
 73
     1
 74
     3
 75
     0
 76
     0
 77
     0
 78
     0
281
     0
 65
     1
110
0.0
120
0.0
130
0.0
111
1.0
121
0.0
131
0.0
112
0.0
122
1.0
132
0.0
 79
     0
146
0.0
  0
VPORT
  5
25B
330
8
100
AcDbSymbolTableRecord
100
AcDbViewportTableRecord
  2
L6
 70
     0
 10
0.333333
 20
0.0
 11
0.666667
 21
0.5
 12
0.0
 22
0.0
 13
0.0
 23
0.0
 14
0.5
 24
0.5
 15
0.5
 25
0.5
 16
0.0
 26
-1.0
 36
0.0
 17
0.0
 27
0.0
 37
0.0
 40
1496.710499
 41
0.011864
 42
50.0
 43
774.8657309999999
 44
-774.8657309999999
 50
0.0
 51
0.0
 71
     0
 72
   100
 73
     1
 74
     3
 75
     0
 76
     0
 77
     0
 78
     0
281
     0
 65
     1
110
0.0
120
0.0
130
0.0
111
1.0
121
0.0
131
0.0
112
0.0
122
1.0
132
0.0
 79
     0
146
0.0
  0
VPORT
  5
25C
330
8
100
AcDbSymbolTableRecord
100
AcDbViewportTableRecord
  2
L6
 70
     0
 10
0.666667
 20
0.5
 11
1.0
 21
1.0
 12
0.0
 22
0.0
 13
0.0
 23
0.0
 14
0.5
 24
0.5
 15
0.5
 25
0.5
 16
0.5773502691896259
 26
-0.5773502691896259
 36
0.5773502691896259
 17
0.0
 27
0.0
 37
0.0
 40
1471.467242
 41
0.012067
 42
50.0
 43
766.783745
 44
-766.783745
 50
0.0
 51
0.0
 71
     0
 72
   100
 73
     1
 74
     3
 75
     0
 76
     0
 77
     0
 78
     0
281
     0
 65
     1
110
0.0
120
0.0
130
0.0
111
1.0
121
0.0
131
0.0
112
0.0
122
1.0
132
0.0
 79
     0
146
0.0
  0
VPORT
  5
25D
330
8
100
AcDbSymbolTableRecord
100
AcDbViewportTableRecord
  2
L6
 70
     0
 10
0.666667
 20
0.0
 11
1.0
 21
0.5
 12
0.0
 22
0.0
 13
0.0
 23
0.0
 14
0.5
 24
0.5
 15
0.5
 25
0.5
 16
1.0
 26
0.0
 36
0.0
 17
0.0
 27
0.0
 37
0.0
 40
1496.710499
 41
0.011864
 42
50.0
 43
755.6176329999999
 44
-755.6176329999999
 50
0.0
 51
0.0
 71
     0
 72
   100
 73
     1
 74
     3
 75
     0
 76
     0
 77
     0
 78
     0
281
     0
 65
     1
110
0.0
120
0.0
130
0.0
111
1.0
121
0.0
131
0.0
112
0.0
122
1.0
132
0.0
 79
     0
146
0.0
  0
ENDTAB
  0
TABLE
  2
LTYPE
  5
5
330
0
100
AcDbSymbolTable
 70
     7
  0
LTYPE
  5
14
330
5
100
AcDbSymbolTableRecord
100
AcDbLinetypeTableRecord
  2
ByBlock
 70
     0
  3

 72
    65
 73
     0
 40
0.0
  0
LTYPE
  5
15
330
5
100
AcDbSymbolTableRecord
100
AcDbLinetypeTableRecord
  2
ByLayer
 70
     0
  3

 72
    65
 73
     0
 40
0.0
  0
LTYPE
  5
16
330
5
100
AcDbSymbolTableRecord
100
AcDbLinetypeTableRecord
  2
Continuous
 70
     0
  3
Solid line
 72
    65
 73
     0
 40
0.0
  0
LTYPE
  5
6E
330
5
100
AcDbSymbolTableRecord
100
AcDbLinetypeTableRecord
  2
CENTER
 70
     0
  3
____ _ ____ _ ____ _ ____
 72
    65
 73
     4
 40
47.4
 49
22.0
 74
     4
 75
     0
340
0
 46
0.0
 50
0.0
 44
0.0
 45
0.0
 49
-8.5
 74
     4
 75
     0
340
0
 46
0.0
 50
0.0
 44
0.0
 45
0.0
 49
8.5
 74
     4
 75
     0
340
0
 46
0.0
 50
0.0
 44
0.0
 45
0.0
 49
-8.5
 74
     4
 75
     0
340
0
 46
0.0
 50
0.0
 44
0.0
 45
0.0
  0
LTYPE
  5
6F
330
5
100
AcDbSymbolTableRecord
100
AcDbLinetypeTableRecord
  2
DASHDOT
 70
     0
  3
_._._._._._._._._._._._._._._._.
 72
    65
 73
     4
 40
70.0
 49
31.0
 74
     4
 75
     0
340
0
 46
0.0
 50
0.0
 44
0.0
 45
0.0
 49
-13.0
 74
     4
 75
     0
340
0
 46
0.0
 50
0.0
 44
0.0
 45
0.0
 49
13.0
 74
     4
 75
     0
340
0
 46
0.0
 50
0.0
 44
0.0
 45
0.0
 49
-13.0
 74
     4
 75
     0
340
0
 46
0.0
 50
0.0
 44
0.0
 45
0.0
  0
LTYPE
  5
70
330
5
100
AcDbSymbolTableRecord
100
AcDbLinetypeTableRecord
  2
DASHED
 70
     0
  3
__ __ __ __ __ __ __ __ __
 72
    65
 73
     2
 40
25.72
 49
12.86
 74
     4
 75
     0
340
0
 46
0.0
 50
0.0
 44
0.0
 45
0.0
 49
-12.86
 74
     4
 75
     0
340
0
 46
0.0
 50
0.0
 44
0.0
 45
0.0
  0
LTYPE
  5
71
330
5
100
AcDbSymbolTableRecord
100
AcDbLinetypeTableRecord
  2
DOT
 70
     0
  3
.........................
 72
    65
 73
     2
 40
10.0
 49
0.0
 74
     4
 75
     0
340
0
 46
0.0
 50
0.0
 44
0.0
 45
0.0
 49
-10.0
 74
     4
 75
     0
340
0
 46
0.0
 50
0.0
 44
0.0
 45
0.0
  0
LTYPE
  5
72
330
5
100
AcDbSymbolTableRecord
100
AcDbLinetypeTableRecord
  2
PHANTOM
 70
     0
  3
____ _ _ ____ _ _ _____ _ _ ____
 72
    65
 73
     6
 40
50.5
 49
18.0
 74
     4
 75
     0
340
0
 46
0.0
 50
0.0
 44
0.0
 45
0.0
 49
-6.5
 74
     4
 75
     0
340
0
 46
0.0
 50
0.0
 44
0.0
 45
0.0
 49
6.5
 74
     4
 75
     0
340
0
 46
0.0
 50
0.0
 44
0.0
 45
0.0
 49
-6.5
 74
     4
 75
     0
340
0
 46
0.0
 50
0.0
 44
0.0
 45
0.0
 49
6.5
 74
     4
 75
     0
340
0
 46
0.0
 50
0.0
 44
0.0
 45
0.0
 49
-6.5
 74
     4
 75
     0
340
0
 46
0.0
 50
0.0
 44
0.0
 45
0.0
  0
LTYPE
  5
32D
330
5
100
AcDbSymbolTableRecord
100
AcDbLinetypeTableRecord
  2
CENTER2
 70
     0
  3
Center (.5x) ___ _ ___ _ ___ _ ___ _ ___ _ ___
 72
    65
 73
     4
 40
1.125
 49
0.75
 74
     0
 49
-0.125
 74
     0
 49
0.125
 74
     0
 49
-0.125
 74
     0
  0
ENDTAB
  0
TABLE
  2
LAYER
  5
2
330
0
100
AcDbSymbolTable
 70
    21
  0
LAYER
  5
10
102
{ACAD_XDICTIONARY
360
338
102
}
330
2
100
AcDbSymbolTableRecord
100
AcDbLayerTableRecord
  2
0
 70
     0
 62
     7
  6
Continuous
370
    -3
390
F
  0
LAYER
  5
1BF
330
2
100
AcDbSymbolTableRecord
100
AcDbLayerTableRecord
  2
Defpoints
 70
     0
 62
     7
  6
Continuous
290
     0
370
    -3
390
F
  0
LAYER
  5
32A
102
{ACAD_XDICTIONARY
360
33A
102
}
330
2
100
AcDbSymbolTableRecord
100
AcDbLayerTableRecord
  2
1
 70
     0
 62
     4
  6
Continuous
370
    -3
390
F
  0
LAYER
  5
32B
102
{ACAD_XDICTIONARY
360
33C
102
}
330
2
100
AcDbSymbolTableRecord
100
AcDbLayerTableRecord
  2
2
 70
     0
 62
     7
  6
Continuous
370
    -3
390
F
  0
LAYER
  5
32C
102
{ACAD_XDICTIONARY
360
33E
102
}
330
2
100
AcDbSymbolTableRecord
100
AcDbLayerTableRecord
  2
4
 70
     0
 62
     2
  6
CENTER2
370
    -3
390
F
  0
LAYER
  5
32E
102
{ACAD_XDICTIONARY
360
340
102
}
330
2
100
AcDbSymbolTableRecord
100
AcDbLayerTableRecord
  2
SK1
 70
     0
 62
     4
  6
Continuous
370
    -3
390
F
  0
LAYER
  5
32F
102
{ACAD_XDICTIONARY
360
342
102
}
330
2
100
AcDbSymbolTableRecord
100
AcDbLayerTableRecord
  2
SK2
 70
     0
 62
     7
  6
Continuous
370
    -3
390
F
  0
LAYER
  5
331
102
{ACAD_XDICTIONARY
360
344
102
}
330
2
100
AcDbSymbolTableRecord
100
AcDbLayerTableRecord
  2
SK4
 70
     0
 62
     2
  6
CENTER2
370
    -3
390
F
  0
LAYER
  5
332
102
{ACAD_XDICTIONARY
360
346
102
}
330
2
100
AcDbSymbolTableRecord
100
AcDbLayerTableRecord
  2
SK6
 70
     0
 62
     5
  6
Continuous
370
    -3
390
F
  0
LAYER
  5
333
102
{ACAD_XDICTIONARY
360
348
102
}
330
2
100
AcDbSymbolTableRecord
100
AcDbLayerTableRecord
  2
CUT
 70
     0
 62
     1
  6
Continuous
370
    -3
390
F
  0
LAYER
  5
334
102
{ACAD_XDICTIONARY
360
34A
102
}
330
2
100
AcDbSymbolTableRecord
100
AcDbLayerTableRecord
  2
NOCUT
 70
     0
 62
     7
  6
Continuous
370
    -3
390
F
  0
LAYER
  5
335
102
{ACAD_XDICTIONARY
360
34C
102
}
330
2
100
AcDbSymbolTableRecord
100
AcDbLayerTableRecord
  2
80
 70
     0
 62
     6
  6
Continuous
370
    -3
390
F
  0
LAYER
  5
336
102
{ACAD_XDICTIONARY
360
34E
102
}
330
2
100
AcDbSymbolTableRecord
100
AcDbLayerTableRecord
  2
81
 70
     0
 62
     3
  6
Continuous
370
    -3
390
F
  0
ENDTAB
  0
TABLE
  2
STYLE
  5
3
330
0
100
AcDbSymbolTable
 70
     3
  0
STYLE
  5
11
330
3
100
AcDbSymbolTableRecord
100
AcDbTextStyleTableRecord
  2
Standard
 70
     0
 40
0.0
 41
1.0
 50
0.0
 71
     0
 42
0.2
  3
txt
  4

  0
STYLE
  5
1B9
330
3
100
AcDbSymbolTableRecord
100
AcDbTextStyleTableRecord
  2
cesky
 70
     0
 40
0.0
 41
1.0
 50
0.0
 71
     0
 42
0.2
  3
simplex.shx
  4

  0
STYLE
  5
1BA
330
3
100
AcDbSymbolTableRecord
100
AcDbTextStyleTableRecord
  2
DWGDirectTextStyle
 70
     0
 40
0.0
 41
1.0
 50
0.0
 71
     0
 42
0.2
  3
simplex
  4

  0
ENDTAB
  0
TABLE
  2
VIEW
  5
6
330
0
100
AcDbSymbolTable
 70
     0
  0
ENDTAB
  0
TABLE
  2
UCS
  5
7
330
0
100
AcDbSymbolTable
 70
     0
  0
ENDTAB
  0
TABLE
  2
APPID
  5
9
330
0
100
AcDbSymbolTable
 70
     7
  0
APPID
  5
12
330
9
100
AcDbSymbolTableRecord
100
AcDbRegAppTableRecord
  2
ACAD
 70
     0
  0
APPID
  5
1BB
330
9
100
AcDbSymbolTableRecord
100
AcDbRegAppTableRecord
  2
ACAD_DSTYLE_DIMBREAK
 70
     0
  0
APPID
  5
25E
330
9
100
AcDbSymbolTableRecord
100
AcDbRegAppTableRecord
  2
ACAD_DSTYLE_DIM_LINETYPE
 70
     0
  0
APPID
  5
25F
330
9
100
AcDbSymbolTableRecord
100
AcDbRegAppTableRecord
  2
ACAD_DSTYLE_DIM_EXT1_LINETYPE
 70
     0
  0
APPID
  5
260
330
9
100
AcDbSymbolTableRecord
100
AcDbRegAppTableRecord
  2
ACAD_DSTYLE_DIM_EXT2_LINETYPE
 70
     0
  0
APPID
  5
2A0
330
9
100
AcDbSymbolTableRecord
100
AcDbRegAppTableRecord
  2
ACAD_MLEADERVER
 70
     0
  0
APPID
  5
353
330
9
100
AcDbSymbolTableRecord
100
AcDbRegAppTableRecord
  2
ACAD_NAV_VCDISPLAY
 70
     0
  0
ENDTAB
  0
TABLE
  2
DIMSTYLE
  5
A
330
0
100
AcDbSymbolTable
 70
     1
100
AcDbDimStyleTable
 71
     0
  0
DIMSTYLE
105
27
330
A
100
AcDbSymbolTableRecord
100
AcDbDimStyleTableRecord
  2
Standard
 70
     0
340
11
1001
ACAD_DSTYLE_DIMBREAK
1070
   391
1040
6.349999999999999
  0
ENDTAB
  0
TABLE
  2
BLOCK_RECORD
  5
1
330
0
100
AcDbSymbolTable
 70
    13
  0
BLOCK_RECORD
  5
1F
102
{ACAD_XDICTIONARY
360
2B0
102
}
330
1
100
AcDbSymbolTableRecord
100
AcDbBlockTableRecord
  2
*Model_Space
340
22
  0
BLOCK_RECORD
  5
1B
330
1
100
AcDbSymbolTableRecord
100
AcDbBlockTableRecord
  2
*Paper_Space
340
1E
  0
BLOCK_RECORD
  5
23
330
1
100
AcDbSymbolTableRecord
100
AcDbBlockTableRecord
  2
*Paper_Space0
340
26
  0
BLOCK_RECORD
  5
1C0
330
1
100
AcDbSymbolTableRecord
100
AcDbBlockTableRecord
  2
*D1
340
0
  0
BLOCK_RECORD
  5
1CB
330
1
100
AcDbSymbolTableRecord
100
AcDbBlockTableRecord
  2
_U0
340
0
  0
BLOCK_RECORD
  5
1D6
330
1
100
AcDbSymbolTableRecord
100
AcDbBlockTableRecord
  2
*D3
340
0
  0
BLOCK_RECORD
  5
1E2
330
1
100
AcDbSymbolTableRecord
100
AcDbBlockTableRecord
  2
_U1
340
0
  0
BLOCK_RECORD
  5
1EF
330
1
100
AcDbSymbolTableRecord
100
AcDbBlockTableRecord
  2
*D5
340
0
  0
BLOCK_RECORD
  5
1FB
330
1
100
AcDbSymbolTableRecord
100
AcDbBlockTableRecord
  2
_U2
340
0
  0
BLOCK_RECORD
  5
207
330
1
100
AcDbSymbolTableRecord
100
AcDbBlockTableRecord
  2
*D7
340
0
  0
BLOCK_RECORD
  5
215
330
1
100
AcDbSymbolTableRecord
100
AcDbBlockTableRecord
  2
_U3
340
0
  0
BLOCK_RECORD
  5
221
330
1
100
AcDbSymbolTableRecord
100
AcDbBlockTableRecord
  2
*D9
340
0
  0
BLOCK_RECORD
  5
22D
330
1
100
AcDbSymbolTableRecord
100
AcDbBlockTableRecord
  2
_U4
340
0
  0
BLOCK_RECORD
  5
239
330
1
100
AcDbSymbolTableRecord
100
AcDbBlockTableRecord
  2
*D11
340
0
  0
BLOCK_RECORD
  5
245
330
1
100
AcDbSymbolTableRecord
100
AcDbBlockTableRecord
  2
_U5
340
0
  0
ENDTAB
  0
ENDSEC
  0
SECTION
  2
BLOCKS
  0
BLOCK
  5
20
330
1F
100
AcDbEntity
  8
0
100
AcDbBlockBegin
  2
*Model_Space
 70
     0
 10
0.0
 20
0.0
 30
0.0
  3
*Model_Space
  1

  0
ENDBLK
  5
21
330
1F
100
AcDbEntity
  8
0
100
AcDbBlockEnd
  0
BLOCK
  5
1C
330
1B
100
AcDbEntity
 67
     1
  8
0
100
AcDbBlockBegin
  2
*Paper_Space
 70
     0
 10
0.0
 20
0.0
 30
0.0
  3
*Paper_Space
  1

  0
ENDBLK
  5
1D
330
1B
100
AcDbEntity
 67
     1
  8
0
100
AcDbBlockEnd
  0
BLOCK
  5
24
330
23
100
AcDbEntity
 67
     1
  8
0
100
AcDbBlockBegin
  2
*Paper_Space0
 70
     0
 10
0.0
 20
0.0
 30
0.0
  3
*Paper_Space0
  1

  0
ENDBLK
  5
25
330
23
100
AcDbEntity
 67
     1
  8
0
100
AcDbBlockEnd
  0
BLOCK
  5
1C1
330
1C0
100
AcDbEntity
  8
0
100
AcDbBlockBegin
  2
*D1
 70
     1
 10
0.0
 20
0.0
 30
0.0
  3
*D1
  1

  0
LINE
  5
1C3
330
1C0
100
AcDbEntity
  8
0
 62
   254
370
    -2
100
AcDbLine
 10
251.911615
 20
243.731161
 30
0.0
 11
392.517964
 21
243.731161
 31
0.0
  0
LINE
  5
1C4
330
1C0
100
AcDbEntity
  8
0
 62
   254
370
    -2
100
AcDbLine
 10
382.144248
 20
256.231161
 30
0.0
 11
392.517964
 21
256.231161
 31
0.0
  0
LINE
  5
1C5
330
1C0
100
AcDbEntity
  8
0
 62
   254
370
    -2
100
AcDbLine
 10
391.517964
 20
259.731161
 30
0.0
 11
391.517964
 21
263.231161
 31
0.0
  0
SOLID
  5
1C6
330
1C0
100
AcDbEntity
  8
0
 62
   254
100
AcDbTrace
 10
390.934631
 20
259.731161
 30
0.0
 11
392.101298
 21
259.731161
 31
0.0
 12
391.517964
 22
256.231161
 32
0.0
 13
391.517964
 23
256.231161
 33
0.0
  0
MTEXT
  5
1C7
330
1C0
100
AcDbEntity
  8
0
 62
   254
370
    13
100
AcDbMText
 10
386.267964
 20
230.397828
 30
0.0
 40
3.5
 41
0.0
 71
     5
 72
     1
  1
\A1;25
  7
cesky
 11
0.0
 21
1.0
 31
0.0
 73
     1
 44
1.0
  0
POINT
  5
1C8
330
1C0
100
AcDbEntity
  8
Defpoints
 62
     0
100
AcDbPoint
 10
251.911615
 20
243.731161
 30
0.0
  0
POINT
  5
1C9
330
1C0
100
AcDbEntity
  8
Defpoints
 62
     0
100
AcDbPoint
 10
382.144248
 20
256.231161
 30
0.0
  0
POINT
  5
1CA
330
1C0
100
AcDbEntity
  8
Defpoints
 62
     0
100
AcDbPoint
 10
391.517964
 20
256.231161
 30
0.0
  0
ENDBLK
  5
1C2
330
1C0
100
AcDbEntity
  8
0
100
AcDbBlockEnd
  0
BLOCK
  5
1D1
330
1CB
100
AcDbEntity
  8
0
100
AcDbBlockBegin
  2
_U0
 70
     0
 10
0.0
 20
0.0
 30
0.0
  3
_U0
  1

  0
ENDBLK
  5
1D2
330
1CB
100
AcDbEntity
  8
0
100
AcDbBlockEnd
  0
BLOCK
  5
1D7
330
1D6
100
AcDbEntity
  8
0
100
AcDbBlockBegin
  2
*D3
 70
     1
 10
0.0
 20
0.0
 30
0.0
  3
*D3
  1

  0
LINE
  5
1D9
330
1D6
100
AcDbEntity
  8
0
 62
    95
370
    -2
100
AcDbLine
 10
202.644248
 20
256.231161
 30
0.0
 11
167.346619
 21
256.231161
 31
0.0
  0
LINE
  5
1DA
330
1D6
100
AcDbEntity
  8
0
 62
    95
370
    -2
100
AcDbLine
 10
191.220829
 20
231.231161
 30
0.0
 11
167.346619
 21
231.231161
 31
0.0
  0
LINE
  5
1DB
330
1D6
100
AcDbEntity
  8
0
 62
    95
370
    -2
100
AcDbLine
 10
168.346619
 20
252.731161
 30
0.0
 11
168.346619
 21
234.731161
 31
0.0
  0
SOLID
  5
1DC
330
1D6
100
AcDbEntity
  8
0
 62
    95
100
AcDbTrace
 10
168.929952
 20
252.731161
 30
0.0
 11
167.763286
 21
252.731161
 31
0.0
 12
168.346619
 22
256.231161
 32
0.0
 13
168.346619
 23
256.231161
 33
0.0
  0
SOLID
  5
1DD
330
1D6
100
AcDbEntity
  8
0
 62
    95
100
AcDbTrace
 10
167.763286
 20
234.731161
 30
0.0
 11
168.929952
 21
234.731161
 31
0.0
 12
168.346619
 22
231.231161
 32
0.0
 13
168.346619
 23
231.231161
 33
0.0
  0
MTEXT
  5
1DE
330
1D6
100
AcDbEntity
  8
0
 62
    95
370
    13
100
AcDbMText
 10
163.096619
 20
243.731161
 30
0.0
 40
3.5
 41
0.0
 71
     5
 72
     1
  1
\A1;25
  7
cesky
 11
0.0
 21
1.0
 31
0.0
 73
     1
 44
1.0
  0
POINT
  5
1DF
330
1D6
100
AcDbEntity
  8
Defpoints
 62
     0
100
AcDbPoint
 10
202.644248
 20
256.231161
 30
0.0
  0
POINT
  5
1E0
330
1D6
100
AcDbEntity
  8
Defpoints
 62
     0
100
AcDbPoint
 10
191.220829
 20
231.231161
 30
0.0
  0
POINT
  5
1E1
330
1D6
100
AcDbEntity
  8
Defpoints
 62
     0
100
AcDbPoint
 10
168.346619
 20
231.231161
 30
0.0
  0
ENDBLK
  5
1D8
330
1D6
100
AcDbEntity
  8
0
100
AcDbBlockEnd
  0
BLOCK
  5
1EA
330
1E2
100
AcDbEntity
  8
0
100
AcDbBlockBegin
  2
_U1
 70
     0
 10
0.0
 20
0.0
 30
0.0
  3
_U1
  1

  0
ENDBLK
  5
1EB
330
1E2
100
AcDbEntity
  8
0
100
AcDbBlockEnd
  0
BLOCK
  5
1F0
330
1EF
100
AcDbEntity
  8
0
100
AcDbBlockBegin
  2
*D5
 70
     1
 10
0.0
 20
0.0
 30
0.0
  3
*D5
  1

  0
LINE
  5
1F2
330
1EF
100
AcDbEntity
  8
0
 62
   254
370
    -2
100
AcDbLine
 10
380.144248
 20
258.231161
 30
0.0
 11
380.144248
 21
274.397388
 31
0.0
  0
LINE
  5
1F3
330
1EF
100
AcDbEntity
  8
0
 62
   254
370
    -2
100
AcDbLine
 10
237.144248
 20
242.731588
 30
0.0
 11
237.144248
 21
274.397388
 31
0.0
  0
LINE
  5
1F4
330
1EF
100
AcDbEntity
  8
0
 62
   254
370
    -2
100
AcDbLine
 10
376.644248
 20
273.397388
 30
0.0
 11
240.644248
 21
273.397388
 31
0.0
  0
SOLID
  5
1F5
330
1EF
100
AcDbEntity
  8
0
 62
   254
100
AcDbTrace
 10
376.644248
 20
272.814055
 30
0.0
 11
376.644248
 21
273.980722
 31
0.0
 12
380.144248
 22
273.397388
 32
0.0
 13
380.144248
 23
273.397388
 33
0.0
  0
SOLID
  5
1F6
330
1EF
100
AcDbEntity
  8
0
 62
   254
100
AcDbTrace
 10
240.644248
 20
273.980722
 30
0.0
 11
240.644248
 21
272.814055
 31
0.0
 12
237.144248
 22
273.397388
 32
0.0
 13
237.144248
 23
273.397388
 33
0.0
  0
MTEXT
  5
1F7
330
1EF
100
AcDbEntity
  8
0
 62
   254
370
    13
100
AcDbMText
 10
308.644248
 20
278.647388
 30
0.0
 40
3.5
 41
0.0
 71
     5
 72
     1
  1
\A1;143
  7
cesky
 73
     1
 44
1.0
  0
POINT
  5
1F8
330
1EF
100
AcDbEntity
  8
Defpoints
 62
     0
100
AcDbPoint
 10
380.144248
 20
258.231161
 30
0.0
  0
POINT
  5
1F9
330
1EF
100
AcDbEntity
  8
Defpoints
 62
     0
100
AcDbPoint
 10
237.144248
 20
242.731588
 30
0.0
  0
POINT
  5
1FA
330
1EF
100
AcDbEntity
  8
Defpoints
 62
     0
100
AcDbPoint
 10
237.144248
 20
273.397388
 30
0.0
  0
ENDBLK
  5
1F1
330
1EF
100
AcDbEntity
  8
0
100
AcDbBlockEnd
  0
BLOCK
  5
202
330
1FB
100
AcDbEntity
  8
0
100
AcDbBlockBegin
  2
_U2
 70
     0
 10
0.0
 20
0.0
 30
0.0
  3
_U2
  1

  0
ENDBLK
  5
203
330
1FB
100
AcDbEntity
  8
0
100
AcDbBlockEnd
  0
BLOCK
  5
208
330
207
100
AcDbEntity
  8
0
100
AcDbBlockBegin
  2
*D7
 70
     1
 10
0.0
 20
0.0
 30
0.0
  3
*D7
  1

  0
LINE
  5
20A
330
207
100
AcDbEntity
  8
0
 62
   254
370
    -2
100
AcDbLine
 10
380.144248
 20
254.231161
 30
0.0
 11
380.144248
 21
263.945773
 31
0.0
  0
LINE
  5
20B
330
207
100
AcDbEntity
  8
0
 62
   254
370
    -2
100
AcDbLine
 10
379.029177
 20
255.822294
 30
0.0
 11
379.029177
 21
263.945773
 31
0.0
  0
LINE
  5
20C
330
207
100
AcDbEntity
  8
0
 62
   254
370
    -2
100
AcDbLine
 10
379.029177
 20
262.945773
 30
0.0
 11
364.195844
 21
262.945773
 31
0.0
  0
LINE
  5
20D
330
207
100
AcDbEntity
  8
0
 62
   254
370
    -2
100
AcDbLine
 10
383.644248
 20
262.945773
 30
0.0
 11
387.144248
 21
262.945773
 31
0.0
  0
LINE
  5
20E
330
207
100
AcDbEntity
  8
0
 62
   254
370
    -2
100
AcDbLine
 10
375.529177
 20
262.945773
 30
0.0
 11
372.029177
 21
262.945773
 31
0.0
  0
SOLID
  5
20F
330
207
100
AcDbEntity
  8
0
 62
   254
100
AcDbTrace
 10
383.644248
 20
263.529106
 30
0.0
 11
383.644248
 21
262.362439
 31
0.0
 12
380.144248
 22
262.945773
 32
0.0
 13
380.144248
 23
262.945773
 33
0.0
  0
SOLID
  5
210
330
207
100
AcDbEntity
  8
0
 62
   254
100
AcDbTrace
 10
375.529177
 20
262.362439
 30
0.0
 11
375.529177
 21
263.529106
 31
0.0
 12
379.029177
 22
262.945773
 32
0.0
 13
379.029177
 23
262.945773
 33
0.0
  0
MTEXT
  5
211
330
207
100
AcDbEntity
  8
0
 62
   254
370
    13
100
AcDbMText
 10
368.11251
 20
268.195773
 30
0.0
 40
3.5
 41
0.0
 71
     5
 72
     1
  1
\A1;1
  7
cesky
 73
     1
 44
1.0
  0
POINT
  5
212
330
207
100
AcDbEntity
  8
Defpoints
 62
     0
100
AcDbPoint
 10
380.144248
 20
254.231161
 30
0.0
  0
POINT
  5
213
330
207
100
AcDbEntity
  8
Defpoints
 62
     0
100
AcDbPoint
 10
379.029177
 20
255.822294
 30
0.0
  0
POINT
  5
214
330
207
100
AcDbEntity
  8
Defpoints
 62
     0
100
AcDbPoint
 10
379.029177
 20
262.945773
 30
0.0
  0
ENDBLK
  5
209
330
207
100
AcDbEntity
  8
0
100
AcDbBlockEnd
  0
BLOCK
  5
21C
330
215
100
AcDbEntity
  8
0
100
AcDbBlockBegin
  2
_U3
 70
     0
 10
0.0
 20
0.0
 30
0.0
  3
_U3
  1

  0
ENDBLK
  5
21D
330
215
100
AcDbEntity
  8
0
100
AcDbBlockEnd
  0
BLOCK
  5
222
330
221
100
AcDbEntity
  8
0
100
AcDbBlockBegin
  2
*D9
 70
     1
 10
0.0
 20
0.0
 30
0.0
  3
*D9
  1

  0
LINE
  5
224
330
221
100
AcDbEntity
  8
0
 62
    95
370
    -2
100
AcDbLine
 10
181.144248
 20
243.731161
 30
0.0
 11
181.144248
 21
293.914659
 31
0.0
  0
LINE
  5
225
330
221
100
AcDbEntity
  8
0
 62
    95
370
    -2
100
AcDbLine
 10
380.144248
 20
258.231161
 30
0.0
 11
380.144248
 21
293.914659
 31
0.0
  0
LINE
  5
226
330
221
100
AcDbEntity
  8
0
 62
    95
370
    -2
100
AcDbLine
 10
184.644248
 20
292.914659
 30
0.0
 11
376.644248
 21
292.914659
 31
0.0
  0
SOLID
  5
227
330
221
100
AcDbEntity
  8
0
 62
    95
100
AcDbTrace
 10
184.644248
 20
293.497992
 30
0.0
 11
184.644248
 21
292.331326
 31
0.0
 12
181.144248
 22
292.914659
 32
0.0
 13
181.144248
 23
292.914659
 33
0.0
  0
SOLID
  5
228
330
221
100
AcDbEntity
  8
0
 62
    95
100
AcDbTrace
 10
376.644248
 20
292.331326
 30
0.0
 11
376.644248
 21
293.497992
 31
0.0
 12
380.144248
 22
292.914659
 32
0.0
 13
380.144248
 23
292.914659
 33
0.0
  0
MTEXT
  5
229
330
221
100
AcDbEntity
  8
0
 62
    95
370
    13
100
AcDbMText
 10
280.644248
 20
298.164659
 30
0.0
 40
3.5
 41
0.0
 71
     5
 72
     1
  1
\A1;199
  7
cesky
 73
     1
 44
1.0
  0
POINT
  5
22A
330
221
100
AcDbEntity
  8
Defpoints
 62
     0
100
AcDbPoint
 10
181.144248
 20
243.731161
 30
0.0
  0
POINT
  5
22B
330
221
100
AcDbEntity
  8
Defpoints
 62
     0
100
AcDbPoint
 10
380.144248
 20
258.231161
 30
0.0
  0
POINT
  5
22C
330
221
100
AcDbEntity
  8
Defpoints
 62
     0
100
AcDbPoint
 10
380.144248
 20
292.914659
 30
0.0
  0
ENDBLK
  5
223
330
221
100
AcDbEntity
  8
0
100
AcDbBlockEnd
  0
BLOCK
  5
234
330
22D
100
AcDbEntity
  8
0
100
AcDbBlockBegin
  2
_U4
 70
     0
 10
0.0
 20
0.0
 30
0.0
  3
_U4
  1

  0
ENDBLK
  5
235
330
22D
100
AcDbEntity
  8
0
100
AcDbBlockEnd
  0
BLOCK
  5
23A
330
239
100
AcDbEntity
  8
0
100
AcDbBlockBegin
  2
*D11
 70
     1
 10
0.0
 20
0.0
 30
0.0
  3
*D11
  1

  0
LINE
  5
23C
330
239
100
AcDbEntity
  8
0
 62
    95
370
    -2
100
AcDbLine
 10
237.144248
 20
243.731161
 30
0.0
 11
237.144248
 21
283.923955
 31
0.0
  0
LINE
  5
23D
330
239
100
AcDbEntity
  8
0
 62
    95
370
    -2
100
AcDbLine
 10
380.144248
 20
258.231161
 30
0.0
 11
380.144248
 21
283.923955
 31
0.0
  0
LINE
  5
23E
330
239
100
AcDbEntity
  8
0
 62
    95
370
    -2
100
AcDbLine
 10
240.644248
 20
282.923955
 30
0.0
 11
376.644248
 21
282.923955
 31
0.0
  0
SOLID
  5
23F
330
239
100
AcDbEntity
  8
0
 62
    95
100
AcDbTrace
 10
240.644248
 20
283.507288
 30
0.0
 11
240.644248
 21
282.340622
 31
0.0
 12
237.144248
 22
282.923955
 32
0.0
 13
237.144248
 23
282.923955
 33
0.0
  0
SOLID
  5
240
330
239
100
AcDbEntity
  8
0
 62
    95
100
AcDbTrace
 10
376.644248
 20
282.340622
 30
0.0
 11
376.644248
 21
283.507288
 31
0.0
 12
380.144248
 22
282.923955
 32
0.0
 13
380.144248
 23
282.923955
 33
0.0
  0
MTEXT
  5
241
330
239
100
AcDbEntity
  8
0
 62
    95
370
    13
100
AcDbMText
 10
308.644248
 20
288.173955
 30
0.0
 40
3.5
 41
0.0
 71
     5
 72
     1
  1
\A1;143
  7
cesky
 73
     1
 44
1.0
  0
POINT
  5
242
330
239
100
AcDbEntity
  8
Defpoints
 62
     0
100
AcDbPoint
 10
237.144248
 20
243.731161
 30
0.0
  0
POINT
  5
243
330
239
100
AcDbEntity
  8
Defpoints
 62
     0
100
AcDbPoint
 10
380.144248
 20
258.231161
 30
0.0
  0
POINT
  5
244
330
239
100
AcDbEntity
  8
Defpoints
 62
     0
100
AcDbPoint
 10
380.144248
 20
282.923955
 30
0.0
  0
ENDBLK
  5
23B
330
239
100
AcDbEntity
  8
0
100
AcDbBlockEnd
  0
BLOCK
  5
24C
330
245
100
AcDbEntity
  8
0
100
AcDbBlockBegin
  2
_U5
 70
     0
 10
0.0
 20
0.0
 30
0.0
  3
_U5
  1

  0
ENDBLK
  5
24D
330
245
100
AcDbEntity
  8
0
100
AcDbBlockEnd
  0
ENDSEC
  0
SECTION
  2
ENTITIES
  0
POINT
  5
73
102
{ACAD_REACTORS
330
337
102
}
330
1F
100
AcDbEntity
  8
80
100
AcDbPoint
 10
237.144248
 20
243.731161
 30
0.0
  0
POINT
  5
75
330
1F
100
AcDbEntity
  8
SK6
 60
     1
100
AcDbPoint
 10
238.442414
 20
243.731161
 30
0.0
  0
POINT
  5
77
330
1F
100
AcDbEntity
  8
SK6
 60
     1
100
AcDbPoint
 10
251.911615
 20
243.731161
 30
0.0
  0
POINT
  5
78
330
1F
100
AcDbEntity
  8
SK6
 60
     1
100
AcDbPoint
 10
181.144248
 20
243.731161
 30
0.0
  0
POINT
  5
79
330
1F
100
AcDbEntity
  8
SK6
 60
     1
100
AcDbPoint
 10
237.144248
 20
243.731161
 30
0.0
  0
LINE
  5
7A
330
1F
100
AcDbEntity
  8
SK1
100
AcDbLine
 10
237.144248
 20
231.231161
 30
0.0
 11
237.144248
 21
256.231161
 31
0.0
  0
LINE
  5
7C
330
1F
100
AcDbEntity
  8
SK1
100
AcDbLine
 10
181.144248
 20
233.231161
 30
0.0
 11
181.144248
 21
254.231161
 31
0.0
  0
LINE
  5
7D
330
1F
100
AcDbEntity
  8
1
100
AcDbLine
 10
251.911615
 20
255.042424
 30
0.0
 11
251.911615
 21
232.419899
 31
0.0
  0
LINE
  5
7E
330
1F
100
AcDbEntity
  8
1
100
AcDbLine
 10
238.442414
 20
231.792202
 30
0.0
 11
238.442414
 21
255.670121
 31
0.0
  0
LINE
  5
7F
330
1F
100
AcDbEntity
  8
81
100
AcDbLine
 10
380.144248
 20
254.231161
 30
0.0
 11
380.144248
 21
258.231161
 31
0.0
  0
LINE
  5
80
330
1F
100
AcDbEntity
  8
SK1
100
AcDbLine
 10
205.144248
 20
256.231161
 30
0.0
 11
200.144248
 21
256.231161
 31
0.0
  0
LINE
  5
81
330
1F
100
AcDbEntity
  8
80
100
AcDbLine
 10
237.144248
 20
242.731588
 30
0.0
 11
237.144248
 21
244.730735
 31
0.0
  0
LINE
  5
82
330
1F
100
AcDbEntity
  8
81
100
AcDbLine
 10
378.144248
 20
256.231161
 30
0.0
 11
382.144248
 21
256.231161
 31
0.0
  0
LINE
  5
83
330
1F
100
AcDbEntity
  8
SK1
100
AcDbLine
 10
183.144248
 20
231.231161
 30
0.0
 11
237.144248
 21
231.231161
 31
0.0
  0
LINE
  5
84
330
1F
100
AcDbEntity
  8
1
100
AcDbLine
 10
379.768872
 20
248.035289
 30
0.0
 11
379.681793
 21
248.204999
 31
0.0
  0
LINE
  5
86
330
1F
100
AcDbEntity
  8
1
100
AcDbLine
 10
380.144248
 20
237.893599
 30
0.0
 11
380.125011
 21
237.916179
 31
0.0
  0
LINE
  5
87
330
1F
100
AcDbEntity
  8
1
100
AcDbLine
 10
377.513684
 20
231.281161
 30
0.0
 11
377.549963
 21
231.359097
 31
0.0
  0
LINE
  5
88
330
1F
100
AcDbEntity
  8
1
100
AcDbLine
 10
379.128488
 20
239.721012
 30
0.0
 11
379.342283
 21
239.304993
 31
0.0
  0
LINE
  5
89
330
1F
100
AcDbEntity
  8
1
100
AcDbLine
 10
379.305106
 20
232.273935
 30
0.0
 11
379.095201
 21
232.884297
 31
0.0
  0
LINE
  5
8A
330
1F
100
AcDbEntity
  8
1
100
AcDbLine
 10
379.962453
 20
234.810961
 30
0.0
 11
379.857713
 21
234.975386
 31
0.0
  0
LINE
  5
8B
330
1F
100
AcDbEntity
  8
1
100
AcDbLine
 10
379.129203
 20
239.309468
 30
0.0
 11
379.064229
 21
239.228904
 31
0.0
  0
LINE
  5
8C
330
1F
100
AcDbEntity
  8
1
100
AcDbLine
 10
371.93276
 20
232.230741
 30
0.0
 11
372.703388
 21
233.214301
 31
0.0
  0
LINE
  5
8D
330
1F
100
AcDbEntity
  8
1
100
AcDbLine
 10
374.457353
 20
231.520742
 30
0.0
 11
374.697658
 21
231.95132
 31
0.0
  0
LINE
  5
8E
330
1F
100
AcDbEntity
  8
1
100
AcDbLine
 10
379.080528
 20
233.438008
 30
0.0
 11
379.064229
 21
239.228904
 31
0.0
  0
LINE
  5
8F
330
1F
100
AcDbEntity
  8
1
100
AcDbLine
 10
379.064229
 20
239.228904
 30
0.0
 11
379.0099259999999
 21
239.229743
 31
0.0
  0
LINE
  5
90
330
1F
100
AcDbEntity
  8
1
100
AcDbLine
 10
379.146097
 20
233.307308
 30
0.0
 11
379.080528
 21
233.438008
 31
0.0
  0
LINE
  5
91
330
1F
100
AcDbEntity
  8
1
100
AcDbLine
 10
373.345547
 20
233.526674
 30
0.0
 11
379.080528
 21
233.438008
 31
0.0
  0
LINE
  5
92
330
1F
100
AcDbEntity
  8
1
100
AcDbLine
 10
373.201891
 20
233.399209
 30
0.0
 11
373.345547
 21
233.526674
 31
0.0
  0
LINE
  5
93
330
1F
100
AcDbEntity
  8
1
100
AcDbLine
 10
373.345323
 20
233.606118
 30
0.0
 11
373.345547
 21
233.526674
 31
0.0
  0
LINE
  5
94
330
1F
100
AcDbEntity
  8
1
100
AcDbLine
 10
371.292367
 20
254.937609
 30
0.0
 11
371.356543
 21
254.78155
 31
0.0
  0
LINE
  5
95
330
1F
100
AcDbEntity
  8
1
100
AcDbLine
 10
371.249439
 20
254.651218
 30
0.0
 11
371.087719
 21
254.688576
 31
0.0
  0
LINE
  5
96
330
1F
100
AcDbEntity
  8
1
100
AcDbLine
 10
371.93276
 20
255.231582
 30
0.0
 11
371.989175
 21
255.071881
 31
0.0
  0
LINE
  5
97
330
1F
100
AcDbEntity
  8
1
100
AcDbLine
 10
370.917
 20
253.404169
 30
0.0
 11
371.085032
 21
253.413772
 31
0.0
  0
LINE
  5
98
330
1F
100
AcDbEntity
  8
1
100
AcDbLine
 10
371.098795
 20
250.32153
 30
0.0
 11
371.265501
 21
250.35362
 31
0.0
  0
LINE
  5
99
330
1F
100
AcDbEntity
  8
1
100
AcDbLine
 10
374.457353
 20
255.94158
 30
0.0
 11
374.467681
 21
255.768918
 31
0.0
  0
LINE
  5
9A
330
1F
100
AcDbEntity
  8
1
100
AcDbLine
 10
377.513684
 20
256.181161
 30
0.0
 11
377.501718
 21
256.006752
 31
0.0
  0
LINE
  5
9B
330
1F
100
AcDbEntity
  8
1
100
AcDbLine
 10
378.724294
 20
255.863161
 30
0.0
 11
378.782649
 21
256.032045
 31
0.0
  0
LINE
  5
9C
330
1F
100
AcDbEntity
  8
1
100
AcDbLine
 10
379.025574
 20
255.829866
 30
0.0
 11
378.85143
 21
255.757348
 31
0.0
  0
LINE
  5
9D
330
1F
100
AcDbEntity
  8
1
100
AcDbLine
 10
379.305106
 20
255.188388
 30
0.0
 11
379.127487
 21
255.123642
 31
0.0
  0
LINE
  5
9E
330
1F
100
AcDbEntity
  8
1
100
AcDbLine
 10
379.962453
 20
252.651361
 30
0.0
 11
379.772835
 21
252.632929
 31
0.0
  0
LINE
  5
9F
330
1F
100
AcDbEntity
  8
1
100
AcDbLine
 10
379.128488
 20
247.74131
 30
0.0
 11
379.049161
 21
247.914669
 31
0.0
  0
LINE
  5
A0
330
1F
100
AcDbEntity
  8
1
100
AcDbLine
 10
380.144248
 20
249.568723
 30
0.0
 11
379.953304
 21
249.572777
 31
0.0
  0
LINE
  5
A1
330
1F
100
AcDbEntity
  8
1
100
AcDbLine
 10
379.788897
 20
248.335332
 30
0.0
 11
379.973519
 21
248.284322
 31
0.0
  0
LINE
  5
A2
330
1F
100
AcDbEntity
  8
1
100
AcDbLine
 10
374.515239
 20
252.084221
 30
0.0
 11
374.766179
 21
251.934642
 31
0.0
  0
LINE
  5
A4
330
1F
100
AcDbEntity
  8
1
100
AcDbLine
 10
374.566247
 20
251.375349
 30
0.0
 11
374.313556
 21
251.525972
 31
0.0
  0
LINE
  5
A5
330
1F
100
AcDbEntity
  8
1
100
AcDbLine
 10
375.714091
 20
252.353273
 30
0.0
 11
375.973752
 21
252.198495
 31
0.0
  0
LINE
  5
A6
330
1F
100
AcDbEntity
  8
1
100
AcDbLine
 10
375.351427
 20
250.292448
 30
0.0
 11
375.091766
 21
250.447225
 31
0.0
  0
LINE
  5
A7
330
1F
100
AcDbEntity
  8
1
100
AcDbLine
 10
376.492301
 20
251.274526
 30
0.0
 11
376.605065
 21
251.207311
 31
0.0
  0
LINE
  5
A8
330
1F
100
AcDbEntity
  8
1
100
AcDbLine
 10
376.323809
 20
250.696493
 30
0.0
 11
376.290618
 21
250.716277
 31
0.0
  0
LINE
  5
A9
330
1F
100
AcDbEntity
  8
1
100
AcDbLine
 10
376.668158
 20
253.090846
 30
0.0
 11
376.5096450000001
 21
253.185332
 31
0.0
  0
LINE
  5
AA
330
1F
100
AcDbEntity
  8
1
100
AcDbLine
 10
374.359182
 20
249.577631
 30
0.0
 11
374.517695
 21
249.483145
 31
0.0
  0
LINE
  5
AB
330
1F
100
AcDbEntity
  8
1
100
AcDbLine
 10
252.377134
 20
232.43074
 30
0.0
 11
357.950258
 21
232.43074
 31
0.0
  0
LINE
  5
AC
330
1F
100
AcDbEntity
  8
1
100
AcDbLine
 10
357.950258
 20
255.031582
 30
0.0
 11
252.377134
 21
255.031582
 31
0.0
  0
LINE
  5
AD
330
1F
100
AcDbEntity
  8
1
100
AcDbLine
 10
251.911615
 20
255.042424
 30
0.0
 11
238.442414
 21
255.670121
 31
0.0
  0
LINE
  5
AE
330
1F
100
AcDbEntity
  8
1
100
AcDbLine
 10
238.442414
 20
231.792202
 30
0.0
 11
251.911615
 21
232.419899
 31
0.0
  0
LINE
  5
AF
330
1F
100
AcDbEntity
  8
SK1
100
AcDbLine
 10
237.144248
 20
256.231161
 30
0.0
 11
221.144248
 21
256.231161
 31
0.0
  0
LINE
  5
B0
330
1F
100
AcDbEntity
  8
SK1
100
AcDbLine
 10
181.144248
 20
233.231161
 30
0.0
 11
183.144248
 21
231.231161
 31
0.0
  0
LINE
  5
B1
330
1F
100
AcDbEntity
  8
1
100
AcDbLine
 10
374.381182
 20
252.085334
 30
0.0
 11
374.625091
 21
251.939945
 31
0.0
  0
LINE
  5
B2
330
1F
100
AcDbEntity
  8
1
100
AcDbLine
 10
374.191444
 20
251.629772
 30
0.0
 11
374.435354
 21
251.484383
 31
0.0
  0
LINE
  5
B3
330
1F
100
AcDbEntity
  8
1
100
AcDbLine
 10
374.976041
 20
252.457409
 30
0.0
 11
375.22627
 21
252.308254
 31
0.0
  0
LINE
  5
B4
330
1F
100
AcDbEntity
  8
1
100
AcDbLine
 10
374.58462
 20
252.072733
 30
0.0
 11
374.839529
 21
251.920788
 31
0.0
  0
LINE
  5
B5
330
1F
100
AcDbEntity
  8
1
100
AcDbLine
 10
374.972809
 20
252.375576
 30
0.0
 11
375.227718
 21
252.223631
 31
0.0
  0
LINE
  5
B6
330
1F
100
AcDbEntity
  8
1
100
AcDbLine
 10
374.344561
 20
251.496347
 30
0.0
 11
374.59947
 21
251.344402
 31
0.0
  0
LINE
  5
B7
330
1F
100
AcDbEntity
  8
1
100
AcDbLine
 10
374.3481720000001
 20
250.949888
 30
0.0
 11
374.598401
 21
250.800733
 31
0.0
  0
LINE
  5
B8
330
1F
100
AcDbEntity
  8
1
100
AcDbLine
 10
374.404114
 20
251.010134
 30
0.0
 11
374.659023
 21
250.858189
 31
0.0
  0
LINE
  5
B9
330
1F
100
AcDbEntity
  8
1
100
AcDbLine
 10
375.013097
 20
252.578319
 30
0.0
 11
375.257006
 21
252.43293
 31
0.0
  0
LINE
  5
BA
330
1F
100
AcDbEntity
  8
1
100
AcDbLine
 10
375.495722
 20
252.647296
 30
0.0
 11
375.530665
 21
252.626467
 31
0.0
  0
LINE
  5
BB
330
1F
100
AcDbEntity
  8
1
100
AcDbLine
 10
374.288389
 20
250.838286
 30
0.0
 11
374.532298
 21
250.692898
 31
0.0
  0
LINE
  5
BC
330
1F
100
AcDbEntity
  8
1
100
AcDbLine
 10
376.031177
 20
252.279478
 30
0.0
 11
376.286086
 21
252.127532
 31
0.0
  0
LINE
  5
BD
330
1F
100
AcDbEntity
  8
1
100
AcDbLine
 10
376.102931
 20
252.318853
 30
0.0
 11
376.353159
 21
252.169698
 31
0.0
  0
LINE
  5
BE
330
1F
100
AcDbEntity
  8
1
100
AcDbLine
 10
375.222423
 20
250.33765
 30
0.0
 11
375.477332
 21
250.185705
 31
0.0
  0
LINE
  5
BF
330
1F
100
AcDbEntity
  8
1
100
AcDbLine
 10
375.245246
 20
250.259541
 30
0.0
 11
375.470299
 21
250.125392
 31
0.0
  0
LINE
  5
C0
330
1F
100
AcDbEntity
  8
1
100
AcDbLine
 10
376.224581
 20
252.348796
 30
0.0
 11
376.301489
 21
252.302953
 31
0.0
  0
LINE
  5
C1
330
1F
100
AcDbEntity
  8
1
100
AcDbLine
 10
376.529818
 20
251.261693
 30
0.0
 11
376.596473
 21
251.221962
 31
0.0
  0
LINE
  5
C2
330
1F
100
AcDbEntity
  8
1
100
AcDbLine
 10
376.300002
 20
250.709902
 30
0.0
 11
376.319457
 21
250.698305
 31
0.0
  0
LINE
  5
C3
330
1F
100
AcDbEntity
  8
1
100
AcDbLine
 10
373.69636
 20
249.32827
 30
0.0
 11
373.69636
 21
233.588929
 31
0.0
  0
LINE
  5
C4
330
1F
100
AcDbEntity
  8
1
100
AcDbLine
 10
373.131786
 20
233.614373
 30
0.0
 11
373.131786
 21
249.348116
 31
0.0
  0
LINE
  5
C5
330
1F
100
AcDbEntity
  8
1
100
AcDbLine
 10
252.377134
 20
232.43074
 30
0.0
 11
252.377134
 21
255.031582
 31
0.0
  0
LINE
  5
C6
330
1F
100
AcDbEntity
  8
SK1
100
AcDbLine
 10
219.144248
 20
254.231161
 30
0.0
 11
207.144248
 21
254.231161
 31
0.0
  0
LINE
  5
C7
330
1F
100
AcDbEntity
  8
SK1
100
AcDbLine
 10
207.144248
 20
254.231161
 30
0.0
 11
205.144248
 21
256.231161
 31
0.0
  0
LINE
  5
C8
330
1F
100
AcDbEntity
  8
SK1
100
AcDbLine
 10
219.144248
 20
254.231161
 30
0.0
 11
221.144248
 21
256.231161
 31
0.0
  0
LINE
  5
C9
330
1F
100
AcDbEntity
  8
SK1
100
AcDbLine
 10
200.144248
 20
256.231161
 30
0.0
 11
198.144248
 21
254.231161
 31
0.0
  0
LINE
  5
CA
330
1F
100
AcDbEntity
  8
SK1
100
AcDbLine
 10
198.144248
 20
254.231161
 30
0.0
 11
183.144248
 21
254.231161
 31
0.0
  0
LINE
  5
CB
330
1F
100
AcDbEntity
  8
1
100
AcDbLine
 10
378.538185
 20
233.512871
 30
0.0
 11
378.538185
 21
249.119419
 31
0.0
  0
LINE
  5
CC
330
1F
100
AcDbEntity
  8
SK1
100
AcDbLine
 10
183.144248
 20
231.231161
 30
0.0
 11
183.144248
 21
254.231161
 31
0.0
  0
LINE
  5
CD
330
1F
100
AcDbEntity
  8
1
100
AcDbLine
 10
378.088975
 20
235.249298
 30
0.0
 11
378.082564
 21
236.757991
 31
0.0
  0
LINE
  5
CE
330
1F
100
AcDbEntity
  8
1
100
AcDbLine
 10
378.082564
 20
236.757991
 30
0.0
 11
378.396014
 21
236.944831
 31
0.0
  0
LINE
  5
CF
330
1F
100
AcDbEntity
  8
1
100
AcDbLine
 10
379.009954
 20
248.965817
 30
0.0
 11
379.009954
 21
233.99869
 31
0.0
  0
LINE
  5
D0
330
1F
100
AcDbEntity
  8
80
100
AcDbLine
 10
236.144675
 20
243.731161
 30
0.0
 11
238.143822
 21
243.731161
 31
0.0
  0
LINE
  5
D1
330
1F
100
AcDbEntity
  8
NOCUT
100
AcDbLine
 10
356.876299
 20
243.731161
 30
0.0
 11
377.495477
 21
243.731161
 31
0.0
  0
LINE
  5
D3
330
1F
100
AcDbEntity
  8
NOCUT
100
AcDbLine
 10
356.876299
 20
243.731161
 30
0.0
 11
355.144248
 21
246.731161
 31
0.0
  0
LINE
  5
D4
330
1F
100
AcDbEntity
  8
NOCUT
100
AcDbLine
 10
379.009954
 20
254.241128
 30
0.0
 11
378.997085
 21
249.976796
 31
0.0
  0
LINE
  5
D5
330
1F
100
AcDbEntity
  8
NOCUT
100
AcDbLine
 10
183.144248
 20
246.731161
 30
0.0
 11
181.144248
 21
247.885862
 31
0.0
  0
LINE
  5
D6
330
1F
100
AcDbEntity
  8
NOCUT
100
AcDbLine
 10
181.144248
 20
247.885862
 30
0.0
 11
181.144248
 21
254.231161
 31
0.0
  0
LINE
  5
D7
330
1F
100
AcDbEntity
  8
NOCUT
100
AcDbLine
 10
181.144248
 20
254.231161
 30
0.0
 11
198.144248
 21
254.231161
 31
0.0
  0
LINE
  5
D8
330
1F
100
AcDbEntity
  8
NOCUT
100
AcDbLine
 10
198.144248
 20
254.231161
 30
0.0
 11
200.144248
 21
256.231161
 31
0.0
  0
LINE
  5
D9
330
1F
100
AcDbEntity
  8
NOCUT
100
AcDbLine
 10
200.144248
 20
256.231161
 30
0.0
 11
205.144248
 21
256.231161
 31
0.0
  0
LINE
  5
DA
330
1F
100
AcDbEntity
  8
NOCUT
100
AcDbLine
 10
205.144248
 20
256.231161
 30
0.0
 11
207.144248
 21
254.231161
 31
0.0
  0
LINE
  5
DB
330
1F
100
AcDbEntity
  8
NOCUT
100
AcDbLine
 10
207.144248
 20
254.231161
 30
0.0
 11
219.144248
 21
254.231161
 31
0.0
  0
LINE
  5
DC
330
1F
100
AcDbEntity
  8
NOCUT
100
AcDbLine
 10
219.144248
 20
254.231161
 30
0.0
 11
221.144248
 21
256.231161
 31
0.0
  0
LINE
  5
DD
330
1F
100
AcDbEntity
  8
NOCUT
100
AcDbLine
 10
221.144248
 20
256.231161
 30
0.0
 11
237.144248
 21
256.231161
 31
0.0
  0
LINE
  5
DE
330
1F
100
AcDbEntity
  8
NOCUT
100
AcDbLine
 10
238.442414
 20
255.670121
 30
0.0
 11
251.911615
 21
255.042424
 31
0.0
  0
LINE
  5
DF
330
1F
100
AcDbEntity
  8
NOCUT
100
AcDbLine
 10
252.377134
 20
255.031582
 30
0.0
 11
373.131786
 21
255.031582
 31
0.0
  0
LINE
  5
E0
330
1F
100
AcDbEntity
  8
NOCUT
100
AcDbLine
 10
373.69636
 20
255.015632
 30
0.0
 11
378.538185
 21
254.741839
 31
0.0
  0
LINE
  5
E1
330
1F
100
AcDbEntity
  8
NOCUT
100
AcDbLine
 10
378.729145
 20
248.982831
 30
0.0
 11
377.763426
 21
247.310158
 31
0.0
  0
LINE
  5
E2
330
1F
100
AcDbEntity
  8
NOCUT
100
AcDbLine
 10
377.495477
 20
246.310158
 30
0.0
 11
377.495477
 21
243.731161
 31
0.0
  0
LINE
  5
E3
330
1F
100
AcDbEntity
  8
NOCUT
100
AcDbLine
 10
355.144248
 20
246.731161
 30
0.0
 11
183.144248
 21
246.731161
 31
0.0
  0
LINE
  5
E4
102
{ACAD_REACTORS
330
24E
102
}
330
1F
100
AcDbEntity
  8
SK4
100
AcDbLine
 10
179.144248
 20
243.731161
 30
0.0
 11
240.644248
 21
243.731161
 31
0.0
  0
ARC
  5
E5
330
1F
100
AcDbEntity
  8
1
100
AcDbCircle
 10
252.377134
 20
222.43074
 30
0.0
 40
10.0
100
AcDbArc
 50
90.0
 51
92.668192
  0
ARC
  5
E6
330
1F
100
AcDbEntity
  8
1
100
AcDbCircle
 10
252.377134
 20
265.0315819999999
 30
0.0
 40
10.0
100
AcDbArc
 50
267.331808
 51
270.0
  0
ARC
  5
E7
330
1F
100
AcDbEntity
  8
1
100
AcDbCircle
 10
238.535518
 20
229.79437
 30
0.0
 40
2.0
100
AcDbArc
 50
92.668192
 51
134.077814
  0
ARC
  5
E8
330
1F
100
AcDbEntity
  8
1
100
AcDbCircle
 10
238.535518
 20
257.6679529999999
 30
0.0
 40
2.0
100
AcDbArc
 50
225.922186
 51
267.331808
  0
ARC
  5
E9
330
1F
100
AcDbEntity
  8
NOCUT
100
AcDbCircle
 10
252.377134
 20
265.0315819999999
 30
0.0
 40
10.0
100
AcDbArc
 50
267.331808
 51
270.0
  0
ARC
  5
EA
330
1F
100
AcDbEntity
  8
NOCUT
100
AcDbCircle
 10
379.495477
 20
246.310158
 30
0.0
 40
2.0
100
AcDbArc
 50
150.0
 51
180.0
  0
ARC
  5
EB
330
1F
100
AcDbEntity
  8
NOCUT
100
AcDbCircle
 10
238.535518
 20
257.6679529999999
 30
0.0
 40
2.0
100
AcDbArc
 50
225.922186
 51
267.331808
  0
ARC
  5
EC
330
1F
100
AcDbEntity
  8
NOCUT
100
AcDbCircle
 10
373.131786
 20
245.031582
 30
0.0
 40
10.0
100
AcDbArc
 50
86.76351099999999
 51
90.0
  0
ARC
  5
ED
330
1F
100
AcDbEntity
  8
NOCUT
100
AcDbCircle
 10
378.509957
 20
254.242636
 30
0.0
 40
0.5
100
AcDbArc
 50
359.827084
 51
86.76351099999999
  0
ARC
  5
EE
330
1F
100
AcDbEntity
  8
NOCUT
100
AcDbCircle
 10
376.997094
 20
249.982831
 30
0.0
 40
2.0
100
AcDbArc
 50
330.0
 51
359.827084
  0
ELLIPSE
  5
EF
330
1F
100
AcDbEntity
  8
1
100
AcDbEllipse
 10
365.643752
 20
249.303733
 30
0.0
 11
7.671126142716485
 21
12.86938159970284
 31
0.0
210
0.0
220
0.0
230
0.9999999999999998
 40
0.9795739999999998
 41
5.646817303785446
 42
5.693603778452901
  0
ELLIPSE
  5
F0
330
1F
100
AcDbEntity
  8
1
100
AcDbEllipse
 10
379.598754
 20
248.383846
 30
0.0
 11
0.1024030082552124
 21
0.171795296502212
 31
0.0
210
0.0
220
0.0
230
1.0
 40
0.9795739999999998
 41
4.123374866377521
 42
4.994533208471688
  0
ELLIPSE
  5
F1
330
1F
100
AcDbEntity
  8
1
100
AcDbEllipse
 10
375.824325
 20
253.480039
 30
0.0
 11
2.550975729955864
 21
4.279616774592236
 31
0.0
210
0.0
220
0.0
230
0.9999999999999998
 40
0.979574
 41
1.854744943951024
 42
2.114603879486288
  0
ELLIPSE
  5
F2
330
1F
100
AcDbEntity
  8
1
100
AcDbEllipse
 10
377.499737
 20
251.225991
 30
0.0
 11
2.550975729955864
 21
4.279616774592236
 31
0.0
210
0.0
220
0.0
230
0.9999999999999998
 40
0.979574
 41
0.2839486171565846
 42
0.5438075526913956
  0
ELLIPSE
  5
F3
330
1F
100
AcDbEntity
  8
1
100
AcDbEllipse
 10
370.2029379999999
 20
251.267611
 30
0.0
 11
5.111050936336175
 21
8.574499187147536
 31
0.0
210
0.0
220
0.0
230
0.9999999999999998
 40
0.979574
 41
5.380703519018649
 42
5.646817303785446
  0
ELLIPSE
  5
F4
330
1F
100
AcDbEntity
  8
1
100
AcDbEllipse
 10
355.537602
 20
249.188291
 30
0.0
 11
12.7912765554771
 21
21.45914642481343
 31
0.0
210
0.0
220
0.0
230
0.9999999999999996
 40
0.9795739999999998
 41
5.256196533076084
 42
5.380703519018632
  0
ELLIPSE
  5
F5
330
1F
100
AcDbEntity
  8
1
100
AcDbEllipse
 10
375.236923
 20
237.969469
 30
0.0
 11
-2.550975729955819
 21
4.279616774592259
 31
0.0
210
0.0
220
0.0
230
1.0
 40
0.9795739999999998
 41
4.168581427693306
 42
4.428440363227214
  0
ELLIPSE
  5
F6
330
1F
100
AcDbEntity
  8
1
100
AcDbEllipse
 10
355.537602
 20
238.274032
 30
0.0
 11
-12.79127655547688
 21
21.45914642481356
 31
0.0
210
0.0
220
0.0
230
1.0
 40
0.9795739999999998
 41
4.044074441750754
 42
4.168581427693306
  0
ELLIPSE
  5
F7
330
1F
100
AcDbEntity
  8
1
100
AcDbEllipse
 10
377.499737
 20
236.236332
 30
0.0
 11
-2.550975729955819
 21
4.279616774592259
 31
0.0
210
0.0
220
0.0
230
1.0
 40
0.9795739999999998
 41
2.597785100898406
 42
2.857644036433216
  0
ELLIPSE
  5
F8
330
1F
100
AcDbEntity
  8
1
100
AcDbEllipse
 10
377.44375
 20
256.127716
 30
0.0
 11
-12.79127655547688
 21
21.45914642481356
 31
0.0
210
0.0
220
0.0
230
1.0
 40
0.9795739999999998
 41
2.473278114955861
 42
2.597785100898409
  0
ELLIPSE
  5
F9
330
1F
100
AcDbEntity
  8
1
100
AcDbEllipse
 10
373.548363
 20
226.02946
 30
0.0
 11
-7.671126142716353
 21
12.86938159970291
 31
0.0
210
0.0
220
0.0
230
1.0
 40
0.9795739999999998
 41
5.301970509111042
 42
5.34875698377884
  0
ELLIPSE
  5
FA
330
1F
100
AcDbEntity
  8
1
100
AcDbEllipse
 10
365.643752
 20
238.15859
 30
0.0
 11
-7.671126142716353
 21
12.86938159970291
 31
0.0
210
0.0
220
0.0
230
1.0
 40
0.9795739999999998
 41
3.731174182316487
 42
3.777960656983943
  0
ELLIPSE
  5
FB
330
1F
100
AcDbEntity
  8
1
100
AcDbEllipse
 10
375.4106109999999
 20
230.598725
 30
0.0
 11
-5.111050936336087
 21
8.574499187147587
 31
0.0
210
0.0
220
0.0
230
1.0
 40
0.979574
 41
5.348756983778842
 42
5.36174662690423
  0
ELLIPSE
  5
FC
330
1F
100
AcDbEntity
  8
1
100
AcDbEllipse
 10
370.2029379999999
 20
236.194711
 30
0.0
 11
-5.111050936336087
 21
8.574499187147587
 31
0.0
210
0.0
220
0.0
230
1.0
 40
0.979574
 41
3.777960656983943
 42
4.044074441750741
  0
ELLIPSE
  5
FD
330
1F
100
AcDbEntity
  8
1
100
AcDbEllipse
 10
376.149804
 20
237.5922
 30
0.0
 11
-1.900481359198795
 21
5.112283685041214
 31
0.0
210
0.0
220
0.0
230
0.9999999999999998
 40
0.6465350000000001
 41
3.52387571963708
 42
3.955576201304225
  0
ELLIPSE
  5
FE
330
1F
100
AcDbEntity
  8
1
100
AcDbEllipse
 10
370.396801
 20
241.652314
 30
0.0
 11
-4.849171015488606
 21
13.04424152872596
 31
0.0
210
0.0
220
0.0
230
1.0
 40
0.6465350000000002
 41
3.955576201318229
 42
4.194293898500009
  0
ELLIPSE
  5
FF
330
1F
100
AcDbEntity
  8
1
100
AcDbEllipse
 10
378.202566
 20
238.654497
 30
0.0
 11
-0.9582710987075607
 21
2.57774362253518
 31
0.0
210
0.0
220
0.0
230
0.9999999999999998
 40
0.6465350000000001
 41
4.194293898433215
 42
4.640932478337752
  0
ELLIPSE
  5
100
330
1F
100
AcDbEntity
  8
1
100
AcDbEllipse
 10
381.904111
 20
225.279213
 30
0.0
 11
-5.072189659191236
 21
13.64416005813023
 31
0.0
210
0.0
220
0.0
230
1.0
 40
0.6465350000000001
 41
5.984057384872357
 42
6.015860222122343
  0
ELLIPSE
  5
101
330
1F
100
AcDbEntity
  8
1
100
AcDbEllipse
 10
381.00185
 20
230.219013
 30
0.0
 11
-3.285793270365281
 21
8.838763980828458
 31
0.0
210
0.0
220
0.0
230
1.0
 40
0.6465350000000001
 41
6.015860205014282
 42
6.049413506944736
  0
ELLIPSE
  5
102
330
1F
100
AcDbEntity
  8
1
100
AcDbEllipse
 10
377.512885
 20
245.922293
 30
0.0
 11
-7.671126142716353
 21
12.86938159970291
 31
0.0
210
0.0
220
0.0
230
1.0
 40
0.9795739999999998
 41
2.16037785552162
 42
2.207164330189046
  0
ELLIPSE
  5
103
330
1F
100
AcDbEntity
  8
1
100
AcDbEllipse
 10
377.836186
 20
235.596045
 30
0.0
 11
-5.027101633931565
 21
3.675542247662588
 31
0.0
210
0.0
220
0.0
230
0.9999999999999998
 40
0.6144350000000001
 41
4.897783135500283
 42
4.919988796680907
  0
ELLIPSE
  5
104
330
1F
100
AcDbEntity
  8
1
100
AcDbEllipse
 10
375.650637
 20
241.353029
 30
0.0
 11
-5.111050936336087
 21
8.574499187147587
 31
0.0
210
0.0
220
0.0
230
1.0
 40
0.979574
 41
2.207164330189043
 42
2.473278114955845
  0
ELLIPSE
  5
105
330
1F
100
AcDbEntity
  8
1
100
AcDbEllipse
 10
364.654796
 20
228.090529
 30
0.0
 11
-9.36392453969424
 21
-19.37010602601489
 31
0.0
210
0.0
220
0.0
230
0.9999999999999998
 40
0.582986
 41
2.05421227294799
 42
2.086015098622758
  0
ELLIPSE
  5
106
330
1F
100
AcDbEntity
  8
1
100
AcDbEllipse
 10
369.740627
 20
229.778867
 30
0.0
 11
-6.066001530712608
 21
-12.54806352790988
 31
0.0
210
0.0
220
0.0
230
1.0
 40
0.582986
 41
2.086015002750918
 42
2.119568295844421
  0
ELLIPSE
  5
107
330
1F
100
AcDbEntity
  8
1
100
AcDbEllipse
 10
378.096172
 20
239.259259
 30
0.0
 11
-3.508533359028714
 21
-7.25771638839245
 31
0.0
210
0.0
220
0.0
230
1.0
 40
0.582986
 41
5.877215599139157
 42
6.308916080792065
  0
ELLIPSE
  5
108
330
1F
100
AcDbEntity
  8
1
100
AcDbEllipse
 10
383.369131
 20
250.597883
 30
0.0
 11
-8.952194238058289
 21
-18.51841786463246
 31
0.0
210
0.0
220
0.0
230
1.0
 40
0.582986
 41
0.0257307736089832
 42
0.2644484707732606
  0
ELLIPSE
  5
109
330
1F
100
AcDbEntity
  8
1
100
AcDbEllipse
 10
378.69992
 20
235.160978
 30
0.0
 11
-1.769091867295318
 21
-3.659525426741823
 31
0.0
210
0.0
220
0.0
230
1.0
 40
0.582986
 41
0.2644484707787066
 42
0.711087050675009
  0
ELLIPSE
  5
10A
330
1F
100
AcDbEntity
  8
1
100
AcDbEllipse
 10
369.100277
 20
241.161032
 30
0.0
 11
-14.40863676901767
 21
-3.333405836672906
 31
0.0
210
0.0
220
0.0
230
1.0
 40
0.580574
 41
1.691615086615725
 42
1.723294619434963
  0
ELLIPSE
  5
10B
330
1F
100
AcDbEntity
  8
1
100
AcDbEllipse
 10
365.207521
 20
243.731161
 30
0.0
 11
-66.71621790136893
 21
3.226900975064832
 31
0.0
210
0.0
220
0.0
230
0.9999999999999998
 40
0.162328
 41
1.50413798244292
 42
1.668050011909683
  0
ELLIPSE
  5
10C
330
1F
100
AcDbEntity
  8
1
100
AcDbEllipse
 10
370.559457
 20
243.731161
 30
0.0
 11
-1.451539500351981
 21
-11.25656777980253
 31
0.0
210
0.0
220
0.0
230
1.0
 40
0.685192
 41
0.2838330100810545
 42
0.4688504987649388
  0
ELLIPSE
  5
10D
330
1F
100
AcDbEntity
  8
1
100
AcDbEllipse
 10
372.162329
 20
243.73116
 30
0.0
 11
-0.1631691565552449
 21
-11.30038324784812
 31
0.0
210
0.0
220
0.0
230
1.0
 40
0.17482
 41
0.383247852407234
 42
0.441035731113523
  0
ELLIPSE
  5
10E
330
1F
100
AcDbEntity
  8
1
100
AcDbEllipse
 10
374.38509
 20
250.858464
 30
0.0
 11
0.0511532244653652
 21
0.0858166523992161
 31
0.0
210
0.0
220
0.0
230
0.9999999999999998
 40
0.9795739999999998
 41
0.9312235393380506
 42
2.303757467347041
  0
ELLIPSE
  5
10F
330
1F
100
AcDbEntity
  8
1
100
AcDbEllipse
 10
374.311255
 20
251.041312
 30
0.0
 11
0.0511532244653652
 21
0.0858166523992161
 31
0.0
210
0.0
220
0.0
230
0.9999999999999998
 40
0.9795739999999998
 41
4.072816192927441
 42
4.921751345338263
  0
ELLIPSE
  5
110
330
1F
100
AcDbEntity
  8
1
100
AcDbEllipse
 10
373.887355
 20
251.18364
 30
0.0
 11
0.2846651922511127
 21
0.477565473318503
 31
0.0
210
0.0
220
0.0
230
1.0
 40
0.9795739999999998
 41
4.921751345338496
 42
5.841874918508326
  0
ELLIPSE
  5
111
330
1F
100
AcDbEntity
  8
1
100
AcDbEllipse
 10
374.262403
 20
251.440155
 30
0.0
 11
0.0511532244653652
 21
0.0858166523992161
 31
0.0
210
0.0
220
0.0
230
1.0
 40
0.9795739999999998
 41
5.841874918508378
 42
6.690810070919098
  0
ELLIPSE
  5
112
330
1F
100
AcDbEntity
  8
1
100
AcDbEllipse
 10
374.289676
 20
251.637455
 30
0.0
 11
0.0511532244653653
 21
0.0858166523992161
 31
0.0
210
0.0
220
0.0
230
0.9999999999999996
 40
0.979574
 41
2.176683489320041
 42
3.549217417329227
  0
ELLIPSE
  5
113
330
1F
100
AcDbEntity
  8
1
100
AcDbEllipse
 10
374.738098
 20
251.672527
 30
0.0
 11
0.2846651922511128
 21
0.4775654733185031
 31
0.0
210
0.0
220
0.0
230
0.9999999999999998
 40
0.9795739999999998
 41
1.256559916150392
 42
2.176683489320188
  0
ELLIPSE
  5
114
330
1F
100
AcDbEntity
  8
1
100
AcDbEllipse
 10
374.4453180000001
 20
252.011154
 30
0.0
 11
0.0511532244653652
 21
0.0858166523992161
 31
0.0
210
0.0
220
0.0
230
0.9999999999999998
 40
0.9795739999999998
 41
6.167211295321013
 42
7.539745223330092
  0
ELLIPSE
  5
115
330
1F
100
AcDbEntity
  8
1
100
AcDbEllipse
 10
374.566392
 20
252.170038
 30
0.0
 11
0.0511532244653652
 21
0.0858166523992161
 31
0.0
210
0.0
220
0.0
230
0.9999999999999998
 40
0.9795739999999998
 41
3.025618641731076
 42
3.874553794142039
  0
ELLIPSE
  5
116
330
1F
100
AcDbEntity
  8
1
100
AcDbEllipse
 10
374.483183
 20
252.614229
 30
0.0
 11
0.2846651922511127
 21
0.477565473318503
 31
0.0
210
0.0
220
0.0
230
1.0
 40
0.9795739999999998
 41
3.874553794141901
 42
4.794677367311696
  0
ELLIPSE
  5
117
330
1F
100
AcDbEntity
  8
1
100
AcDbEllipse
 10
374.884825
 20
252.418461
 30
0.0
 11
0.0511532244653652
 21
0.0858166523992161
 31
0.0
210
0.0
220
0.0
230
1.0
 40
0.9795739999999998
 41
4.794677367311521
 42
5.643612519722524
  0
ELLIPSE
  5
118
330
1F
100
AcDbEntity
  8
1
100
AcDbEllipse
 10
375.067258
 20
252.496357
 30
0.0
 11
0.0511532244653653
 21
0.0858166523992161
 31
0.0
210
0.0
220
0.0
230
0.9999999999999996
 40
0.979574
 41
1.129485938123574
 42
2.502019866132785
  0
ELLIPSE
  5
119
330
1F
100
AcDbEntity
  8
1
100
AcDbEllipse
 10
375.3145
 20
252.122204
 30
0.0
 11
0.2846651922511128
 21
0.4775654733185031
 31
0.0
210
0.0
220
0.0
230
0.9999999999999998
 40
0.9795739999999998
 41
0.2093623649537462
 42
1.129485938123647
  0
ELLIPSE
  5
11A
330
1F
100
AcDbEntity
  8
1
100
AcDbEllipse
 10
375.463157
 20
252.552939
 30
0.0
 11
0.0511532244653652
 21
0.0858166523992161
 31
0.0
210
0.0
220
0.0
230
0.9999999999999998
 40
0.9795739999999998
 41
5.120013744124129
 42
6.492547672133018
  0
ELLIPSE
  5
11B
330
1F
100
AcDbEntity
  8
1
100
AcDbEllipse
 10
375.658066
 20
252.528974
 30
0.0
 11
0.0511532244653652
 21
0.0858166523992161
 31
0.0
210
0.0
220
0.0
230
0.9999999999999998
 40
0.9795739999999998
 41
1.978421090534467
 42
2.827356242945411
  0
ELLIPSE
  5
11C
330
1F
100
AcDbEntity
  8
1
100
AcDbEllipse
 10
375.998756
 20
252.830838
 30
0.0
 11
0.2846651922511127
 21
0.477565473318503
 31
0.0
210
0.0
220
0.0
230
1.0
 40
0.9795739999999998
 41
2.82735624294527
 42
3.747479816115127
  0
ELLIPSE
  5
11D
330
1F
100
AcDbEntity
  8
1
100
AcDbEllipse
 10
375.402929
 20
251.400249
 30
0.0
 11
-0.8448248181054468
 21
-1.41731119614328
 31
0.0
210
0.0
220
0.0
230
1.0
 40
0.979574
 41
0.0
 42
6.283185307179585
  0
ELLIPSE
  5
11E
330
1F
100
AcDbEntity
  8
1
100
AcDbEllipse
 10
375.434414
 20
251.381481
 30
0.0
 11
-1.07523158667966
 21
-1.803850613273266
 31
0.0
210
0.0
220
0.0
230
0.9999999999999998
 40
0.9795739999999998
 41
0.0
 42
6.283185307179585
  0
ELLIPSE
  5
11F
330
1F
100
AcDbEntity
  8
1
100
AcDbEllipse
 10
377.512885
 20
241.54003
 30
0.0
 11
7.671126142716485
 21
12.86938159970284
 31
0.0
210
0.0
220
0.0
230
0.9999999999999998
 40
0.9795739999999998
 41
0.9344283234007569
 42
0.9812147980681842
  0
ELLIPSE
  5
120
330
1F
100
AcDbEntity
  8
1
100
AcDbEllipse
 10
375.650637
 20
246.109294
 30
0.0
 11
5.111050936336175
 21
8.574499187147536
 31
0.0
210
0.0
220
0.0
230
0.9999999999999998
 40
0.979574
 41
0.6683145386339581
 42
0.9344283234007599
  0
ELLIPSE
  5
121
330
1F
100
AcDbEntity
  8
1
100
AcDbEllipse
 10
395.523646
 20
253.784601
 30
0.0
 11
12.7912765554771
 21
21.45914642481343
 31
0.0
210
0.0
220
0.0
230
0.9999999999999996
 40
0.9795739999999998
 41
2.114603879486291
 42
2.239110865428839
  0
ELLIPSE
  5
122
330
1F
100
AcDbEntity
  8
1
100
AcDbEllipse
 10
380.85831
 20
251.705281
 30
0.0
 11
5.111050936336175
 21
8.574499187147536
 31
0.0
210
0.0
220
0.0
230
0.9999999999999998
 40
0.979574
 41
2.239110865428854
 42
2.333697633689082
  0
ELLIPSE
  5
123
330
1F
100
AcDbEntity
  8
1
100
AcDbEllipse
 10
377.44375
 20
231.334607
 30
0.0
 11
12.7912765554771
 21
21.45914642481343
 31
0.0
210
0.0
220
0.0
230
0.9999999999999996
 40
0.9795739999999998
 41
0.5438075526913934
 42
0.6683145386339417
  0
ELLIPSE
  5
124
330
1F
100
AcDbEntity
  8
1
100
AcDbEllipse
 10
375.715211
 20
251.376418
 30
0.0
 11
-1.152033842871063
 21
-1.932697085649928
 31
0.0
210
0.0
220
0.0
230
0.9999999999999998
 40
0.9795739999999998
 41
2.747733160776953
 42
4.260802527527569
  0
ELLIPSE
  5
125
330
1F
100
AcDbEntity
  8
1
100
AcDbEllipse
 10
375.715211
 20
251.376418
 30
0.0
 11
-1.152033842871063
 21
-1.932697085649928
 31
0.0
210
0.0
220
0.0
230
0.9999999999999998
 40
0.9795739999999998
 41
6.1861078198427
 42
6.283185307179585
  0
ELLIPSE
  5
126
330
1F
100
AcDbEntity
  8
1
100
AcDbEllipse
 10
375.715211
 20
251.376418
 30
0.0
 11
-1.152033842871063
 21
-1.932697085649928
 31
0.0
210
0.0
220
0.0
230
0.9999999999999998
 40
0.9795739999999998
 41
0.0
 42
0.1903783937167494
  0
ELLIPSE
  5
127
330
1F
100
AcDbEntity
  8
1
100
AcDbEllipse
 10
375.4106109999999
 20
256.863598
 30
0.0
 11
5.111050936336175
 21
8.574499187147536
 31
0.0
210
0.0
220
0.0
230
0.9999999999999998
 40
0.979574
 41
4.063031333865161
 42
4.076020976990548
  0
ELLIPSE
  5
128
330
1F
100
AcDbEntity
  8
1
100
AcDbEllipse
 10
373.548363
 20
261.432862
 30
0.0
 11
7.671126142716485
 21
12.86938159970284
 31
0.0
210
0.0
220
0.0
230
0.9999999999999998
 40
0.9795739999999998
 41
4.076020976990548
 42
4.122807451658348
  0
ELLIPSE
  5
129
330
1F
100
AcDbEntity
  8
1
100
AcDbEllipse
 10
375.236923
 20
249.492853
 30
0.0
 11
2.550975729955864
 21
4.279616774592236
 31
0.0
210
0.0
220
0.0
230
0.9999999999999998
 40
0.979574
 41
4.996337597542177
 42
5.256196533076086
  0
ELLIPSE
  5
12A
330
1F
100
AcDbEntity
  8
1
100
AcDbEllipse
 10
373.536907
 20
261.439691
 30
0.0
 11
-7.577822610885223
 21
-12.71285194116398
 31
0.0
210
0.0
220
0.0
230
1.0
 40
0.9795739999999998
 41
0.9344283234007587
 42
0.9817822127877068
  0
ELLIPSE
  5
12B
330
1F
100
AcDbEntity
  8
1
100
AcDbEllipse
 10
375.225467
 20
249.499682
 30
0.0
 11
-2.457672198124936
 21
-4.123087116053183
 31
0.0
210
0.0
220
0.0
230
0.9999999999999998
 40
0.9795739999999998
 41
1.85294055488187
 42
2.114603879486292
  0
ELLIPSE
  5
12C
330
1F
100
AcDbEntity
  8
1
100
AcDbEllipse
 10
355.526146
 20
249.19512
 30
0.0
 11
-12.69797302364551
 21
-21.30261676627478
 31
0.0
210
0.0
220
0.0
230
0.9999999999999996
 40
0.9795739999999998
 41
2.114603879486289
 42
2.239110865428839
  0
ELLIPSE
  5
12D
330
1F
100
AcDbEntity
  8
1
100
AcDbEllipse
 10
370.191482
 20
251.27444
 30
0.0
 11
-5.01774740450508
 21
-8.417969528608582
 31
0.0
210
0.0
220
0.0
230
1.0
 40
0.9795739999999998
 41
2.239110865428857
 42
2.505224650195653
  0
ELLIPSE
  5
12E
330
1F
100
AcDbEntity
  8
1
100
AcDbEllipse
 10
365.632296
 20
249.310562
 30
0.0
 11
-7.577822610885223
 21
-12.71285194116398
 31
0.0
210
0.0
220
0.0
230
1.0
 40
0.9795739999999998
 41
2.505224650195654
 42
2.552578539582603
  0
ELLIPSE
  5
12F
330
1F
100
AcDbEntity
  8
1
100
AcDbEllipse
 10
378.672793
 20
255.67023
 30
0.0
 11
0.1024030082552124
 21
0.171795296502212
 31
0.0
210
0.0
220
0.0
230
1.0
 40
0.9795739999999998
 41
5.694171193172526
 42
6.565329535266402
  0
ELLIPSE
  5
130
330
1F
100
AcDbEntity
  8
1
100
AcDbEllipse
 10
377.488281
 20
251.232819
 30
0.0
 11
-2.457672198124936
 21
-4.123087116053183
 31
0.0
210
0.0
220
0.0
230
0.9999999999999998
 40
0.9795739999999998
 41
3.423736881676763
 42
3.685400206281186
  0
ELLIPSE
  5
131
330
1F
100
AcDbEntity
  8
1
100
AcDbEllipse
 10
377.432294
 20
231.341436
 30
0.0
 11
-12.69797302364551
 21
-21.30261676627478
 31
0.0
210
0.0
220
0.0
230
0.9999999999999996
 40
0.9795739999999998
 41
3.685400206281185
 42
3.809907192223733
  0
ELLIPSE
  5
132
330
1F
100
AcDbEntity
  8
1
100
AcDbEllipse
 10
375.639181
 20
246.116123
 30
0.0
 11
-5.01774740450508
 21
-8.417969528608582
 31
0.0
210
0.0
220
0.0
230
1.0
 40
0.9795739999999998
 41
3.809907192223749
 42
4.076020976990552
  0
ELLIPSE
  5
133
330
1F
100
AcDbEntity
  8
1
100
AcDbEllipse
 10
377.501429
 20
241.546858
 30
0.0
 11
-7.577822610885223
 21
-12.71285194116398
 31
0.0
210
0.0
220
0.0
230
1.0
 40
0.9795739999999998
 41
4.076020976990549
 42
4.123374866377501
  0
ELLIPSE
  5
134
330
1F
100
AcDbEntity
  8
1
100
AcDbEllipse
 10
371.439582
 20
254.602703
 30
0.0
 11
0.1024030082552124
 21
0.171795296502212
 31
0.0
210
0.0
220
0.0
230
1.0
 40
0.9795739999999998
 41
0.9817822127877276
 42
1.852940554881951
  0
ELLIPSE
  5
135
330
1F
100
AcDbEntity
  8
1
100
AcDbEllipse
 10
375.812869
 20
253.486867
 30
0.0
 11
-2.457672198124936
 21
-4.123087116053183
 31
0.0
210
0.0
220
0.0
230
0.9999999999999998
 40
0.9795739999999998
 41
4.994533208471668
 42
5.256196533076084
  0
ELLIPSE
  5
136
330
1F
100
AcDbEntity
  8
1
100
AcDbEllipse
 10
395.51219
 20
253.79143
 30
0.0
 11
-12.69797302364551
 21
-21.30261676627478
 31
0.0
210
0.0
220
0.0
230
0.9999999999999996
 40
0.9795739999999998
 41
5.256196533076082
 42
5.380703519018632
  0
ELLIPSE
  5
137
330
1F
100
AcDbEntity
  8
1
100
AcDbEllipse
 10
380.846854
 20
251.712109
 30
0.0
 11
-5.01774740450508
 21
-8.417969528608582
 31
0.0
210
0.0
220
0.0
230
1.0
 40
0.9795739999999998
 41
5.380703519018646
 42
5.480957704047745
  0
ELLIPSE
  5
138
330
1F
100
AcDbEntity
  8
1
100
AcDbEllipse
 10
375.399155
 20
256.870427
 30
0.0
 11
-5.01774740450508
 21
-8.417969528608582
 31
0.0
210
0.0
220
0.0
230
1.0
 40
0.9795739999999998
 41
0.9300415999809532
 42
0.9344283234007564
  0
ELLIPSE
  5
139
330
1F
100
AcDbEntity
  8
1
100
AcDbEllipse
 10
375.519168
 20
251.493275
 30
0.0
 11
-1.20287674861244
 21
-2.017993135206459
 31
0.0
210
0.0
220
0.0
230
1.0
 40
0.9795739999999998
 41
3.685400308836993
 42
6.283185307179585
  0
ELLIPSE
  5
13A
330
1F
100
AcDbEntity
  8
1
100
AcDbEllipse
 10
375.519168
 20
251.493275
 30
0.0
 11
-1.20287674861244
 21
-2.017993135206459
 31
0.0
210
0.0
220
0.0
230
1.0
 40
0.9795739999999998
 41
0.0
 42
0.2066752679574082
  0
ELLIPSE
  5
13B
330
1F
100
AcDbEntity
  8
1
100
AcDbEllipse
 10
375.519168
 20
251.493275
 30
0.0
 11
-1.20287674861244
 21
-2.017993135206459
 31
0.0
210
0.0
220
0.0
230
1.0
 40
0.9795739999999998
 41
0.7625410789799093
 42
3.68540030883699
  0
ELLIPSE
  5
13C
330
1F
100
AcDbEntity
  8
1
100
AcDbEllipse
 10
376.508371
 20
236.721001
 30
0.0
 11
0.5632165454036197
 21
-0.9448741307621933
 31
0.0
210
0.0
220
0.0
230
0.9999999999999998
 40
0.9795739999999998
 41
0.0
 42
6.283185307179585
  0
ELLIPSE
  5
13D
330
1F
100
AcDbEntity
  8
1
100
AcDbEllipse
 10
375.592927
 20
251.286996
 30
0.0
 11
1.075231586679731
 21
1.803850613273226
 31
0.0
210
0.0
220
0.0
230
1.0
 40
0.9795739999999998
 41
3.828917216706606
 42
5.905412005688553
  0
ELLIPSE
  5
13E
330
1F
100
AcDbEntity
  8
1
100
AcDbEllipse
 10
375.592927
 20
251.286996
 30
0.0
 11
1.075231586679731
 21
1.803850613273226
 31
0.0
210
0.0
220
0.0
230
1.0
 40
0.9795739999999998
 41
3.141497635418705
 42
3.426008076088113
  0
ELLIPSE
  5
13F
330
1F
100
AcDbEntity
  8
1
100
AcDbEllipse
 10
375.592927
 20
251.286996
 30
0.0
 11
1.075231586679731
 21
1.803850613273226
 31
0.0
210
0.0
220
0.0
230
1.0
 40
0.9795739999999998
 41
5.90541200568857
 42
6.283185307179585
  0
ELLIPSE
  5
140
330
1F
100
AcDbEntity
  8
1
100
AcDbEllipse
 10
376.025351
 20
252.378555
 30
0.0
 11
0.0511532244653652
 21
0.0858166523992161
 31
0.0
210
0.0
220
0.0
230
1.0
 40
0.9795739999999998
 41
3.747479816115383
 42
4.596414968525648
  0
ELLIPSE
  5
141
330
1F
100
AcDbEntity
  8
1
100
AcDbEllipse
 10
376.180511
 20
252.259151
 30
0.0
 11
0.0511532244653653
 21
0.0858166523992161
 31
0.0
210
0.0
220
0.0
230
0.9999999999999996
 40
0.979574
 41
0.082288386927153
 42
1.454822314936279
  0
ELLIPSE
  5
142
330
1F
100
AcDbEntity
  8
1
100
AcDbEllipse
 10
375.979331
 20
251.849926
 30
0.0
 11
0.2846651922511128
 21
0.4775654733185031
 31
0.0
210
0.0
220
0.0
230
0.9999999999999998
 40
0.9795739999999998
 41
5.445350120936783
 42
6.365473694106582
  0
ELLIPSE
  5
143
330
1F
100
AcDbEntity
  8
1
100
AcDbEllipse
 10
376.420767
 20
251.942034
 30
0.0
 11
0.0511532244653652
 21
0.0858166523992161
 31
0.0
210
0.0
220
0.0
230
0.9999999999999998
 40
0.9795739999999998
 41
4.072816192927528
 42
5.445350120936711
  0
ELLIPSE
  5
144
330
1F
100
AcDbEntity
  8
1
100
AcDbEllipse
 10
376.494603
 20
251.759186
 30
0.0
 11
0.0511532244653652
 21
0.0858166523992161
 31
0.0
210
0.0
220
0.0
230
0.9999999999999998
 40
0.9795739999999998
 41
0.9312235393376488
 42
1.780158691748579
  0
ELLIPSE
  5
145
330
1F
100
AcDbEntity
  8
1
100
AcDbEllipse
 10
376.918502
 20
251.616858
 30
0.0
 11
0.2846651922511127
 21
0.477565473318503
 31
0.0
210
0.0
220
0.0
230
1.0
 40
0.9795739999999998
 41
1.780158691748678
 42
2.700282264918571
  0
ELLIPSE
  5
146
330
1F
100
AcDbEntity
  8
1
100
AcDbEllipse
 10
376.543455
 20
251.360343
 30
0.0
 11
0.0511532244653652
 21
0.0858166523992161
 31
0.0
210
0.0
220
0.0
230
1.0
 40
0.9795739999999998
 41
2.700282264918393
 42
3.549217417329361
  0
ELLIPSE
  5
147
330
1F
100
AcDbEntity
  8
1
100
AcDbEllipse
 10
376.516181
 20
251.163043
 30
0.0
 11
0.0511532244653653
 21
0.0858166523992161
 31
0.0
210
0.0
220
0.0
230
0.9999999999999996
 40
0.979574
 41
5.318276142910199
 42
6.69081007091904
  0
ELLIPSE
  5
148
330
1F
100
AcDbEntity
  8
1
100
AcDbEllipse
 10
376.067759
 20
251.127971
 30
0.0
 11
0.2846651922511128
 21
0.4775654733185031
 31
0.0
210
0.0
220
0.0
230
0.9999999999999998
 40
0.9795739999999998
 41
4.398152569740224
 42
5.318276142910038
  0
ELLIPSE
  5
149
330
1F
100
AcDbEntity
  8
1
100
AcDbEllipse
 10
376.360539
 20
250.789344
 30
0.0
 11
0.0511532244653652
 21
0.0858166523992161
 31
0.0
210
0.0
220
0.0
230
0.9999999999999998
 40
0.9795739999999998
 41
3.025618641730964
 42
4.398152569740073
  0
ELLIPSE
  5
14A
330
1F
100
AcDbEntity
  8
1
100
AcDbEllipse
 10
376.239465
 20
250.63046
 30
0.0
 11
0.0511532244653652
 21
0.0858166523992161
 31
0.0
210
0.0
220
0.0
230
0.9999999999999998
 40
0.9795739999999998
 41
6.167211295320742
 42
7.016146447731832
  0
ELLIPSE
  5
14B
330
1F
100
AcDbEntity
  8
1
100
AcDbEllipse
 10
376.322675
 20
250.186268
 30
0.0
 11
0.2846651922511127
 21
0.477565473318503
 31
0.0
210
0.0
220
0.0
230
1.0
 40
0.9795739999999998
 41
0.732961140552145
 42
1.653084713721926
  0
ELLIPSE
  5
14C
330
1F
100
AcDbEntity
  8
1
100
AcDbEllipse
 10
375.921032
 20
250.382037
 30
0.0
 11
0.0511532244653652
 21
0.0858166523992161
 31
0.0
210
0.0
220
0.0
230
1.0
 40
0.9795739999999998
 41
1.653084713721715
 42
2.502019866132731
  0
ELLIPSE
  5
14D
330
1F
100
AcDbEntity
  8
1
100
AcDbEllipse
 10
375.738599
 20
250.304141
 30
0.0
 11
0.0511532244653653
 21
0.0858166523992161
 31
0.0
210
0.0
220
0.0
230
0.9999999999999996
 40
0.979574
 41
4.271078591713048
 42
5.643612519722608
  0
ELLIPSE
  5
14E
330
1F
100
AcDbEntity
  8
1
100
AcDbEllipse
 10
375.491357
 20
250.678294
 30
0.0
 11
0.2846651922511128
 21
0.4775654733185031
 31
0.0
210
0.0
220
0.0
230
0.9999999999999998
 40
0.9795739999999998
 41
3.350955018543589
 42
4.271078591713371
  0
ELLIPSE
  5
14F
330
1F
100
AcDbEntity
  8
1
100
AcDbEllipse
 10
375.3427
 20
250.247559
 30
0.0
 11
0.0511532244653652
 21
0.0858166523992161
 31
0.0
210
0.0
220
0.0
230
0.9999999999999998
 40
0.9795739999999998
 41
1.978421090534524
 42
3.350955018543225
  0
ELLIPSE
  5
150
330
1F
100
AcDbEntity
  8
1
100
AcDbEllipse
 10
375.1477910000001
 20
250.271524
 30
0.0
 11
0.0511532244653652
 21
0.0858166523992161
 31
0.0
210
0.0
220
0.0
230
0.9999999999999998
 40
0.9795739999999998
 41
5.120013744124318
 42
5.968948896535204
  0
ELLIPSE
  5
151
330
1F
100
AcDbEntity
  8
1
100
AcDbEllipse
 10
374.807101
 20
249.96966
 30
0.0
 11
0.2846651922511127
 21
0.477565473318503
 31
0.0
210
0.0
220
0.0
230
1.0
 40
0.9795739999999998
 41
5.968948896535088
 42
6.88907246970492
  0
ELLIPSE
  5
152
330
1F
100
AcDbEntity
  8
1
100
AcDbEllipse
 10
374.780507
 20
250.421943
 30
0.0
 11
0.0511532244653652
 21
0.0858166523992161
 31
0.0
210
0.0
220
0.0
230
1.0
 40
0.9795739999999998
 41
0.605887162525434
 42
1.454822314936154
  0
ELLIPSE
  5
153
330
1F
100
AcDbEntity
  8
1
100
AcDbEllipse
 10
374.625347
 20
250.541347
 30
0.0
 11
0.0511532244653653
 21
0.0858166523992161
 31
0.0
210
0.0
220
0.0
230
0.9999999999999996
 40
0.979574
 41
3.223881040516788
 42
4.596414968525789
  0
ELLIPSE
  5
154
330
1F
100
AcDbEntity
  8
1
100
AcDbEllipse
 10
374.826526
 20
250.950572
 30
0.0
 11
0.2846651922511128
 21
0.4775654733185031
 31
0.0
210
0.0
220
0.0
230
0.9999999999999998
 40
0.9795739999999998
 41
2.303757467346988
 42
3.223881040516813
  0
ELLIPSE
  5
155
330
1F
100
AcDbEntity
  8
1
100
AcDbEllipse
 10
462.741945
 20
243.731063
 30
0.0
 11
-371.4864623679363
 21
10.8718017144483
 31
0.0
210
0.0
220
0.0
230
1.0
 40
0.0083
 41
4.956255184520324
 42
4.965898670959924
  0
ELLIPSE
  5
156
330
1F
100
AcDbEntity
  8
1
100
AcDbEllipse
 10
365.207521
 20
243.731161
 30
0.0
 11
-66.71621789959082
 21
-3.22690097497263
 31
0.0
210
0.0
220
0.0
230
1.0
 40
0.162328
 41
4.615135295267887
 42
4.779047324739014
  0
ELLIPSE
  5
157
330
1F
100
AcDbEntity
  8
1
100
AcDbEllipse
 10
375.103365
 20
244.108841
 30
0.0
 11
-63.89591446044773
 21
1.204028009353475
 31
0.0
210
0.0
220
0.0
230
1.0
 40
0.165027
 41
1.551884083353223
 42
1.627688184263108
  0
ELLIPSE
  5
158
330
1F
100
AcDbEntity
  8
1
100
AcDbEllipse
 10
371.555501
 20
247.378572
 30
0.0
 11
-0.3046601632400093
 21
-8.307102622401201
 31
0.0
210
0.0
220
0.0
230
0.9999999999999998
 40
0.177607
 41
3.703174410034498
 42
4.469634312054273
  0
ELLIPSE
  5
159
330
1F
100
AcDbEntity
  8
1
100
AcDbEllipse
 10
371.794959
 20
261.108816
 30
0.0
 11
-11.4436283025343
 21
-6.971611813163104
 31
0.0
210
0.0
220
0.0
230
1.0
 40
0.9470860000000001
 41
6.266220527307447
 42
6.632116643565606
  0
ELLIPSE
  5
15A
330
1F
100
AcDbEntity
  8
1
100
AcDbEllipse
 10
376.605123
 20
236.778672
 30
0.0
 11
0.640018801595023
 21
-1.073720603138857
 31
0.0
210
0.0
220
0.0
230
0.9999999999999998
 40
0.9795739999999998
 41
4.118703763598897
 42
4.183891801834504
  0
ELLIPSE
  5
15B
330
1F
100
AcDbEntity
  8
1
100
AcDbEllipse
 10
376.605123
 20
236.778672
 30
0.0
 11
0.640018801595023
 21
-1.073720603138857
 31
0.0
210
0.0
220
0.0
230
0.9999999999999998
 40
0.9795739999999998
 41
4.183891801834503
 42
6.283185307179585
  0
ELLIPSE
  5
15C
330
1F
100
AcDbEntity
  8
1
100
AcDbEllipse
 10
376.605123
 20
236.778672
 30
0.0
 11
0.640018801595023
 21
-1.073720603138857
 31
0.0
210
0.0
220
0.0
230
0.9999999999999998
 40
0.9795739999999998
 41
0.0
 42
3.885833285255733
  0
ELLIPSE
  5
15D
330
1F
100
AcDbEntity
  8
1
100
AcDbEllipse
 10
376.605123
 20
236.778672
 30
0.0
 11
-0.7680225619140782
 21
1.288464723766593
 31
0.0
210
0.0
220
0.0
230
1.0
 40
0.9795739999999998
 41
4.170030050972493
 42
6.116835982000816
  0
ELLIPSE
  5
15E
330
1F
100
AcDbEntity
  8
1
100
AcDbEllipse
 10
371.527764
 20
261.5474049999999
 30
0.0
 11
12.81003168194139
 21
7.804043074436313
 31
0.0
210
0.0
220
0.0
230
1.0
 40
0.9470860000000001
 41
3.064677671374334
 42
3.077872234939748
  0
ELLIPSE
  5
15F
330
1F
100
AcDbEntity
  8
1
100
AcDbEllipse
 10
376.9537899999999
 20
243.722375
 30
0.0
 11
-0.1602873846268488
 21
-11.09969337712909
 31
0.0
210
0.0
220
0.0
230
0.9999999999999998
 40
0.174829
 41
0.7048238805951854
 42
0.9164973296317803
  0
ELLIPSE
  5
160
330
1F
100
AcDbEntity
  8
1
100
AcDbEllipse
 10
394.487603
 20
244.071894
 30
0.0
 11
-57.64523355001611
 21
1.086242801626978
 31
0.0
210
0.0
220
0.0
230
1.0
 40
0.165027
 41
1.231509071121532
 42
1.285448682999225
  0
ELLIPSE
  5
161
330
1F
100
AcDbEntity
  8
1
100
AcDbEllipse
 10
373.907684
 20
243.722239
 30
0.0
 11
-0.1627746649153244
 21
-11.27193420556483
 31
0.0
210
0.0
220
0.0
230
0.9999999999999998
 40
0.174829
 41
0.7509656817888999
 42
0.9294037677013347
  0
SPLINE
  5
164
330
1F
100
AcDbEntity
  8
1
100
AcDbSpline
210
0.0
220
0.0
230
1.0
 70
     8
 71
     3
 72
    18
 73
    14
 74
     0
 42
0.000000001
 43
0.0000000001
 40
0.0
 40
0.0
 40
0.0
 40
0.0
 40
0.2499999999998687
 40
0.2499999999998687
 40
0.3749999999998582
 40
0.3749999999998582
 40
0.4999999999998477
 40
0.4999999999998477
 40
0.7499999999998268
 40
0.7499999999998268
 40
0.8749999999999133
 40
0.8749999999999133
 40
1.0
 40
1.0
 40
1.0
 40
1.0
 10
379.973519182568
 20
248.2843218796345
 30
0.0
 10
379.965804003162
 20
248.2575666987493
 30
0.0
 10
379.955497044846
 20
248.2320334089034
 30
0.0
 10
379.9362966893253
 20
248.1954967085933
 30
0.0
 10
379.9292681608638
 20
248.1836140803736
 30
0.0
 10
379.9139172220181
 20
248.1604588462673
 30
0.0
 10
379.9056147882418
 20
248.1492332228208
 30
0.0
 10
379.8793426968956
 20
248.1172444082669
 30
0.0
 10
379.8598574271301
 20
248.097892408887
 30
0.0
 10
379.8276494205345
 20
248.0718495969705
 30
0.0
 10
379.8163730886738
 20
248.0636499845472
 30
0.0
 10
379.7931659847479
 20
248.0485459517062
 30
0.0
 10
379.781200922936
 20
248.0416081459419
 30
0.0
 10
379.7688716655536
 20
248.0352891522926
 30
0.0
  0
SPLINE
  5
165
330
1F
100
AcDbEntity
  8
1
100
AcDbSpline
210
0.0
220
0.0
230
1.0
 70
     8
 71
     3
 72
     8
 73
     4
 74
     0
 42
0.000000001
 43
0.0000000001
 40
0.0
 40
0.0
 40
0.0
 40
0.0
 40
1.0
 40
1.0
 40
1.0
 40
1.0
 10
379.7613161327131
 20
239.4308090228026
 30
0.0
 10
379.7638478549972
 20
239.4295760269651
 30
0.0
 10
379.7663666209698
 20
239.4283173540792
 30
0.0
 10
379.7688716655535
 20
239.4270334680896
 30
0.0
  0
SPLINE
  5
166
330
1F
100
AcDbEntity
  8
1
100
AcDbSpline
210
0.0
220
0.0
230
1.0
 70
     8
 71
     3
 72
    11
 73
     7
 74
     0
 42
0.000000001
 43
0.0000000001
 40
0.0
 40
0.0
 40
0.0
 40
0.0
 40
0.2544771780185965
 40
0.505969561958565
 40
0.7544771590005177
 40
1.0
 40
1.0
 40
1.0
 40
1.0
 10
379.9759072487981
 20
239.169348994139
 30
0.0
 10
379.9723990807717
 20
239.1625009079328
 30
0.0
 10
379.9654238924525
 20
239.1488850575647
 30
0.0
 10
379.9547958987872
 20
239.1285481096635
 30
0.0
 10
379.944140406128
 20
239.1084303454715
 30
0.0
 10
379.9369224975313
 20
239.0950764763269
 30
0.0
 10
379.9333353472501
 20
239.0884398814164
 30
0.0
  0
SPLINE
  5
167
330
1F
100
AcDbEntity
  8
1
100
AcDbSpline
210
0.0
220
0.0
230
1.0
 70
     8
 71
     3
 72
     8
 73
     4
 74
     0
 42
0.000000001
 43
0.0000000001
 40
0.0
 40
0.0
 40
0.0
 40
0.0
 40
1.0
 40
1.0
 40
1.0
 40
1.0
 10
379.973519182568
 20
239.1780007407478
 30
0.0
 10
379.9743480475119
 20
239.1751263511406
 30
0.0
 10
379.9751460429827
 20
239.1722426273185
 30
0.0
 10
379.9759128085429
 20
239.1693505666722
 30
0.0
  0
SPLINE
  5
168
330
1F
100
AcDbEntity
  8
1
100
AcDbSpline
210
0.0
220
0.0
230
1.0
 70
     8
 71
     3
 72
    18
 73
    14
 74
     0
 42
0.000000001
 43
0.0000000001
 40
0.0
 40
0.0
 40
0.0
 40
0.0
 40
0.249999999999908
 40
0.249999999999908
 40
0.3749999999999242
 40
0.3749999999999242
 40
0.4999999999999404
 40
0.4999999999999404
 40
0.7499999999999727
 40
0.7499999999999727
 40
0.8749999999999863
 40
0.8749999999999863
 40
1.0
 40
1.0
 40
1.0
 40
1.0
 10
379.973519182568
 20
239.1780007407478
 30
0.0
 10
379.965804003162
 20
239.2047559216329
 30
0.0
 10
379.955497044846
 20
239.2302892114788
 30
0.0
 10
379.9362966893254
 20
239.266825911789
 30
0.0
 10
379.9292681608638
 20
239.2787085400086
 30
0.0
 10
379.9139172220181
 20
239.301863774115
 30
0.0
 10
379.9056147882418
 20
239.3130893975614
 30
0.0
 10
379.8793426968956
 20
239.3450782121153
 30
0.0
 10
379.8598574271301
 20
239.3644302114952
 30
0.0
 10
379.8276494205345
 20
239.3904730234118
 30
0.0
 10
379.8163730886737
 20
239.398672635835
 30
0.0
 10
379.7931659847479
 20
239.4137766686761
 30
0.0
 10
379.781200922936
 20
239.4207144744404
 30
0.0
 10
379.7688716655535
 20
239.4270334680896
 30
0.0
  0
SPLINE
  5
169
330
1F
100
AcDbEntity
  8
1
100
AcDbSpline
210
0.0
220
0.0
230
1.0
 70
     8
 71
     3
 72
     8
 73
     4
 74
     0
 42
0.000000001
 43
0.0000000001
 40
0.0
 40
0.0
 40
0.0
 40
0.0
 40
1.0
 40
1.0
 40
1.0
 40
1.0
 10
378.7826485287899
 20
231.4302775440021
 30
0.0
 10
378.7798181862152
 20
231.4294982991627
 30
0.0
 10
378.7769773463029
 20
231.428747543331
 30
0.0
 10
378.7741269882066
 20
231.4280256137199
 30
0.0
  0
SPLINE
  5
16A
330
1F
100
AcDbEntity
  8
1
100
AcDbSpline
210
0.0
220
0.0
230
1.0
 70
     8
 71
     3
 72
    18
 73
    14
 74
     0
 42
0.000000001
 43
0.0000000001
 40
0.0
 40
0.0
 40
0.0
 40
0.0
 40
0.2499999999998623
 40
0.2499999999998623
 40
0.3749999999997935
 40
0.3749999999997935
 40
0.4999999999997248
 40
0.4999999999997248
 40
0.7499999999997863
 40
0.7499999999997863
 40
0.8749999999998932
 40
0.8749999999998932
 40
1.0
 40
1.0
 40
1.0
 40
1.0
 10
378.7826485287899
 20
231.4302775440021
 30
0.0
 10
378.8089937143498
 20
231.4375308532209
 30
0.0
 10
378.834085044781
 20
231.4474379639869
 30
0.0
 10
378.8699125406048
 20
231.4661274611502
 30
0.0
 10
378.8815509945183
 20
231.4730006476982
 30
0.0
 10
378.9042018624863
 20
231.4880716166929
 30
0.0
 10
378.9151681246531
 20
231.4962501438602
 30
0.0
 10
378.9463727552884
 20
231.5222050251706
 30
0.0
 10
378.9651883622038
 20
231.5415476881986
 30
0.0
 10
378.9904060528095
 20
231.5736460970806
 30
0.0
 10
378.9983262830085
 20
231.584903542331
 30
0.0
 10
379.0128736803088
 20
231.6081094350674
 30
0.0
 10
379.0195332957076
 20
231.6200919353582
 30
0.0
 10
379.0255742406655
 20
231.6324568635464
 30
0.0
  0
SPLINE
  5
16B
330
1F
100
AcDbEntity
  8
1
100
AcDbSpline
210
0.0
220
0.0
230
1.0
 70
     8
 71
     3
 72
     8
 73
     4
 74
     0
 42
0.000000001
 43
0.0000000001
 40
0.0
 40
0.0
 40
0.0
 40
0.0
 40
1.0
 40
1.0
 40
1.0
 40
1.0
 10
379.0291783436688
 20
231.6400277962056
 30
0.0
 10
379.0280031498759
 20
231.6374930573168
 30
0.0
 10
379.0268016330371
 20
231.634969155686
 30
0.0
 10
379.0255742406655
 20
231.6324568635465
 30
0.0
  0
SPLINE
  5
16C
330
1F
100
AcDbEntity
  8
1
100
AcDbSpline
210
0.0
220
0.0
230
1.0
 70
     8
 71
     3
 72
    11
 73
     7
 74
     0
 42
0.000000001
 43
0.0000000001
 40
0.0
 40
0.0
 40
0.0
 40
0.0
 40
0.2544771779012829
 40
0.5059695618021801
 40
0.7544771588832577
 40
1.0
 40
1.0
 40
1.0
 40
1.0
 10
378.7741251946193
 20
231.4280306992725
 30
0.0
 10
378.772265124002
 20
231.452290942948
 30
0.0
 10
378.7685667997637
 20
231.5005268789282
 30
0.0
 10
378.7630108080016
 20
231.5726681682849
 30
0.0
 10
378.7574934395677
 20
231.6440982711359
 30
0.0
 10
378.7538094578928
 20
231.6915804162013
 30
0.0
 10
378.7519785957082
 20
231.7151780536289
 30
0.0
  0
SPLINE
  5
16D
330
1F
100
AcDbEntity
  8
1
100
AcDbSpline
210
0.0
220
0.0
230
1.0
 70
     8
 71
     3
 72
    15
 73
    11
 74
     0
 42
0.000000001
 43
0.0000000001
 40
0.0
 40
0.0
 40
0.0
 40
0.0
 40
0.1209042852960966
 40
0.2429782548077756
 40
0.3662221795161502
 40
0.490636321338613
 40
0.616220933477909
 40
0.7429762607554204
 40
0.8709025399295514
 40
1.0
 40
1.0
 40
1.0
 40
1.0
 10
379.6567200360369
 20
239.2838718671974
 30
0.0
 10
379.6612201566212
 20
239.2897397526568
 30
0.0
 10
379.6702639340467
 20
239.3015322922253
 30
0.0
 10
379.6835887664536
 20
239.3193640864613
 30
0.0
 10
379.6968230348578
 20
239.3374080170273
 30
0.0
 10
379.7099449283107
 20
239.3556682704217
 30
0.0
 10
379.7229631788519
 20
239.3741432711865
 30
0.0
 10
379.7358722399301
 20
239.3928341577677
 30
0.0
 10
379.748692824999
 20
239.4117370845485
 30
0.0
 10
379.7570950467057
 20
239.4244316600607
 30
0.0
 10
379.7613153007743
 20
239.4308078705232
 30
0.0
  0
SPLINE
  5
16E
330
1F
100
AcDbEntity
  8
1
100
AcDbSpline
210
0.0
220
0.0
230
1.0
 70
     8
 71
     3
 72
    15
 73
    11
 74
     0
 42
0.000000001
 43
0.0000000001
 40
0.0
 40
0.0
 40
0.0
 40
0.0
 40
0.1209042850991216
 40
0.2429782544700804
 40
0.3662221790939997
 40
0.4906363208882877
 40
0.6162209330556997
 40
0.7429762604176299
 40
0.8709025397324927
 40
1.0
 40
1.0
 40
1.0
 40
1.0
 10
379.0057271539672
 20
232.2603680523312
 30
0.0
 10
379.0066277990882
 20
232.2350962475573
 30
0.0
 10
379.0084378025897
 20
232.1843081468192
 30
0.0
 10
379.0112135272321
 20
232.1080506111649
 30
0.0
 10
379.0140498611329
 20
232.0312700749201
 30
0.0
 10
379.0169502476377
 20
231.953987223917
 30
0.0
 10
379.0199133841476
 20
231.8761936768626
 30
0.0
 10
379.0229402106211
 20
231.7978946565302
 30
0.0
 10
379.0260275444683
 20
231.7190703442814
 30
0.0
 10
379.0281240999864
 20
231.6664557121566
 30
0.0
 10
379.0291771544364
 20
231.6400285214572
 30
0.0
  0
SPLINE
  5
16F
330
1F
100
AcDbEntity
  8
1
100
AcDbSpline
210
0.0
220
0.0
230
1.0
 70
     8
 71
     3
 72
     8
 73
     4
 74
     0
 42
0.000000001
 43
0.0000000001
 40
0.0
 40
0.0
 40
0.0
 40
0.0
 40
1.0
 40
1.0
 40
1.0
 40
1.0
 10
371.2999322192007
 20
232.5209443693251
 30
0.0
 10
371.2974004889539
 20
232.5221773604183
 30
0.0
 10
371.2948783566046
 20
232.5234340266909
 30
0.0
 10
371.2923665970068
 20
232.5247139100258
 30
0.0
  0
SPLINE
  5
170
330
1F
100
AcDbEntity
  8
1
100
AcDbSpline
210
0.0
220
0.0
230
1.0
 70
     8
 71
     3
 72
    14
 73
    10
 74
     0
 42
0.000000001
 43
0.0000000001
 40
0.0
 40
0.0
 40
0.0
 40
0.0
 40
0.0699036091122071
 40
0.0699036091122071
 40
0.5349518045561036
 40
0.5349518045561036
 40
0.7674759022780516
 40
0.7674759022780516
 40
1.0
 40
1.0
 40
1.0
 40
1.0
 10
371.1564132209336
 20
232.6376409548527
 30
0.0
 10
371.1589582789049
 20
232.6343389243921
 30
0.0
 10
371.1615495062412
 20
232.6310822499646
 30
0.0
 10
371.1816969566454
 20
232.6065507799825
 30
0.0
 10
371.2011986374293
 20
232.5872085628125
 30
0.0
 10
371.233456279854
 20
232.5611953376091
 30
0.0
 10
371.244753471578
 20
232.5530081592443
 30
0.0
 10
371.2680103161259
 20
232.5379337755813
 30
0.0
 10
371.2800042898684
 20
232.5310132035174
 30
0.0
 10
371.2923665970067
 20
232.5247139100258
 30
0.0
  0
SPLINE
  5
171
330
1F
100
AcDbEntity
  8
1
100
AcDbSpline
210
0.0
220
0.0
230
1.0
 70
     8
 71
     3
 72
    24
 73
    20
 74
     0
 42
0.000000001
 43
0.0000000001
 40
0.0
 40
0.0
 40
0.0
 40
0.0
 40
0.2499999999999993
 40
0.2499999999999993
 40
0.4999999999999988
 40
0.4999999999999988
 40
0.6249999999999986
 40
0.6249999999999986
 40
0.7499999999999983
 40
0.7499999999999983
 40
0.8124999999999984
 40
0.8124999999999984
 40
0.8749999999999985
 40
0.8749999999999985
 40
0.9374999999999987
 40
0.9374999999999987
 40
0.9687499999999994
 40
0.9687499999999994
 40
1.0
 40
1.0
 40
1.0
 40
1.0
 10
379.6567366894818
 20
239.2838759674477
 30
0.0
 10
379.6800523059665
 20
239.2817908956972
 30
0.0
 10
379.703392061204
 20
239.2779745395411
 30
0.0
 10
379.7501359120993
 20
239.265728548884
 30
0.0
 10
379.7735606323947
 20
239.2573391276117
 30
0.0
 10
379.8086290447967
 20
239.239462396408
 30
0.0
 10
379.8203102644709
 20
239.2326100568067
 30
0.0
 10
379.8436496096145
 20
239.2164047495522
 30
0.0
 10
379.8553230155822
 20
239.2070590207255
 30
0.0
 10
379.8726743468167
 20
239.1902102582334
 30
0.0
 10
379.8784350180323
 20
239.1841142812638
 30
0.0
 10
379.8898933845338
 20
239.1706148261384
 30
0.0
 10
379.8955915199138
 20
239.1632204847549
 30
0.0
 10
379.9068940451483
 20
239.1464854636593
 30
0.0
 10
379.9124942331778
 20
239.1371620450793
 30
0.0
 10
379.9205920983269
 20
239.1210485865868
 30
0.0
 10
379.9232457529275
 20
239.1153101122749
 30
0.0
 10
379.9284243945878
 20
239.1027974758533
 30
0.0
 10
379.930950535356
 20
239.0960326003606
 30
0.0
 10
379.9333765427186
 20
239.0884617177749
 30
0.0
  0
SPLINE
  5
172
330
1F
100
AcDbEntity
  8
1
100
AcDbSpline
210
0.0
220
0.0
230
1.0
 70
     8
 71
     3
 72
    11
 73
     7
 74
     0
 42
0.000000001
 43
0.0000000001
 40
0.0
 40
0.0
 40
0.0
 40
0.0
 40
0.0394649711788728
 40
0.3567124256614557
 40
0.6768905775524545
 40
1.0
 40
1.0
 40
1.0
 40
1.0
 10
371.593147856019
 20
232.7308862863167
 30
0.0
 10
371.5892771711505
 20
232.7281278107941
 30
0.0
 10
371.5542962174561
 20
232.7031935146013
 30
0.0
 10
371.4880035166903
 20
232.655857484744
 30
0.0
 10
371.3941255324685
 20
232.5886382088911
 30
0.0
 10
371.3314256677018
 20
232.5435781256858
 30
0.0
 10
371.2999328829807
 20
232.5209454213702
 30
0.0
  0
SPLINE
  5
173
330
1F
100
AcDbEntity
  8
1
100
AcDbSpline
210
0.0
220
0.0
230
1.0
 70
     8
 71
     3
 72
    24
 73
    20
 74
     0
 42
0.000000001
 43
0.0000000001
 40
0.0
 40
0.0
 40
0.0
 40
0.0
 40
0.25000000000002
 40
0.25000000000002
 40
0.5000000000000401
 40
0.5000000000000401
 40
0.6250000000000428
 40
0.6250000000000428
 40
0.7500000000000457
 40
0.7500000000000457
 40
0.8125000000000341
 40
0.8125000000000341
 40
0.8750000000000227
 40
0.8750000000000227
 40
0.9375000000000111
 40
0.9375000000000111
 40
0.9687500000000055
 40
0.9687500000000055
 40
1.0
 40
1.0
 40
1.0
 40
1.0
 10
379.0057294205639
 20
232.2603424981594
 30
0.0
 10
378.9985813965409
 20
232.2140893002168
 30
0.0
 10
378.9897146023687
 20
232.1678243508075
 30
0.0
 10
378.9674010827787
 20
232.0752631215483
 30
0.0
 10
378.9539896589931
 20
232.0289250433497
 30
0.0
 10
378.9286492499074
 20
231.9596648936242
 30
0.0
 10
378.919319991933
 20
231.9366132338199
 30
0.0
 10
378.8981915638832
 20
231.8906080350047
 30
0.0
 10
378.8863962261219
 20
231.8676240028877
 30
0.0
 10
378.8659367384561
 20
231.8335223837182
 30
0.0
 10
378.8586471515085
 20
231.8222110839401
 30
0.0
 10
378.8427876365966
 20
231.7997408598937
 30
0.0
 10
378.8342266556107
 20
231.7885808708108
 30
0.0
 10
378.8151987857748
 20
231.7664877178436
 30
0.0
 10
378.8047498970753
 20
231.7555625365744
 30
0.0
 10
378.7870360371368
 20
231.7398197429513
 30
0.0
 10
378.7807778190547
 20
231.7346704351376
 30
0.0
 10
378.7672643890867
 20
231.7246489549944
 30
0.0
 10
378.7600181168636
 20
231.7197742977004
 30
0.0
 10
378.7519959505161
 20
231.7151153165616
 30
0.0
  0
SPLINE
  5
174
330
1F
100
AcDbEntity
  8
1
100
AcDbSpline
210
0.0
220
0.0
230
1.0
 70
     8
 71
     3
 72
    18
 73
    14
 74
     0
 42
0.000000001
 43
0.0000000001
 40
0.0
 40
0.0
 40
0.0
 40
0.0
 40
0.026300785887969
 40
0.026300785887969
 40
0.2697255894159748
 40
0.5131503929439797
 40
0.5131503929439797
 40
0.574006593825981
 40
0.574006593825981
 40
0.6348627947079831
 40
0.7565751964719882
 40
0.7565751964719882
 40
1.0
 40
1.0
 40
1.0
 40
1.0
 10
357.9501907655247
 20
232.4307402062711
 30
0.0
 10
357.9505817257028
 20
232.4307395873079
 30
0.0
 10
357.9510216068846
 20
232.4308157784726
 30
0.0
 10
357.956029145809
 20
232.4323843434409
 30
0.0
 10
357.973362071229
 20
232.4483663873015
 30
0.0
 10
358.0061330610019
 20
232.4907685765683
 30
0.0
 10
358.0312218887868
 20
232.5256526543993
 30
0.0
 10
358.0364681493963
 20
232.5330457925643
 30
0.0
 10
358.0473918894069
 20
232.5486360222967
 30
0.0
 10
358.0644322146909
 20
232.5732380433852
 30
0.0
 10
358.0834031091802
 20
232.6014730001278
 30
0.0
 10
358.1238500147725
 20
232.6627541165147
 30
0.0
 10
358.1541481112656
 20
232.7100189335241
 30
0.0
 10
358.1876793394613
 20
232.763659798115
 30
0.0
  0
SPLINE
  5
175
330
1F
100
AcDbEntity
  8
1
100
AcDbSpline
210
0.0
220
0.0
230
1.0
 70
     8
 71
     3
 72
    44
 73
    40
 74
     0
 42
0.000000001
 43
0.0000000001
 40
0.0
 40
0.0
 40
0.0
 40
0.0
 40
0.0624999999999925
 40
0.0624999999999925
 40
0.1249999999999851
 40
0.1249999999999851
 40
0.2499999999999701
 40
0.2499999999999701
 40
0.2812499999999625
 40
0.2812499999999625
 40
0.3124999999999549
 40
0.3124999999999549
 40
0.3749999999999547
 40
0.3749999999999547
 40
0.4999999999999688
 40
0.4999999999999688
 40
0.5312499999999757
 40
0.5312499999999757
 40
0.5624999999999828
 40
0.5624999999999828
 40
0.6249999999999975
 40
0.6875000000000123
 40
0.6875000000000123
 40
0.750000000000027
 40
0.750000000000027
 40
0.7656250000000238
 40
0.7656250000000238
 40
0.7812500000000206
 40
0.7812500000000206
 40
0.8125000000000138
 40
0.8125000000000138
 40
0.8750000000000074
 40
0.9375000000000014
 40
0.9375000000000014
 40
0.9687500000000005
 40
0.9687500000000005
 40
0.9843750000000003
 40
0.9843750000000003
 40
1.0
 40
1.0
 40
1.0
 40
1.0
 10
360.2409688800476
 20
233.1402585422985
 30
0.0
 10
360.1856074853438
 20
233.1435378837731
 30
0.0
 10
360.1293870020925
 20
233.1460564538216
 30
0.0
 10
360.0175099547201
 20
233.1494409890142
 30
0.0
 10
359.9616727721813
 20
233.150323441407
 30
0.0
 10
359.7944609575395
 20
233.1505627716659
 30
0.0
 10
359.6833833676471
 20
233.1475249681216
 30
0.0
 10
359.5450567894951
 20
233.1396132633276
 30
0.0
 10
359.5174177092885
 20
233.1378241345834
 30
0.0
 10
359.4621935600136
 20
233.1338247059668
 30
0.0
 10
359.4346429798368
 20
233.1316156144811
 30
0.0
 10
359.3529198322467
 20
233.124427057869
 30
0.0
 10
359.2993993362595
 20
233.1188681849674
 30
0.0
 10
359.1417224943737
 20
233.0999749875271
 30
0.0
 10
359.0404186984965
 20
233.0844387155213
 30
0.0
 10
358.9189883693695
 20
233.0614070030764
 30
0.0
 10
358.8949648347602
 20
233.0566189187572
 30
0.0
 10
358.8474651572552
 20
233.046675755176
 30
0.0
 10
358.8239631964236
 20
233.0415130115812
 30
0.0
 10
358.7551983329946
 20
233.025677634747
 30
0.0
 10
358.6675500061109
 20
233.0035208881313
 30
0.0
 10
358.5880448580391
 20
232.9794702049349
 30
0.0
 10
358.5127784541771
 20
232.9545434454707
 30
0.0
 10
358.4772632584192
 20
232.9416420731513
 30
0.0
 10
358.4357214540351
 20
232.9249968381855
 30
0.0
 10
358.4275561588285
 20
232.9216418021543
 30
0.0
 10
358.411518784354
 20
232.9148802136243
 30
0.0
 10
358.4036320277003
 20
232.9114669957497
 30
0.0
 10
358.3805655372828
 20
232.901214530132
 30
0.0
 10
358.3659651288203
 20
232.8943582562823
 30
0.0
 10
358.3244733842599
 20
232.873746080364
 30
0.0
 10
358.2752978214446
 20
232.8461487301327
 30
0.0
 10
358.2384809441134
 20
232.8185118962855
 30
0.0
 10
358.2156856338022
 20
232.7978294810492
 30
0.0
 10
358.2088917741066
 20
232.79094277414
 30
0.0
 10
358.1999476084866
 20
232.7806305087388
 30
0.0
 10
358.1971772537046
 20
232.7771985475609
 30
0.0
 10
358.1920948244246
 20
232.770394223393
 30
0.0
 10
358.189776902098
 20
232.7670153290459
 30
0.0
 10
358.1876793394613
 20
232.763659798115
 30
0.0
  0
SPLINE
  5
176
330
1F
100
AcDbEntity
  8
1
100
AcDbSpline
210
0.0
220
0.0
230
1.0
 70
     8
 71
     3
 72
     8
 73
     4
 74
     0
 42
0.000000001
 43
0.0000000001
 40
0.0
 40
0.0
 40
0.0
 40
0.0
 40
1.0
 40
1.0
 40
1.0
 40
1.0
 10
371.3258973861247
 20
232.6464584041356
 30
0.0
 10
371.2710377898037
 20
232.6445589605107
 30
0.0
 10
371.2172021372711
 20
232.6420928234131
 30
0.0
 10
371.1643554798107
 20
232.6391086037525
 30
0.0
  0
SPLINE
  5
177
330
1F
100
AcDbEntity
  8
1
100
AcDbSpline
210
0.0
220
0.0
230
1.0
 70
     8
 71
     3
 72
    18
 73
    14
 74
     0
 42
0.000000001
 43
0.0000000001
 40
0.0
 40
0.0
 40
0.0
 40
0.0
 40
0.2500000000001674
 40
0.2500000000001674
 40
0.3750000000001926
 40
0.3750000000001926
 40
0.5000000000002178
 40
0.5000000000002178
 40
0.7500000000001089
 40
0.7500000000001089
 40
0.8750000000000545
 40
0.8750000000000545
 40
1.0
 40
1.0
 40
1.0
 40
1.0
 10
371.087718970412
 20
254.6885760483328
 30
0.0
 10
371.0953679273595
 20
254.7153707028187
 30
0.0
 10
371.1056257866202
 20
254.7409332594202
 30
0.0
 10
371.1247764773796
 20
254.7774995636896
 30
0.0
 10
371.1317924862714
 20
254.7893896545212
 30
0.0
 10
371.1471266255291
 20
254.8125549024543
 30
0.0
 10
371.1554248643555
 20
254.8237830264085
 30
0.0
 10
371.1816969566454
 20
254.8557718403997
 30
0.0
 10
371.2011986374293
 20
254.8751140575697
 30
0.0
 10
371.233456279854
 20
254.901127282773
 30
0.0
 10
371.2447534715781
 20
254.9093144611379
 30
0.0
 10
371.2680103161258
 20
254.9243888448009
 30
0.0
 10
371.2800042898684
 20
254.9313094168648
 30
0.0
 10
371.2923665970067
 20
254.9376087103564
 30
0.0
  0
SPLINE
  5
178
330
1F
100
AcDbEntity
  8
1
100
AcDbSpline
210
0.0
220
0.0
230
1.0
 70
     8
 71
     3
 72
     8
 73
     4
 74
     0
 42
0.000000001
 43
0.0000000001
 40
0.0
 40
0.0
 40
0.0
 40
0.0
 40
1.0
 40
1.0
 40
1.0
 40
1.0
 10
371.2999322192007
 20
254.9413782510571
 30
0.0
 10
371.2974004889539
 20
254.9401452599638
 30
0.0
 10
371.2948783566046
 20
254.9388885936912
 30
0.0
 10
371.2923665970068
 20
254.9376087103564
 30
0.0
  0
SPLINE
  5
179
330
1F
100
AcDbEntity
  8
1
100
AcDbSpline
210
0.0
220
0.0
230
1.0
 70
     8
 71
     3
 72
     8
 73
     4
 74
     0
 42
0.000000001
 43
0.0000000001
 40
0.0
 40
0.0
 40
0.0
 40
0.0
 40
1.0
 40
1.0
 40
1.0
 40
1.0
 10
371.087718970412
 20
254.6885760483328
 30
0.0
 10
371.0868972199465
 20
254.6856974179594
 30
0.0
 10
371.0861028019329
 20
254.6828115617036
 30
0.0
 10
371.0853360660061
 20
254.6799194833951
 30
0.0
  0
SPLINE
  5
17A
330
1F
100
AcDbEntity
  8
1
100
AcDbSpline
210
0.0
220
0.0
230
1.0
 70
     8
 71
     3
 72
     8
 73
     4
 74
     0
 42
0.000000001
 43
0.0000000001
 40
0.0
 40
0.0
 40
0.0
 40
0.0
 40
1.0
 40
1.0
 40
1.0
 40
1.0
 10
378.7826485287899
 20
256.0320450763801
 30
0.0
 10
378.7798181862152
 20
256.0328243212195
 30
0.0
 10
378.7769773463029
 20
256.0335750770512
 30
0.0
 10
378.7741269882066
 20
256.0342970066623
 30
0.0
  0
SPLINE
  5
17B
330
1F
100
AcDbEntity
  8
1
100
AcDbSpline
210
0.0
220
0.0
230
1.0
 70
     8
 71
     3
 72
    18
 73
    14
 74
     0
 42
0.000000001
 43
0.0000000001
 40
0.0
 40
0.0
 40
0.0
 40
0.0
 40
0.2499999999999566
 40
0.2499999999999566
 40
0.3749999999999312
 40
0.3749999999999312
 40
0.4999999999999061
 40
0.4999999999999061
 40
0.7500000000000351
 40
0.7500000000000351
 40
0.8750000000000174
 40
0.8750000000000174
 40
1.0
 40
1.0
 40
1.0
 40
1.0
 10
378.7826485287899
 20
256.0320450763801
 30
0.0
 10
378.8089937143498
 20
256.0247917671613
 30
0.0
 10
378.834085044781
 20
256.0148846563953
 30
0.0
 10
378.8699125406048
 20
255.9961951592321
 30
0.0
 10
378.8815509945183
 20
255.989321972684
 30
0.0
 10
378.9042018624862
 20
255.9742510036893
 30
0.0
 10
378.915168124653
 20
255.966072476522
 30
0.0
 10
378.9463727552883
 20
255.9401175952117
 30
0.0
 10
378.9651883622038
 20
255.9207749321835
 30
0.0
 10
378.9904060528095
 20
255.8886765233016
 30
0.0
 10
378.9983262830085
 20
255.8774190780512
 30
0.0
 10
379.0128736803088
 20
255.8542131853148
 30
0.0
 10
379.0195332957076
 20
255.842230685024
 30
0.0
 10
379.0255742406654
 20
255.8298657568358
 30
0.0
  0
SPLINE
  5
17C
330
1F
100
AcDbEntity
  8
1
100
AcDbSpline
210
0.0
220
0.0
230
1.0
 70
     8
 71
     3
 72
     8
 73
     4
 74
     0
 42
0.000000001
 43
0.0000000001
 40
0.0
 40
0.0
 40
0.0
 40
0.0
 40
1.0
 40
1.0
 40
1.0
 40
1.0
 10
379.0291783436688
 20
255.8222948241767
 30
0.0
 10
379.0280031498759
 20
255.8248295630654
 30
0.0
 10
379.0268016330371
 20
255.8273534646962
 30
0.0
 10
379.0255742406655
 20
255.8298657568357
 30
0.0
  0
SPLINE
  5
17D
330
1F
100
AcDbEntity
  8
1
100
AcDbSpline
210
0.0
220
0.0
230
1.0
 70
     8
 71
     3
 72
     8
 73
     4
 74
     0
 42
0.000000001
 43
0.0000000001
 40
0.0
 40
0.0
 40
0.0
 40
0.0
 40
1.0
 40
1.0
 40
1.0
 40
1.0
 10
379.7613161327131
 20
248.0315135975796
 30
0.0
 10
379.7638478549972
 20
248.0327465934171
 30
0.0
 10
379.7663666209698
 20
248.034005266303
 30
0.0
 10
379.7688716655535
 20
248.0352891522926
 30
0.0
  0
SPLINE
  5
17E
330
1F
100
AcDbEntity
  8
1
100
AcDbSpline
210
0.0
220
0.0
230
1.0
 70
     8
 71
     3
 72
     8
 73
     4
 74
     0
 42
0.000000001
 43
0.0000000001
 40
0.0
 40
0.0
 40
0.0
 40
0.0
 40
1.0
 40
1.0
 40
1.0
 40
1.0
 10
379.973519182568
 20
248.2843218796344
 30
0.0
 10
379.9743480475119
 20
248.2871962692416
 30
0.0
 10
379.9751460429827
 20
248.2900799930637
 30
0.0
 10
379.9759128085429
 20
248.29297205371
 30
0.0
  0
SPLINE
  5
17F
330
1F
100
AcDbEntity
  8
1
100
AcDbSpline
210
0.0
220
0.0
230
1.0
 70
     8
 71
     3
 72
    21
 73
    17
 74
     0
 42
0.000000001
 43
0.0000000001
 40
0.0
 40
0.0
 40
0.0
 40
0.0
 40
0.2500000000000716
 40
0.2500000000000716
 40
0.312500000000088
 40
0.312500000000088
 40
0.3750000000001045
 40
0.3750000000001045
 40
0.5000000000001471
 40
0.6250000000001899
 40
0.6250000000001899
 40
0.6875000000001715
 40
0.6875000000001715
 40
0.7500000000001532
 40
0.7500000000001532
 40
1.0
 40
1.0
 40
1.0
 40
1.0
 10
374.4353536434804
 20
251.4843832256336
 30
0.0
 10
374.4321555986007
 20
251.5273086930201
 30
0.0
 10
374.4339791647202
 20
251.5699452484304
 30
0.0
 10
374.4425230021458
 20
251.6228823659837
 30
0.0
 10
374.4445553245057
 20
251.6334735079629
 30
0.0
 10
374.4492112040857
 20
251.654381457544
 30
0.0
 10
374.4518375306004
 20
251.6647237649036
 30
0.0
 10
374.460595229199
 20
251.6954218723286
 30
0.0
 10
374.4746099134705
 20
251.7354779092261
 30
0.0
 10
374.4932669845365
 20
251.7737969406837
 30
0.0
 10
374.5090594722612
 20
251.8018627828407
 30
0.0
 10
374.514616015466
 20
251.8110858472953
 30
0.0
 10
374.5261829089218
 20
251.8290664888418
 30
0.0
 10
374.5322095258724
 20
251.837853725223
 30
0.0
 10
374.5635368749418
 20
251.8807924115209
 30
0.0
 10
374.5923730707482
 20
251.9119910348366
 30
0.0
 10
374.6250911325668
 20
251.9399452449136
 30
0.0
  0
SPLINE
  5
180
330
1F
100
AcDbEntity
  8
1
100
AcDbSpline
210
0.0
220
0.0
230
1.0
 70
     8
 71
     3
 72
    20
 73
    16
 74
     0
 42
0.000000001
 43
0.0000000001
 40
0.0
 40
0.0
 40
0.0
 40
0.0
 40
0.1367152126762307
 40
0.1367152126762307
 40
0.2734304253524615
 40
0.2734304253524615
 40
0.4101456380286922
 40
0.4101456380286922
 40
0.5468608507049229
 40
0.5468608507049229
 40
0.6835760633811537
 40
0.6835760633811537
 40
0.8202912760573843
 40
0.8202912760573843
 40
1.0
 40
1.0
 40
1.0
 40
1.0
 10
374.6250911325668
 20
251.9399452449136
 30
0.0
 10
374.6296452342642
 20
251.9438362552144
 30
0.0
 10
374.6344902982983
 20
251.9472484865451
 30
0.0
 10
374.6447309532147
 20
251.9531666449722
 30
0.0
 10
374.6501841256482
 20
251.9556901402755
 30
0.0
 10
374.6613463442418
 20
251.9596927046239
 30
0.0
 10
374.6670356820587
 20
251.9611787448619
 30
0.0
 10
374.6786195916158
 20
251.9631710684437
 30
0.0
 10
374.6845686164055
 20
251.9636756161908
 30
0.0
 10
374.6964045645616
 20
251.9636728102227
 30
0.0
 10
374.7022493365473
 20
251.9631761767193
 30
0.0
 10
374.7137993647917
 20
251.9612438694732
 30
0.0
 10
374.719532568321
 20
251.959798199232
 30
0.0
 10
374.732492632365
 20
251.9553795956961
 30
0.0
 10
374.7394708022974
 20
251.9521481935715
 30
0.0
 10
374.7460692781089
 20
251.9482005926981
 30
0.0
  0
SPLINE
  5
181
330
1F
100
AcDbEntity
  8
1
100
AcDbSpline
210
0.0
220
0.0
230
1.0
 70
     8
 71
     3
 72
    14
 73
    10
 74
     0
 42
0.000000001
 43
0.0000000001
 40
0.0
 40
0.0
 40
0.0
 40
0.0
 40
0.2896936597203916
 40
0.2896936597203916
 40
0.5793873194407832
 40
0.5793873194407832
 40
0.8690809791611748
 40
0.8690809791611748
 40
1.0
 40
1.0
 40
1.0
 40
1.0
 10
374.8395292524965
 20
251.9207877820067
 30
0.0
 10
374.8321732244975
 20
251.919488060631
 30
0.0
 10
374.8246751103922
 20
251.9190098035324
 30
0.0
 10
374.8099494856157
 20
251.9196104057776
 30
0.0
 10
374.802701708198
 20
251.920671323522
 30
0.0
 10
374.788427445923
 20
251.9242666488005
 30
0.0
 10
374.7814149843094
 20
251.9268205203438
 30
0.0
 10
374.7718485348778
 20
251.9314271465289
 30
0.0
 10
374.7689398723583
 20
251.932990921345
 30
0.0
 10
374.7661011700054
 20
251.9346865274777
 30
0.0
  0
SPLINE
  5
182
330
1F
100
AcDbEntity
  8
1
100
AcDbSpline
210
0.0
220
0.0
230
1.0
 70
     8
 71
     3
 72
    12
 73
     8
 74
     0
 42
0.000000001
 43
0.0000000001
 40
0.0
 40
0.0
 40
0.0
 40
0.0
 40
0.1175411227455639
 40
0.1175411227455639
 40
0.558770561372782
 40
0.558770561372782
 40
1.0
 40
1.0
 40
1.0
 40
1.0
 10
374.4463951189526
 20
251.4458811515849
 30
0.0
 10
374.4456653280374
 20
251.4472809656515
 30
0.0
 10
374.4449663836742
 20
251.4487009984708
 30
0.0
 10
374.4417925474947
 20
251.455549124747
 30
0.0
 10
374.4397725518768
 20
251.4611665104553
 30
0.0
 10
374.4367840666996
 20
251.472582142913
 30
0.0
 10
374.4357982348787
 20
251.478415737909
 30
0.0
 10
374.4353536434805
 20
251.4843832256336
 30
0.0
  0
SPLINE
  5
183
330
1F
100
AcDbEntity
  8
1
100
AcDbSpline
210
0.0
220
0.0
230
1.0
 70
     8
 71
     3
 72
    12
 73
     8
 74
     0
 42
0.000000001
 43
0.0000000001
 40
0.0
 40
0.0
 40
0.0
 40
0.0
 40
0.0295978410821693
 40
0.0295978410821693
 40
0.5147989205410847
 40
0.5147989205410847
 40
1.0
 40
1.0
 40
1.0
 40
1.0
 10
374.5663002349004
 20
251.3753170774771
 30
0.0
 10
374.5666852649815
 20
251.3750873558622
 30
0.0
 10
374.5670690948364
 20
251.374855164935
 30
0.0
 10
374.5737242074446
 20
251.3707736606533
 30
0.0
 10
374.5796882808908
 20
251.3662255287659
 30
0.0
 10
374.5904005091173
 20
251.3561361950765
 30
0.0
 10
374.5952244076246
 20
251.3505590575408
 30
0.0
 10
374.5994698542725
 20
251.344402246767
 30
0.0
  0
SPLINE
  5
184
330
1F
100
AcDbEntity
  8
1
100
AcDbSpline
210
0.0
220
0.0
230
1.0
 70
     8
 71
     3
 72
    22
 73
    18
 74
     0
 42
0.000000001
 43
0.0000000001
 40
0.0
 40
0.0
 40
0.0
 40
0.0
 40
0.125
 40
0.125
 40
0.25
 40
0.25
 40
0.375
 40
0.375
 40
0.5
 40
0.5
 40
0.625
 40
0.625
 40
0.75
 40
0.75
 40
0.875
 40
0.875
 40
1.0
 40
1.0
 40
1.0
 40
1.0
 10
375.2262696120853
 20
252.3082538406863
 30
0.0
 10
375.2238403176
 20
252.3136056885836
 30
0.0
 10
375.2218543261016
 20
252.3191240430917
 30
0.0
 10
375.2188103406693
 20
252.330293458694
 30
0.0
 10
375.2177397782795
 20
252.3359700652965
 30
0.0
 10
375.2165276016772
 20
252.3475117141953
 30
0.0
 10
375.2163970876793
 20
252.3533747183805
 30
0.0
 10
375.2171032405874
 20
252.3648888062349
 30
0.0
 10
375.2179319153311
 20
252.3705907132246
 30
0.0
 10
375.2205816942485
 20
252.3818780989841
 30
0.0
 10
375.2224074987349
 20
252.3874370384065
 30
0.0
 10
375.2269549670644
 20
252.3980312965489
 30
0.0
 10
375.2296863251752
 20
252.4031171332113
 30
0.0
 10
375.2361163766944
 20
252.4128405356931
 30
0.0
 10
375.2397716080412
 20
252.4173987872346
 30
0.0
 10
375.2478045001995
 20
252.4257226531516
 30
0.0
 10
375.2522024026823
 20
252.4295204353176
 30
0.0
 10
375.2570060789691
 20
252.4329302273891
 30
0.0
  0
SPLINE
  5
185
330
1F
100
AcDbEntity
  8
1
100
AcDbSpline
210
0.0
220
0.0
230
1.0
 70
     8
 71
     3
 72
    14
 73
    10
 74
     0
 42
0.000000001
 43
0.0000000001
 40
0.0
 40
0.0
 40
0.0
 40
0.0
 40
0.25
 40
0.25
 40
0.5
 40
0.5
 40
0.75
 40
0.75
 40
1.0
 40
1.0
 40
1.0
 40
1.0
 10
375.2262696120853
 20
252.3082538406856
 30
0.0
 10
375.229308678755
 20
252.3015586365172
 30
0.0
 10
375.2316645856295
 20
252.2945797469142
 30
0.0
 10
375.2349129808922
 20
252.2803813293473
 30
0.0
 10
375.2358050089106
 20
252.273215251428
 30
0.0
 10
375.2361073280906
 20
252.2587459219125
 30
0.0
 10
375.2354937325179
 20
252.2514111544191
 30
0.0
 10
375.232755913987
 20
252.23725325238
 30
0.0
 10
375.2306425238696
 20
252.2303482493799
 30
0.0
 10
375.2277177649361
 20
252.2236309226727
 30
0.0
  0
SPLINE
  5
186
330
1F
100
AcDbEntity
  8
1
100
AcDbSpline
210
0.0
220
0.0
230
1.0
 70
     8
 71
     3
 72
    21
 73
    17
 74
     0
 42
0.000000001
 43
0.0000000001
 40
0.0
 40
0.0
 40
0.0
 40
0.0
 40
0.2500000000001489
 40
0.2500000000001489
 40
0.3125000000001354
 40
0.3125000000001354
 40
0.3750000000001221
 40
0.3750000000001221
 40
0.5000000000000953
 40
0.6250000000000684
 40
0.6250000000000684
 40
0.687500000000055
 40
0.687500000000055
 40
0.7500000000000416
 40
0.7500000000000416
 40
1.0
 40
1.0
 40
1.0
 40
1.0
 10
375.2277177649361
 20
252.2236309226727
 30
0.0
 10
375.2107480749144
 20
252.1846564449159
 30
0.0
 10
375.1894327023809
 20
252.1483115953114
 30
0.0
 10
375.1571100522558
 20
252.106222463857
 30
0.0
 10
375.15035802004
 20
252.09797394476
 30
0.0
 10
375.1362576824392
 20
252.0818262795848
 30
0.0
 10
375.1288892462883
 20
252.0739101607476
 30
0.0
 10
375.1062027756498
 20
252.0510472630801
 30
0.0
 10
375.0742296262066
 20
252.0226946356352
 30
0.0
 10
375.0388770402468
 20
251.9985133633258
 30
0.0
 10
375.0110760492372
 20
251.9819673791582
 30
0.0
 10
375.0015590480875
 20
251.9767002121099
 30
0.0
 10
374.9822703061159
 20
251.9668015512225
 30
0.0
 10
374.9725185420825
 20
251.9621769286644
 30
0.0
 10
374.9232408732692
 20
251.9406202493089
 30
0.0
 10
374.882179861911
 20
251.9283236299873
 30
0.0
 10
374.8395292524965
 20
251.9207877820067
 30
0.0
  0
SPLINE
  5
187
330
1F
100
AcDbEntity
  8
1
100
AcDbSpline
210
0.0
220
0.0
230
1.0
 70
     8
 71
     3
 72
    20
 73
    16
 74
     0
 42
0.000000001
 43
0.0000000001
 40
0.0
 40
0.0
 40
0.0
 40
0.0
 40
0.125000000000055
 40
0.125000000000055
 40
0.2500000000001099
 40
0.2500000000001099
 40
0.3750000000001648
 40
0.3750000000001648
 40
0.5000000000002199
 40
0.5000000000002199
 40
0.6250000000002749
 40
0.6250000000002749
 40
0.7500000000003297
 40
0.7500000000003297
 40
1.0
 40
1.0
 40
1.0
 40
1.0
 10
374.5322982248262
 20
250.6928978541817
 30
0.0
 10
374.5313069354785
 20
250.6986505959079
 30
0.0
 10
374.5308755510202
 20
250.7043929338007
 30
0.0
 10
374.5310725740559
 20
250.7158568317137
 30
0.0
 10
374.5317155532772
 20
250.7216346946039
 30
0.0
 10
374.5340280949752
 20
250.7328552617146
 30
0.0
 10
374.5356815374574
 20
250.7382854453914
 30
0.0
 10
374.5399334936514
 20
250.7488015900653
 30
0.0
 10
374.5425615050283
 20
250.7539311800479
 30
0.0
 10
374.5486525970219
 20
250.7636093533184
 30
0.0
 10
374.552084803454
 20
250.7681290612665
 30
0.0
 10
374.5596819945086
 20
250.7765611136394
 30
0.0
 10
374.5638699182578
 20
250.7804910667814
 30
0.0
 10
374.5774186516958
 20
250.7912212520044
 30
0.0
 10
374.5874276686314
 20
250.796770817588
 30
0.0
 10
374.5984006853265
 20
250.8007329100842
 30
0.0
  0
SPLINE
  5
188
330
1F
100
AcDbEntity
  8
1
100
AcDbSpline
210
0.0
220
0.0
230
1.0
 70
     8
 71
     3
 72
    21
 73
    17
 74
     0
 42
0.000000001
 43
0.0000000001
 40
0.0
 40
0.0
 40
0.0
 40
0.0
 40
0.2499999999999948
 40
0.2499999999999948
 40
0.3124999999999934
 40
0.3124999999999934
 40
0.3749999999999922
 40
0.3749999999999922
 40
0.4999999999999896
 40
0.6249999999999867
 40
0.6249999999999867
 40
0.6874999999999827
 40
0.6874999999999827
 40
0.7499999999999789
 40
0.7499999999999789
 40
1.0
 40
1.0
 40
1.0
 40
1.0
 10
374.5994698542725
 20
251.344402246767
 30
0.0
 10
374.6241013871256
 20
251.308681226242
 30
0.0
 10
374.6442453022805
 20
251.2708344986982
 30
0.0
 10
374.6636442455195
 20
251.2207917163346
 30
0.0
 10
374.6672312506092
 20
251.2106446696693
 30
0.0
 10
374.6737995915982
 20
251.1900641628188
 30
0.0
 10
374.6767851219283
 20
251.1796047011809
 30
0.0
 10
374.6846850702961
 20
251.1482573586628
 30
0.0
 10
374.6925075125361
 20
251.1062726061371
 30
0.0
 10
374.6950223575935
 20
251.0639248940122
 30
0.0
 10
374.6948861809072
 20
251.0320236430576
 30
0.0
 10
374.6944998497465
 20
251.021328071276
 30
0.0
 10
374.6930521161924
 20
251.0000892602062
 30
0.0
 10
374.6919951125569
 20
250.9895662453748
 30
0.0
 10
374.6851025127157
 20
250.937411166837
 30
0.0
 10
374.6745098971102
 20
250.8971421933083
 30
0.0
 10
374.659023395514
 20
250.8581888240415
 30
0.0
  0
SPLINE
  5
189
330
1F
100
AcDbEntity
  8
1
100
AcDbSpline
210
0.0
220
0.0
230
1.0
 70
     8
 71
     3
 72
    14
 73
    10
 74
     0
 42
0.000000001
 43
0.0000000001
 40
0.0
 40
0.0
 40
0.0
 40
0.0
 40
0.25
 40
0.25
 40
0.5
 40
0.5
 40
0.75
 40
0.75
 40
1.0
 40
1.0
 40
1.0
 40
1.0
 10
374.6590233955142
 20
250.8581888240415
 30
0.0
 10
374.6563524248395
 20
250.851470501873
 30
0.0
 10
374.6529046581128
 20
250.8450730158047
 30
0.0
 10
374.6448144117214
 20
250.8333254845127
 30
0.0
 10
374.6401768799814
 20
250.8279493042201
 30
0.0
 10
374.6297533234628
 20
250.8181569150515
 30
0.0
 10
374.6239578351253
 20
250.8137624656234
 30
0.0
 10
374.6117422785629
 20
250.8063200409759
 30
0.0
 10
374.6052632132517
 20
250.803210803917
 30
0.0
 10
374.5984006853265
 20
250.8007329100842
 30
0.0
  0
SPLINE
  5
18A
330
1F
100
AcDbEntity
  8
1
100
AcDbSpline
210
0.0
220
0.0
230
1.0
 70
     8
 71
     3
 72
    17
 73
    13
 74
     0
 42
0.000000001
 43
0.0000000001
 40
0.0
 40
0.0
 40
0.0
 40
0.0
 40
0.3899296593037448
 40
0.3899296593037448
 40
0.4874120741298583
 40
0.4874120741298583
 40
0.5848944889559719
 40
0.5848944889559719
 40
0.779859318608203
 40
0.9748241482604342
 40
0.9748241482604342
 40
1.0
 40
1.0
 40
1.0
 40
1.0
 10
375.2570060789691
 20
252.4329302273891
 30
0.0
 10
375.2915578421984
 20
252.4574560949296
 30
0.0
 10
375.3284769010394
 20
252.4775449155602
 30
0.0
 10
375.3775676914323
 20
252.4971148241622
 30
0.0
 10
375.387556717752
 20
252.5007539652838
 30
0.0
 10
375.4076096077996
 20
252.5073871437021
 30
0.0
 10
375.4176963202692
 20
252.5103917266289
 30
0.0
 10
375.4481337713999
 20
252.5184865665128
 30
0.0
 10
375.4891886825495
 20
252.5268352034059
 30
0.0
 10
375.5311796406145
 20
252.5303283734248
 30
0.0
 10
375.5551595739461
 20
252.5308839962538
 30
0.0
 10
375.5579046539685
 20
252.5309263740344
 30
0.0
 10
375.5606503567322
 20
252.5309476733161
 30
0.0
  0
SPLINE
  5
18B
330
1F
100
AcDbEntity
  8
1
100
AcDbSpline
210
0.0
220
0.0
230
1.0
 70
     8
 71
     3
 72
    15
 73
    11
 74
     0
 42
0.000000001
 43
0.0000000001
 40
0.0
 40
0.0
 40
0.0
 40
0.0
 40
0.0984638960390838
 40
0.3238479220294251
 40
0.3238479220294251
 40
0.4365399350245238
 40
0.4365399350245238
 40
0.5492319480196225
 40
0.5492319480196225
 40
1.0
 40
1.0
 40
1.0
 40
1.0
 10
374.6481531413056
 20
250.4441635474149
 30
0.0
 10
374.6422806668604
 20
250.4511419749003
 30
0.0
 10
374.6235768158413
 20
250.4745685261319
 30
0.0
 10
374.6068755265861
 20
250.4995511734124
 30
0.0
 10
374.5909442889026
 20
250.5267995361674
 30
0.0
 10
374.5858976739576
 20
250.5360608605519
 30
0.0
 10
374.5764372251157
 20
250.5547299350642
 30
0.0
 10
374.5720063162061
 20
250.5641661601911
 30
0.0
 10
374.5513218427559
 20
250.6118461188345
 30
0.0
 10
374.5394201379783
 20
250.6515673112418
 30
0.0
 10
374.5322982248262
 20
250.6928978541817
 30
0.0
  0
SPLINE
  5
18C
330
1F
100
AcDbEntity
  8
1
100
AcDbSpline
210
0.0
220
0.0
230
1.0
 70
     8
 71
     3
 72
    17
 73
    13
 74
     0
 42
0.000000001
 43
0.0000000001
 40
0.0
 40
0.0
 40
0.0
 40
0.0
 40
0.3800740680750319
 40
0.3800740680750319
 40
0.4750925850938472
 40
0.4750925850938472
 40
0.5701111021126622
 40
0.5701111021126622
 40
0.760148136150297
 40
0.9501851701879315
 40
0.9501851701879315
 40
1.0
 40
1.0
 40
1.0
 40
1.0
 10
376.2860856078582
 20
252.1275324925303
 30
0.0
 10
376.2461789413466
 20
252.12326896332
 30
0.0
 10
376.2060738696072
 20
252.1239634826222
 30
0.0
 10
376.1555253747209
 20
252.1312178335258
 30
0.0
 10
376.1453947283848
 20
252.1329921423014
 30
0.0
 10
376.1250870291486
 20
252.1372098326323
 30
0.0
 10
376.114885853535
 20
252.1396621020677
 30
0.0
 10
376.0846643097846
 20
252.1479289948764
 30
0.0
 10
376.045111434897
 20
252.1614163067147
 30
0.0
 10
376.0070019577492
 20
252.1797271077837
 30
0.0
 10
375.983418465433
 20
252.1928297003392
 30
0.0
 10
375.9785368744445
 20
252.1956412754841
 30
0.0
 10
375.9736893023025
 20
252.1985330536404
 30
0.0
  0
SPLINE
  5
18D
330
1F
100
AcDbEntity
  8
1
100
AcDbSpline
210
0.0
220
0.0
230
1.0
 70
     8
 71
     3
 72
    14
 73
    10
 74
     0
 42
0.000000001
 43
0.0000000001
 40
0.0
 40
0.0
 40
0.0
 40
0.0
 40
0.25
 40
0.25
 40
0.5
 40
0.5
 40
0.75
 40
0.75
 40
1.0
 40
1.0
 40
1.0
 40
1.0
 10
376.3531589500552
 20
252.1696979540529
 30
0.0
 10
376.3493419530754
 20
252.1638457267506
 30
0.0
 10
376.3449504963547
 20
252.1584446418377
 30
0.0
 10
376.3352297993486
 20
252.1487853109876
 30
0.0
 10
376.3299434221478
 20
252.1445536250079
 30
0.0
 10
376.3185055503326
 20
252.1372985170841
 30
0.0
 10
376.3123163438726
 20
252.1342802450298
 30
0.0
 10
376.2995752705153
 20
252.1297890740622
 30
0.0
 10
376.292963439712
 20
252.1282673030162
 30
0.0
 10
376.2860856078583
 20
252.1275324925303
 30
0.0
  0
SPLINE
  5
18E
330
1F
100
AcDbEntity
  8
1
100
AcDbSpline
210
0.0
220
0.0
230
1.0
 70
     8
 71
     3
 72
    14
 73
    10
 74
     0
 42
0.000000001
 43
0.0000000001
 40
0.0
 40
0.0
 40
0.0
 40
0.0
 40
0.2666580881016186
 40
0.2666580881016186
 40
0.5333161762032371
 40
0.5333161762032371
 40
0.7999742643048556
 40
0.7999742643048556
 40
1.0
 40
1.0
 40
1.0
 40
1.0
 10
376.3531589500565
 20
252.1696979540536
 30
0.0
 10
376.356210083047
 20
252.174375957176
 30
0.0
 10
376.3596201644394
 20
252.1787529964446
 30
0.0
 10
376.3670181778889
 20
252.1867719399729
 30
0.0
 10
376.3710202051284
 20
252.1904370709175
 30
0.0
 10
376.3796466299553
 20
252.1970581802622
 30
0.0
 10
376.384275380294
 20
252.2000038502121
 30
0.0
 10
376.3926565687643
 20
252.2043399602956
 30
0.0
 10
376.3963595804271
 20
252.2059528032607
 30
0.0
 10
376.4001764622971
 20
252.2073117472758
 30
0.0
  0
SPLINE
  5
18F
330
1F
100
AcDbEntity
  8
1
100
AcDbSpline
210
0.0
220
0.0
230
1.0
 70
     8
 71
     3
 72
    12
 73
     8
 74
     0
 42
0.000000001
 43
0.0000000001
 40
0.0
 40
0.0
 40
0.0
 40
0.0
 40
0.0868828444337161
 40
0.0868828444337161
 40
0.2695062755469745
 40
0.2695062755469745
 40
1.0
 40
1.0
 40
1.0
 40
1.0
 10
375.3516890503601
 20
250.2922908817576
 30
0.0
 10
375.3559425445317
 20
250.2897534325663
 30
0.0
 10
375.3601545661256
 20
250.2871579600047
 30
0.0
 10
375.3730523234952
 20
250.2789493857514
 30
0.0
 10
375.3815384317866
 20
250.2731754128733
 30
0.0
 10
375.4227490247318
 20
250.2432772747797
 30
0.0
 10
375.4518619377005
 20
250.2161128786012
 30
0.0
 10
375.4773318402122
 20
250.1857048586594
 30
0.0
  0
SPLINE
  5
190
330
1F
100
AcDbEntity
  8
1
100
AcDbSpline
210
0.0
220
0.0
230
1.0
 70
     8
 71
     3
 72
    12
 73
     8
 74
     0
 42
0.000000001
 43
0.0000000001
 40
0.0
 40
0.0
 40
0.0
 40
0.0
 40
0.3683484982570589
 40
0.3683484982570589
 40
0.7366969965141178
 40
0.7366969965141178
 40
1.0
 40
1.0
 40
1.0
 40
1.0
 10
375.4773318402122
 20
250.1857048586594
 30
0.0
 10
375.4817247241246
 20
250.1804602802183
 30
0.0
 10
375.4854427578826
 20
250.1747391856634
 30
0.0
 10
375.491365947645
 20
250.1628148993433
 30
0.0
 10
375.4935955734599
 20
250.1566045611931
 30
0.0
 10
375.496206195334
 20
250.145538350021
 30
0.0
 10
375.4969211534789
 20
250.1408016335041
 30
0.0
 10
375.497259890722
 20
250.1360501894636
 30
0.0
  0
SPLINE
  5
191
330
1F
100
AcDbEntity
  8
1
100
AcDbSpline
210
0.0
220
0.0
230
1.0
 70
     8
 71
     3
 72
    27
 73
    23
 74
     0
 42
0.000000001
 43
0.0000000001
 40
0.0
 40
0.0
 40
0.0
 40
0.0
 40
0.1249999999999619
 40
0.1249999999999619
 40
0.1874999999999435
 40
0.1874999999999435
 40
0.2499999999999252
 40
0.2499999999999252
 40
0.3750000000000717
 40
0.3750000000000717
 40
0.4375000000000595
 40
0.4375000000000595
 40
0.5000000000000475
 40
0.5000000000000475
 40
0.625000000000027
 40
0.625000000000027
 40
0.6875000000000192
 40
0.6875000000000192
 40
0.7500000000000114
 40
0.7500000000000114
 40
0.8750000000000055
 40
1.0
 40
1.0
 40
1.0
 40
1.0
 10
373.1317861285452
 20
233.6143727298449
 30
0.0
 10
373.114615819388
 20
233.6137881843244
 30
0.0
 10
373.0978365933182
 20
233.612515479841
 30
0.0
 10
373.0732228452732
 20
233.6096341750997
 30
0.0
 10
373.0651113193566
 20
233.6085107921579
 30
0.0
 10
373.04907527704
 20
233.6059378852916
 30
0.0
 10
373.0411183076586
 20
233.6044814635895
 30
0.0
 10
373.0177713072711
 20
233.5996624675061
 30
0.0
 10
373.0030466019538
 20
233.5958905478891
 30
0.0
 10
372.9821458047275
 20
233.5894545330607
 30
0.0
 10
372.9753777409744
 20
233.5871787503339
 30
0.0
 10
372.9622401023897
 20
233.5823680216127
 30
0.0
 10
372.955844996239
 20
233.5798210888474
 30
0.0
 10
372.9375468582912
 20
233.5719109322197
 30
0.0
 10
372.9264691957622
 20
233.5662677090689
 30
0.0
 10
372.9114491881988
 20
233.5572893896348
 30
0.0
 10
372.9067100831451
 20
233.5542105316733
 30
0.0
 10
372.8977697166197
 20
233.5478818576287
 30
0.0
 10
372.8935566802701
 20
233.5446200734015
 30
0.0
 10
372.8819260224267
 20
233.5347400943975
 30
0.0
 10
372.8689640960622
 20
233.5212393254369
 30
0.0
 10
372.8608704937046
 20
233.5071363644342
 30
0.0
 10
372.8580838661899
 20
233.4999330550058
 30
0.0
  0
SPLINE
  5
192
330
1F
100
AcDbEntity
  8
1
100
AcDbSpline
210
0.0
220
0.0
230
1.0
 70
     8
 71
     3
 72
    74
 73
    70
 74
     0
 42
0.000000001
 43
0.0000000001
 40
0.0
 40
0.0
 40
0.0
 40
0.0
 40
0.0624999999999797
 40
0.0624999999999797
 40
0.1249999999999593
 40
0.1249999999999593
 40
0.187499999999939
 40
0.187499999999939
 40
0.2187499999999306
 40
0.2187499999999306
 40
0.2265624999999294
 40
0.2265624999999294
 40
0.2343749999999282
 40
0.2499999999999294
 40
0.2499999999999294
 40
0.3124999999999378
 40
0.3124999999999378
 40
0.343749999999942
 40
0.343749999999942
 40
0.3749999999999462
 40
0.3749999999999462
 40
0.3906249999999484
 40
0.3906249999999484
 40
0.3984374999999487
 40
0.3984374999999487
 40
0.4062499999999491
 40
0.4374999999999515
 40
0.4374999999999515
 40
0.4999999999999565
 40
0.4999999999999565
 40
0.5312499999999596
 40
0.5312499999999596
 40
0.5390624999999605
 40
0.5390624999999605
 40
0.5468749999999615
 40
0.5624999999999632
 40
0.5624999999999632
 40
0.6249999999999688
 40
0.6249999999999688
 40
0.6562499999999713
 40
0.6562499999999713
 40
0.6718749999999729
 40
0.6718749999999729
 40
0.6796874999999733
 40
0.6796874999999733
 40
0.6874999999999737
 40
0.7187499999999768
 40
0.7187499999999768
 40
0.7499999999999796
 40
0.7812499999999825
 40
0.7812499999999825
 40
0.7968749999999841
 40
0.8046874999999845
 40
0.8046874999999845
 40
0.812499999999985
 40
0.812499999999985
 40
0.8437499999999875
 40
0.8437499999999875
 40
0.87499999999999
 40
0.87499999999999
 40
0.9062499999999925
 40
0.9374999999999948
 40
0.9374999999999948
 40
0.9453124999999955
 40
0.9453124999999955
 40
0.9531249999999964
 40
0.9687499999999975
 40
0.9687499999999975
 40
1.0
 40
1.0
 40
1.0
 40
1.0
 10
369.6593697630103
 20
249.4424139218284
 30
0.0
 10
369.2110249731852
 20
249.4545701887245
 30
0.0
 10
368.7666107921104
 20
249.4840777639368
 30
0.0
 10
367.8855443302442
 20
249.576773904048
 30
0.0
 10
367.448891663563
 20
249.6399628639782
 30
0.0
 10
366.5835213660657
 20
249.7995074975295
 30
0.0
 10
366.1548018842426
 20
249.8958621684947
 30
0.0
 10
365.5180309975591
 20
250.0652680901189
 30
0.0
 10
365.3068279568798
 20
250.1258864885702
 30
0.0
 10
365.0442009134161
 20
250.2068793039629
 30
0.0
 10
364.9917875762943
 20
250.2233259765138
 30
0.0
 10
364.8873754684483
 20
250.2566516568745
 30
0.0
 10
364.7312943304202
 20
250.3073147633767
 30
0.0
 10
364.576827475661
 20
250.3599768764066
 30
0.0
 10
364.065547061371
 20
250.5398519504431
 30
0.0
 10
363.6680384495083
 20
250.6976200383875
 30
0.0
 10
363.0898629900927
 20
250.953076520801
 30
0.0
 10
362.9001589787578
 20
251.0413634939947
 30
0.0
 10
362.5270145671302
 20
251.2238674004897
 30
0.0
 10
362.3435738512969
 20
251.3180848636127
 30
0.0
 10
362.0733256946684
 20
251.4635881195819
 30
0.0
 10
361.9840623405643
 20
251.5127851632366
 30
0.0
 10
361.851428642223
 20
251.5875881530251
 30
0.0
 10
361.807403337927
 20
251.612704430534
 30
0.0
 10
361.7198875782913
 20
251.6632036944806
 30
0.0
 10
361.5027668496899
 20
251.7899255835661
 30
0.0
 10
361.2939871459996
 20
251.918861439957
 30
0.0
 10
360.8090189501887
 20
252.2313145378893
 30
0.0
 10
360.50714684081
 20
252.4436645479684
 30
0.0
 10
360.0873964824992
 20
252.7627944705941
 30
0.0
 10
359.9529968079181
 20
252.8692638293715
 30
0.0
 10
359.7920488064669
 20
253.001807407202
 30
0.0
 10
359.7601819339008
 20
253.0283139417885
 30
0.0
 10
359.6973006494718
 20
253.0811344566395
 30
0.0
 10
359.6043853525585
 20
253.1599672348792
 30
0.0
 10
359.5156375765728
 20
253.2375356238661
 30
0.0
 10
359.2288538163585
 20
253.4929759123926
 30
0.0
 10
359.0283082226584
 20
253.6873552280767
 30
0.0
 10
358.7672680013982
 20
253.9579042984835
 30
0.0
 10
358.686894827585
 20
254.0445815487522
 30
0.0
 10
358.5759482964131
 20
254.1685263759181
 30
0.0
 10
358.5405689974525
 20
254.2088289192996
 30
0.0
 10
358.4898673051482
 20
254.2676562751469
 30
0.0
 10
358.4733511082121
 20
254.2870063682849
 30
0.0
 10
358.4411468723459
 20
254.3250928524839
 30
0.0
 10
358.3628907622052
 20
254.4185582493899
 30
0.0
 10
358.2955807621095
 20
254.5032178381122
 30
0.0
 10
358.200548338801
 20
254.6270827588982
 30
0.0
 10
358.1181811891375
 20
254.7393579079215
 30
0.0
 10
358.0589509129888
 20
254.8276975276519
 30
0.0
 10
358.0225450153051
 20
254.884628894744
 30
0.0
 10
358.0063487257959
 20
254.9107626500087
 30
0.0
 10
357.9930604033642
 20
254.9333220672912
 30
0.0
 10
357.9848378688715
 20
254.9475579952491
 30
0.0
 10
357.9810503867607
 20
254.9542645237818
 30
0.0
 10
357.9637302018895
 20
254.9856662509377
 30
0.0
 10
357.9549882081137
 20
255.0040579781463
 30
0.0
 10
357.946617543394
 20
255.0276097583438
 30
0.0
 10
357.9469906323963
 20
255.0327695071558
 30
0.0
 10
357.956029145809
 20
255.029938276941
 30
0.0
 10
357.9733616079832
 20
255.0139560219412
 30
0.0
 10
358.0061330610019
 20
254.9715540438136
 30
0.0
 10
358.0312218887868
 20
254.9366699659826
 30
0.0
 10
358.0364681493963
 20
254.9292768278176
 30
0.0
 10
358.0473918894069
 20
254.9136865980852
 30
0.0
 10
358.0644322146909
 20
254.8890845769968
 30
0.0
 10
358.0834031091801
 20
254.8608496202542
 30
0.0
 10
358.1238500147725
 20
254.7995685038672
 30
0.0
 10
358.1541481112657
 20
254.7523036868578
 30
0.0
 10
358.1876793394613
 20
254.698662822267
 30
0.0
  0
SPLINE
  5
193
330
1F
100
AcDbEntity
  8
1
100
AcDbSpline
210
0.0
220
0.0
230
1.0
 70
     8
 71
     3
 72
    42
 73
    38
 74
     0
 42
0.000000001
 43
0.0000000001
 40
0.0
 40
0.0
 40
0.0
 40
0.0
 40
0.1249999999999504
 40
0.1249999999999504
 40
0.1874999999999334
 40
0.1874999999999334
 40
0.2187499999999248
 40
0.2187499999999248
 40
0.2499999999999163
 40
0.2499999999999163
 40
0.374999999999913
 40
0.374999999999913
 40
0.4374999999999113
 40
0.4374999999999113
 40
0.4687499999999176
 40
0.4687499999999176
 40
0.4999999999999239
 40
0.4999999999999239
 40
0.6249999999999499
 40
0.6249999999999499
 40
0.6874999999999633
 40
0.6874999999999633
 40
0.7031249999999643
 40
0.7031249999999643
 40
0.7187499999999653
 40
0.7187499999999653
 40
0.749999999999968
 40
0.749999999999968
 40
0.8124999999999742
 40
0.8124999999999742
 40
0.8749999999999806
 40
0.8749999999999806
 40
0.9062499999999864
 40
0.9062499999999864
 40
0.9374999999999925
 40
0.9374999999999925
 40
1.0
 40
1.0
 40
1.0
 40
1.0
 10
360.2409688800474
 20
254.3220640780835
 30
0.0
 10
360.1303918679117
 20
254.3155140302754
 30
0.0
 10
360.0193036732663
 20
254.3121160143925
 30
0.0
 10
359.8519078579599
 20
254.3118253039039
 30
0.0
 10
359.7959812485076
 20
254.3125322540763
 30
0.0
 10
359.7118923817607
 20
254.3148366961454
 30
0.0
 10
359.6837761982948
 20
254.3158147437128
 30
0.0
 10
359.6277261082282
 20
254.3181842702435
 30
0.0
 10
359.5998754516834
 20
254.3195713469389
 30
0.0
 10
359.4614856618887
 20
254.3274998455597
 30
0.0
 10
359.353513300485
 20
254.3370036011996
 30
0.0
 10
359.1957839439227
 20
254.3558536128369
 30
0.0
 10
359.1439168688747
 20
254.3629059416453
 30
0.0
 10
359.0672433102411
 20
254.3746524376381
 30
0.0
 10
359.0418736734743
 20
254.3787628516144
 30
0.0
 10
358.991526534242
 20
254.3873793202845
 30
0.0
 10
358.9667297944036
 20
254.3918548816373
 30
0.0
 10
358.8449732011487
 20
254.4149770571765
 30
0.0
 10
358.7542607902583
 20
254.4359026031978
 30
0.0
 10
358.6288111365587
 20
254.470529800789
 30
0.0
 10
358.5887770539857
 20
254.4826152195986
 30
0.0
 10
358.5411420607282
 20
254.498384402692
 30
0.0
 10
358.5317358299509
 20
254.501571433399
 30
0.0
 10
358.5131710672592
 20
254.5080117842611
 30
0.0
 10
358.5040010095378
 20
254.5112695329596
 30
0.0
 10
358.4770628466391
 20
254.5210717147987
 30
0.0
 10
358.4598098210532
 20
254.527663849794
 30
0.0
 10
358.4101561547621
 20
254.5475902720805
 30
0.0
 10
358.3798551619769
 20
254.561073974198
 30
0.0
 10
358.3249312227014
 20
254.5883393189569
 30
0.0
 10
358.3003074011592
 20
254.6021210821835
 30
0.0
 10
358.2678322637875
 20
254.622955184402
 30
0.0
 10
358.2577522463946
 20
254.6299269231071
 30
0.0
 10
358.239137813134
 20
254.6439155986105
 30
0.0
 10
358.2306027656112
 20
254.6509398607036
 30
0.0
 10
358.2077456737777
 20
254.671735907004
 30
0.0
 10
358.1960072135761
 20
254.6853404839049
 30
0.0
 10
358.1876793394613
 20
254.698662822267
 30
0.0
  0
SPLINE
  5
194
330
1F
100
AcDbEntity
  8
1
100
AcDbSpline
210
0.0
220
0.0
230
1.0
 70
     8
 71
     3
 72
     8
 73
     4
 74
     0
 42
0.000000001
 43
0.0000000001
 40
0.0
 40
0.0
 40
0.0
 40
0.0
 40
1.0
 40
1.0
 40
1.0
 40
1.0
 10
373.6963596824801
 20
249.3282697011243
 30
0.0
 10
373.5082866160592
 20
249.3363786833042
 30
0.0
 10
373.3200954267787
 20
249.3429939911984
 30
0.0
 10
373.1317861285452
 20
249.3481158006598
 30
0.0
  0
SPLINE
  5
195
330
1F
100
AcDbEntity
  8
1
100
AcDbSpline
210
0.0
220
0.0
230
1.0
 70
     8
 71
     3
 72
     8
 73
     4
 74
     0
 42
0.000000001
 43
0.0000000001
 40
0.0
 40
0.0
 40
0.0
 40
0.0
 40
1.0
 40
1.0
 40
1.0
 40
1.0
 10
373.2050235112615
 20
233.6128773711741
 30
0.0
 10
373.1808479507872
 20
233.6147038371249
 30
0.0
 10
373.1564372125936
 20
233.6152119506698
 30
0.0
 10
373.1317861285479
 20
233.6143727298602
 30
0.0
  0
SPLINE
  5
196
330
1F
100
AcDbEntity
  8
1
100
AcDbSpline
210
0.0
220
0.0
230
1.0
 70
     8
 71
     3
 72
     8
 73
     4
 74
     0
 42
0.000000001
 43
0.0000000001
 40
0.0
 40
0.0
 40
0.0
 40
0.0
 40
1.0
 40
1.0
 40
1.0
 40
1.0
 10
373.2050235112615
 20
233.6128773711741
 30
0.0
 10
373.3686667013694
 20
233.6005141122066
 30
0.0
 10
373.5324453690558
 20
233.5925294711442
 30
0.0
 10
373.6963596824801
 20
233.5889288828786
 30
0.0
  0
SPLINE
  5
197
330
1F
100
AcDbEntity
  8
SK1
100
AcDbSpline
210
0.0
220
0.0
230
1.0
 70
    24
 71
     3
 72
    24
 73
    20
 74
     0
 42
0.000000001
 43
0.0000000001
 40
0.0
 40
0.0
 40
0.0
 40
0.0
 40
0.1250506472370974
 40
0.1250506472370974
 40
0.2501012944741948
 40
0.2501012944741948
 40
0.3751519417112922
 40
0.3751519417112922
 40
0.5002025889483896
 40
0.5002025889483896
 40
0.5627279125669378
 40
0.5627279125669378
 40
0.625253236185486
 40
0.625253236185486
 40
0.7503038834225825
 40
0.7503038834225825
 40
0.8753545306596787
 40
0.8753545306596787
 40
1.0
 40
1.0
 40
1.0
 40
1.0
 10
183.1442482849923
 20
254.231161310191
 30
0.0
 10
183.0023758348594
 20
254.231161310191
 30
0.0
 10
182.8651168771813
 20
254.231161310191
 30
0.0
 10
182.6013546893261
 20
254.231161310191
 30
0.0
 10
182.4748499370598
 20
254.231161310191
 30
0.0
 10
182.2344102301662
 20
254.231161310191
 30
0.0
 10
182.1204737530448
 20
254.231161310191
 30
0.0
 10
181.9073190312837
 20
254.231161310191
 30
0.0
 10
181.808099499385
 20
254.231161310191
 30
0.0
 10
181.6722033869065
 20
254.231161310191
 30
0.0
 10
181.6290632903418
 20
254.231161310191
 30
0.0
 10
181.5474543219997
 20
254.231161310191
 30
0.0
 10
181.509205718166
 20
254.231161310191
 30
0.0
 10
181.4024999711428
 20
254.231161310191
 30
0.0
 10
181.3420777143546
 20
254.231161310191
 30
0.0
 10
181.2443571940052
 20
254.231161310191
 30
0.0
 10
181.207063302361
 20
254.231161310191
 30
0.0
 10
181.1570880130289
 20
254.231161310191
 30
0.0
 10
181.1443201626399
 20
254.231161310191
 30
0.0
 10
181.1442532850139
 20
254.231161310191
 30
0.0
  0
SPLINE
  5
198
330
1F
100
AcDbEntity
  8
1
100
AcDbSpline
210
0.0
220
0.0
230
1.0
 70
     8
 71
     3
 72
    32
 73
    28
 74
     0
 42
0.000000001
 43
0.0000000001
 40
0.0
 40
0.0
 40
0.0
 40
0.0
 40
0.0625000000000449
 40
0.0625000000000449
 40
0.1250000000000898
 40
0.1250000000000898
 40
0.2500000000001986
 40
0.2500000000001986
 40
0.3125000000002531
 40
0.3125000000002531
 40
0.3750000000003075
 40
0.3750000000003075
 40
0.5000000000003592
 40
0.5000000000003592
 40
0.5625000000003854
 40
0.5625000000003854
 40
0.6250000000004116
 40
0.6250000000004116
 40
0.7500000000004635
 40
0.7500000000004635
 40
0.7812500000004051
 40
0.7812500000004051
 40
0.8125000000003467
 40
0.8125000000003467
 40
0.8750000000002307
 40
0.8750000000002307
 40
1.0
 40
1.0
 40
1.0
 40
1.0
 10
379.0099543224364
 20
248.9658168221373
 30
0.0
 10
379.0100009741092
 20
248.9701663726346
 30
0.0
 10
379.0093323814941
 20
248.9745387225241
 30
0.0
 10
379.0065393132766
 20
248.9833298305693
 30
0.0
 10
379.0044008214214
 20
248.9877688471335
 30
0.0
 10
378.9958068606297
 20
249.0010085513012
 30
0.0
 10
378.9872731411405
 20
249.0096542116588
 30
0.0
 10
378.9703500727185
 20
249.0223569126357
 30
0.0
 10
378.9640175211377
 20
249.0265465613074
 30
0.0
 10
378.9499281991902
 20
249.0348340348845
 30
0.0
 10
378.9421291326566
 20
249.0389490667812
 30
0.0
 10
378.9170173688906
 20
249.0509066124003
 30
0.0
 10
378.8979208007042
 20
249.0584308616336
 30
0.0
 10
378.8657511975473
 20
249.0690476475936
 30
0.0
 10
378.8544367653863
 20
249.0724742615886
 30
0.0
 10
378.8305778629507
 20
249.079093822391
 30
0.0
 10
378.8181037190602
 20
249.0822643198603
 30
0.0
 10
378.7796303879771
 20
249.0912227013794
 30
0.0
 10
378.7523775491257
 20
249.0965225012363
 30
0.0
 10
378.7162784765649
 20
249.1022949084866
 30
0.0
 10
378.7089561449411
 20
249.1034064097757
 30
0.0
 10
378.6941021264952
 20
249.1055416404693
 30
0.0
 10
378.6865556019979
 20
249.1065670060444
 30
0.0
 10
378.6638391556391
 20
249.1094777551552
 30
0.0
 10
378.6485259330648
 20
249.111208658031
 30
0.0
 10
378.6020909757514
 20
249.1157868277866
 30
0.0
 10
378.5704786169489
 20
249.1180253446255
 30
0.0
 10
378.5381852771369
 20
249.1194189228472
 30
0.0
  0
SPLINE
  5
199
330
1F
100
AcDbEntity
  8
1
100
AcDbSpline
210
0.0
220
0.0
230
1.0
 70
     8
 71
     3
 72
    31
 73
    27
 74
     0
 42
0.000000001
 43
0.0000000001
 40
0.0
 40
0.0
 40
0.0
 40
0.0
 40
0.1249999999998117
 40
0.1249999999998117
 40
0.1874999999997175
 40
0.1874999999997175
 40
0.2499999999996234
 40
0.2499999999996234
 40
0.374999999999337
 40
0.374999999999337
 40
0.4062499999993092
 40
0.4062499999993092
 40
0.4374999999992816
 40
0.4374999999992816
 40
0.4999999999993066
 40
0.4999999999993066
 40
0.6249999999994361
 40
0.6249999999994361
 40
0.6874999999995289
 40
0.6874999999995289
 40
0.7499999999996218
 40
0.8124999999997147
 40
0.8124999999997147
 40
0.8749999999998076
 40
0.8749999999998076
 40
1.0
 40
1.0
 40
1.0
 40
1.0
 10
378.5381852771369
 20
233.5128713392174
 30
0.0
 10
378.5699871193196
 20
233.5125710324598
 30
0.0
 10
378.6012423358602
 20
233.5154032367058
 30
0.0
 10
378.6473196815927
 20
233.5242674481466
 30
0.0
 10
378.6625436494165
 20
233.5279966655754
 30
0.0
 10
378.6927124039229
 20
233.5370549851237
 30
0.0
 10
378.7076730148598
 20
233.5424025614363
 30
0.0
 10
378.7511119153883
 20
233.5605070807747
 30
0.0
 10
378.7785100207418
 20
233.5753963645569
 30
0.0
 10
378.8108090478027
 20
233.5975273318011
 30
0.0
 10
378.8171705832974
 20
233.6021310099273
 30
0.0
 10
378.8296937351357
 20
233.6116994388952
 30
0.0
 10
378.8358683375052
 20
233.6166763504256
 30
0.0
 10
378.8538924722402
 20
233.631991658032
 30
0.0
 10
378.8652988234338
 20
233.6427513410397
 30
0.0
 10
378.8977497942688
 20
233.6766237325411
 30
0.0
 10
378.9170419251266
 20
233.7013157307079
 30
0.0
 10
378.9424159877656
 20
233.7415656169672
 30
0.0
 10
378.9501799959651
 20
233.7553765809064
 30
0.0
 10
378.9642542873283
 20
233.783540740178
 30
0.0
 10
378.9769179742858
 20
233.8123155845125
 30
0.0
 10
378.9868215147901
 20
233.8422853635884
 30
0.0
 10
378.9953389841223
 20
233.8728552066917
 30
0.0
 10
378.9989074734723
 20
233.8884921101499
 30
0.0
 10
379.007341385415
 20
233.9353973831261
 30
0.0
 10
379.0100468899622
 20
233.9669217338807
 30
0.0
 10
379.0099543224363
 20
233.9986898821415
 30
0.0
  0
SPLINE
  5
19A
330
1F
100
AcDbEntity
  8
1
100
AcDbSpline
210
0.0
220
0.0
230
1.0
 70
     8
 71
     3
 72
     8
 73
     4
 74
     0
 42
0.000000001
 43
0.0000000001
 40
0.0
 40
0.0
 40
0.0
 40
0.0
 40
1.0
 40
1.0
 40
1.0
 40
1.0
 10
378.5381852771369
 20
249.1194189228472
 30
0.0
 10
376.9242491018646
 20
249.1890662965219
 30
0.0
 10
375.3103071092756
 20
249.2586825392184
 30
0.0
 10
373.6963596824801
 20
249.3282697011243
 30
0.0
  0
SPLINE
  5
19B
330
1F
100
AcDbEntity
  8
1
100
AcDbSpline
210
0.0
220
0.0
230
1.0
 70
     8
 71
     3
 72
    79
 73
    75
 74
     0
 42
0.000000001
 43
0.0000000001
 40
0.0
 40
0.0
 40
0.0
 40
0.0
 40
0.0625000000000623
 40
0.0625000000000623
 40
0.0937500000000933
 40
0.0937500000000933
 40
0.1093750000001091
 40
0.1093750000001091
 40
0.1250000000001248
 40
0.1250000000001248
 40
0.1875000000001892
 40
0.1875000000001892
 40
0.2031250000002054
 40
0.2031250000002054
 40
0.2187500000002215
 40
0.2187500000002215
 40
0.2500000000002536
 40
0.2500000000002536
 40
0.2812500000002856
 40
0.2812500000002856
 40
0.2968750000003015
 40
0.2968750000003015
 40
0.3125000000003173
 40
0.3125000000003173
 40
0.343750000000349
 40
0.343750000000349
 40
0.3750000000003807
 40
0.3750000000003807
 40
0.3906250000003902
 40
0.3906250000003902
 40
0.4062500000003996
 40
0.4062500000003996
 40
0.4375000000004185
 40
0.4687500000004374
 40
0.4687500000004374
 40
0.4765625000004347
 40
0.4765625000004347
 40
0.4843750000004319
 40
0.4843750000004319
 40
0.5000000000004114
 40
0.5000000000004114
 40
0.5312500000003855
 40
0.5312500000003855
 40
0.5468750000003726
 40
0.5468750000003726
 40
0.5625000000003597
 40
0.5625000000003597
 40
0.5937500000003484
 40
0.5937500000003484
 40
0.6250000000003374
 40
0.6250000000003374
 40
0.640625000000325
 40
0.640625000000325
 40
0.6562500000003127
 40
0.6562500000003127
 40
0.6875000000002879
 40
0.6875000000002879
 40
0.718750000000263
 40
0.718750000000263
 40
0.7343750000002506
 40
0.7343750000002506
 40
0.750000000000238
 40
0.750000000000238
 40
0.8125000000001781
 40
0.8125000000001781
 40
0.8437500000001486
 40
0.8437500000001486
 40
0.8750000000001191
 40
0.8750000000001191
 40
0.9375000000000596
 40
0.9375000000000596
 40
0.96875000000003
 40
0.96875000000003
 40
1.0
 40
1.0
 40
1.0
 40
1.0
 10
378.3960135809461
 20
236.9448309978075
 30
0.0
 10
378.4092165850543
 20
237.0335463021539
 30
0.0
 10
378.415677578443
 20
237.1233981856998
 30
0.0
 10
378.4138695057377
 20
237.2599419603419
 30
0.0
 10
378.4113404974107
 20
237.3057511223765
 30
0.0
 10
378.4043670561597
 20
237.3749173657359
 30
0.0
 10
378.4015171604039
 20
237.3979778388471
 30
0.0
 10
378.3947607547245
 20
237.4439226663445
 30
0.0
 10
378.3908516004172
 20
237.4668344414995
 30
0.0
 10
378.3685788257631
 20
237.5810650329325
 30
0.0
 10
378.3421184833067
 20
237.6714199950564
 30
0.0
 10
378.2963351932697
 20
237.7824901204628
 30
0.0
 10
378.2865373965482
 20
237.8046090294115
 30
0.0
 10
378.2655847530009
 20
237.8486351234097
 30
0.0
 10
378.2544036112105
 20
237.8705846370721
 30
0.0
 10
378.2190760294249
 20
237.9354046312804
 30
0.0
 10
378.1930720081633
 20
237.977436938786
 30
0.0
 10
378.1359083409639
 20
238.0589268314439
 30
0.0
 10
378.1047505388234
 20
238.0983855584284
 30
0.0
 10
378.0538359050552
 20
238.1554124861956
 30
0.0
 10
378.0361665806127
 20
238.1740604222211
 30
0.0
 10
377.9993585690001
 20
238.2105830105181
 30
0.0
 10
377.9801700915822
 20
238.2284942432267
 30
0.0
 10
377.921157158829
 20
238.2802335030921
 30
0.0
 10
377.8796643330683
 20
238.3123168422417
 30
0.0
 10
377.7923269956191
 20
238.3715069547316
 30
0.0
 10
377.7464835956948
 20
238.398615181817
 30
0.0
 10
377.6742991307949
 20
238.4352956181146
 30
0.0
 10
377.6496664154876
 20
238.4468572754319
 30
0.0
 10
377.5992135252546
 20
238.4685868401079
 30
0.0
 10
377.5733092712697
 20
238.4787781877775
 30
0.0
 10
377.4950681925783
 20
238.5067000056709
 30
0.0
 10
377.3886515952889
 20
238.537218025499
 30
0.0
 10
377.2781609088303
 20
238.554540341707
 30
0.0
 10
377.2078116931007
 20
238.5611516997843
 30
0.0
 10
377.1936770007649
 20
238.5622625571299
 30
0.0
 10
377.1652765164031
 20
238.564056442654
 30
0.0
 10
377.1510087602636
 20
238.5647384330775
 30
0.0
 10
377.1083440434317
 20
238.5661290078527
 30
0.0
 10
377.0799734987536
 20
238.5661911214068
 30
0.0
 10
376.9950724089512
 20
238.5638695287909
 30
0.0
 10
376.9387517652214
 20
238.5589858196894
 30
0.0
 10
376.8546750193866
 20
238.5468422394232
 30
0.0
 10
376.8267169755625
 20
238.5419893037812
 30
0.0
 10
376.7709352036034
 20
238.5306809301496
 30
0.0
 10
376.7430293945164
 20
238.524200972558
 30
0.0
 10
376.660471138095
 20
238.5026153661465
 30
0.0
 10
376.6067746279393
 20
238.4853517520137
 30
0.0
 10
376.5018709564661
 20
238.4455296359592
 30
0.0
 10
376.4506648083941
 20
238.4229689468224
 30
0.0
 10
376.3756521418733
 20
238.385338556927
 30
0.0
 10
376.3508823789502
 20
238.3721237236174
 30
0.0
 10
376.3023215565132
 20
238.344665559907
 30
0.0
 10
376.2785334353547
 20
238.3304297023233
 30
0.0
 10
376.2085778696352
 20
238.2862832506331
 30
0.0
 10
376.163815472087
 20
238.2549376493753
 30
0.0
 10
376.0777856205061
 20
238.188738462897
 30
0.0
 10
376.0365192515439
 20
238.1538836816225
 30
0.0
 10
375.9771333588739
 20
238.09912612451
 30
0.0
 10
375.9577484612834
 20
238.0804468489949
 30
0.0
 10
375.9201298637443
 20
238.0426197522338
 30
0.0
 10
375.9018516657609
 20
238.0234324101372
 30
0.0
 10
375.8130010423041
 20
237.9262079070342
 30
0.0
 10
375.7499872911775
 20
237.8443433015985
 30
0.0
 10
375.6662184634678
 20
237.7164764923438
 30
0.0
 10
375.6400426360826
 20
237.6728779310178
 30
0.0
 10
375.5918013943662
 20
237.5852607058958
 30
0.0
 10
375.5696507560321
 20
237.5411306289335
 30
0.0
 10
375.5087039710919
 20
237.4079268002464
 30
0.0
 10
375.4753806381469
 20
237.3180478929824
 30
0.0
 10
375.4354616309921
 20
237.1820213056315
 30
0.0
 10
375.4238312935777
 20
237.1363977255019
 30
0.0
 10
375.4040465547901
 20
237.0456250282981
 30
0.0
 10
375.3958601680414
 20
237.0003864106696
 30
0.0
 10
375.3893115792104
 20
236.9553049179868
 30
0.0
  0
LINE
  5
1B7
330
1F
100
AcDbEntity
  8
4
100
AcDbLine
 10
235.942414
 20
243.731161
 30
0.0
 11
380.911615
 21
243.731161
 31
0.0
  0
MTEXT
  5
1B8
330
1F
100
AcDbEntity
  8
SK6
100
AcDbMText
 10
192.513213
 20
212.002455
 30
0.0
 40
3.5
 41
0.0
 71
     7
 72
     5
  1
\W0.7312;25E2R140B25-SZD09-C
  7
cesky
 73
     2
 44
0.8433729999999998
  0
MTEXT
  5
2B2
330
1F
100
AcDbEntity
  8
2
100
AcDbMText
 10
391.330547
 20
243.645953
 30
0.0
 40
3.5
 41
0.0
 71
     7
 72
     5
  1
\W0.7045;25
  7
cesky
 11
0.0000000000000001
 21
1.0
 31
0.0
 73
     2
 44
0.8433729999999998
  0
MTEXT
  5
2B3
330
1F
100
AcDbEntity
  8
2
100
AcDbMText
 10
391.330547
 20
236.908453
 30
0.0
 40
3.5
 41
0.0
 71
     7
 72
     5
  1
\W3.0115;\H2.63;%%c\H3.50;
  7
cesky
 11
0.0000000000000001
 21
1.0
 31
0.0
 73
     2
 44
0.8433729999999998
  0
LINE
  5
2B4
330
1F
100
AcDbEntity
  8
2
100
AcDbLine
 10
382.144248
 20
256.231161
 30
0.0
 11
392.517964
 21
256.231161
 31
0.0
  0
LINE
  5
2B5
330
1F
100
AcDbEntity
  8
2
100
AcDbLine
 10
391.517964
 20
256.231161
 30
0.0
 11
391.517964
 21
236.750953
 31
0.0
  0
SOLID
  5
2B6
330
1F
100
AcDbEntity
  8
2
100
AcDbTrace
 10
391.517964
 20
256.231161
 30
0.0
 11
392.135109
 21
252.731164
 31
0.0
 12
390.90082
 22
252.731159
 32
0.0
 13
390.90082
 23
252.731159
 33
0.0
  0
MTEXT
  5
2B7
330
1F
100
AcDbEntity
  8
2
100
AcDbMText
 10
305.567248
 20
273.271555
 30
0.0
 40
3.5
 41
0.0
 71
     7
 72
     5
  1
\W0.7809;143
  7
cesky
 73
     2
 44
0.8433729999999998
  0
LINE
  5
2B8
330
1F
100
AcDbEntity
  8
2
100
AcDbLine
 10
380.144248
 20
258.231161
 30
0.0
 11
380.144248
 21
274.397388
 31
0.0
  0
LINE
  5
2B9
330
1F
100
AcDbEntity
  8
2
100
AcDbLine
 10
237.144248
 20
244.730735
 30
0.0
 11
237.144248
 21
274.397388
 31
0.0
  0
LINE
  5
2BA
330
1F
100
AcDbEntity
  8
2
100
AcDbLine
 10
380.144248
 20
273.397388
 30
0.0
 11
237.144248
 21
273.397388
 31
0.0
  0
SOLID
  5
2BB
330
1F
100
AcDbEntity
  8
2
100
AcDbTrace
 10
380.144248
 20
273.397388
 30
0.0
 11
376.644251
 21
272.780244
 31
0.0
 12
376.644246
 22
274.014533
 32
0.0
 13
376.644246
 23
274.014533
 33
0.0
  0
SOLID
  5
2BC
330
1F
100
AcDbEntity
  8
2
100
AcDbTrace
 10
237.144248
 20
273.397388
 30
0.0
 11
240.644246
 21
274.014533
 31
0.0
 12
240.644251
 22
272.780244
 32
0.0
 13
240.644251
 23
272.780244
 33
0.0
  0
MTEXT
  5
2BD
330
1F
100
AcDbEntity
  8
2
100
AcDbMText
 10
371.239677
 20
262.819939
 30
0.0
 40
3.5
 41
0.0
 71
     7
 72
     5
  1
\W1.7063;1
  7
cesky
 73
     2
 44
0.8433729999999998
  0
LINE
  5
2BE
330
1F
100
AcDbEntity
  8
2
100
AcDbLine
 10
380.144248
 20
258.231161
 30
0.0
 11
380.144248
 21
263.945773
 31
0.0
  0
LINE
  5
2BF
330
1F
100
AcDbEntity
  8
2
100
AcDbLine
 10
379.029177
 20
255.822294
 30
0.0
 11
379.029177
 21
263.945773
 31
0.0
  0
LINE
  5
2C0
330
1F
100
AcDbEntity
  8
2
100
AcDbLine
 10
371.054177
 20
262.945773
 30
0.0
 11
388.894248
 21
262.945773
 31
0.0
  0
SOLID
  5
2C1
330
1F
100
AcDbEntity
  8
2
100
AcDbTrace
 10
380.144248
 20
262.945773
 30
0.0
 11
383.644246
 21
263.562917
 31
0.0
 12
383.644251
 22
262.328628
 32
0.0
 13
383.644251
 23
262.328628
 33
0.0
  0
SOLID
  5
2C2
330
1F
100
AcDbEntity
  8
2
100
AcDbTrace
 10
379.029177
 20
262.945773
 30
0.0
 11
375.529179
 21
262.328628
 31
0.0
 12
375.529175
 22
263.562917
 32
0.0
 13
375.529175
 23
263.562917
 33
0.0
  0
MTEXT
  5
2C3
330
1F
100
AcDbEntity
  8
SK2
100
AcDbMText
 10
168.159202
 20
245.257411
 30
0.0
 40
3.5
 41
0.0
 71
     7
 72
     5
  1
\W0.7045;25
  7
cesky
 11
0.0000000000000001
 21
1.0
 31
0.0
 73
     2
 44
0.8433729999999998
  0
MTEXT
  5
2C4
330
1F
100
AcDbEntity
  8
SK2
100
AcDbMText
 10
168.159202
 20
238.519911
 30
0.0
 40
3.5
 41
0.0
 71
     7
 72
     5
  1
\W3.0115;\H2.63;%%c\H3.50;
  7
cesky
 11
0.0000000000000001
 21
1.0
 31
0.0
 73
     2
 44
0.8433729999999998
  0
LINE
  5
2C5
330
1F
100
AcDbEntity
  8
SK2
100
AcDbLine
 10
200.144248
 20
256.231161
 30
0.0
 11
167.346619
 21
256.231161
 31
0.0
  0
LINE
  5
2C6
330
1F
100
AcDbEntity
  8
SK2
100
AcDbLine
 10
183.144248
 20
231.231161
 30
0.0
 11
167.346619
 21
231.231161
 31
0.0
  0
LINE
  5
2C7
330
1F
100
AcDbEntity
  8
SK2
100
AcDbLine
 10
168.346619
 20
256.231161
 30
0.0
 11
168.346619
 21
231.231161
 31
0.0
  0
SOLID
  5
2C8
330
1F
100
AcDbEntity
  8
SK2
100
AcDbTrace
 10
168.346619
 20
256.231161
 30
0.0
 11
168.963763
 21
252.731164
 31
0.0
 12
167.729474
 22
252.731159
 32
0.0
 13
167.729474
 23
252.731159
 33
0.0
  0
SOLID
  5
2C9
330
1F
100
AcDbEntity
  8
SK2
100
AcDbTrace
 10
168.346619
 20
231.231161
 30
0.0
 11
167.729474
 21
234.731159
 31
0.0
 12
168.963763
 22
234.731164
 32
0.0
 13
168.963763
 23
234.731164
 33
0.0
  0
MTEXT
  5
2CA
330
1F
100
AcDbEntity
  8
SK2
100
AcDbMText
 10
277.567248
 20
292.7888259999999
 30
0.0
 40
3.5
 41
0.0
 71
     7
 72
     5
  1
\W0.7969;199
  7
cesky
 73
     2
 44
0.8433729999999998
  0
LINE
  5
2CB
330
1F
100
AcDbEntity
  8
SK2
100
AcDbLine
 10
181.144248
 20
243.731161
 30
0.0
 11
181.144248
 21
293.914659
 31
0.0
  0
LINE
  5
2CC
330
1F
100
AcDbEntity
  8
SK2
100
AcDbLine
 10
380.144248
 20
258.231161
 30
0.0
 11
380.144248
 21
293.914659
 31
0.0
  0
LINE
  5
2CD
330
1F
100
AcDbEntity
  8
SK2
100
AcDbLine
 10
181.144248
 20
292.914659
 30
0.0
 11
380.144248
 21
292.914659
 31
0.0
  0
SOLID
  5
2CE
330
1F
100
AcDbEntity
  8
SK2
100
AcDbTrace
 10
181.144248
 20
292.914659
 30
0.0
 11
184.644246
 21
293.531803
 31
0.0
 12
184.644251
 22
292.297515
 32
0.0
 13
184.644251
 23
292.297515
 33
0.0
  0
SOLID
  5
2CF
330
1F
100
AcDbEntity
  8
SK2
100
AcDbTrace
 10
380.144248
 20
292.914659
 30
0.0
 11
376.644251
 21
292.297515
 31
0.0
 12
376.644246
 22
293.531803
 32
0.0
 13
376.644246
 23
293.531803
 33
0.0
  0
MTEXT
  5
2D0
330
1F
100
AcDbEntity
  8
SK2
100
AcDbMText
 10
305.567248
 20
282.798122
 30
0.0
 40
3.5
 41
0.0
 71
     7
 72
     5
  1
\W0.7809;143
  7
cesky
 73
     2
 44
0.8433729999999998
  0
LINE
  5
2D1
330
1F
100
AcDbEntity
  8
SK2
100
AcDbLine
 10
237.144248
 20
243.731161
 30
0.0
 11
237.144248
 21
283.923955
 31
0.0
  0
LINE
  5
2D2
330
1F
100
AcDbEntity
  8
SK2
100
AcDbLine
 10
380.144248
 20
258.231161
 30
0.0
 11
380.144248
 21
283.923955
 31
0.0
  0
LINE
  5
2D3
330
1F
100
AcDbEntity
  8
SK2
100
AcDbLine
 10
237.144248
 20
282.923955
 30
0.0
 11
380.144248
 21
282.923955
 31
0.0
  0
SOLID
  5
2D4
330
1F
100
AcDbEntity
  8
SK2
100
AcDbTrace
 10
237.144248
 20
282.923955
 30
0.0
 11
240.644246
 21
283.5411
 31
0.0
 12
240.644251
 22
282.306811
 32
0.0
 13
240.644251
 23
282.306811
 33
0.0
  0
SOLID
  5
2D5
330
1F
100
AcDbEntity
  8
SK2
100
AcDbTrace
 10
380.144248
 20
282.923955
 30
0.0
 11
376.644251
 21
282.306811
 31
0.0
 12
376.644246
 22
283.5411
 32
0.0
 13
376.644246
 23
283.5411
 33
0.0
  0
LINE
  5
2F2
330
1F
100
AcDbEntity
  8
CUT
100
AcDbLine
 10
374.4573531931969
 20
255.9862395376279
 30
0.0
 11
374.4573531931969
 21
255.9862395376279
 31
0.0
  0
ARC
  5
2F3
330
1F
100
AcDbEntity
  8
CUT
100
AcDbCircle
 10
377.7190850317624
 20
230.402098428584
 30
0.0
 40
25.79122274872173
100
AcDbArc
 50
90.45630671801758
 51
97.26546600421748
  0
LINE
  5
2F4
330
1F
100
AcDbEntity
  8
CUT
100
AcDbLine
 10
380.1442482849924
 20
249.6023297575237
 30
0.0
 11
380.1442482849924
 21
249.6023297575237
 31
0.0
  0
ARC
  5
2F5
330
1F
100
AcDbEntity
  8
CUT
100
AcDbCircle
 10
375.3081572050883
 20
249.6162230830787
 30
0.0
 40
4.836111036527454
100
AcDbArc
 50
344.8372378258627
 51
359.8353987312005
  0
LINE
  5
2F6
330
1F
100
AcDbEntity
  8
CUT
100
AcDbLine
 10
379.9624534302642
 20
252.6554841464246
 30
0.0
 11
379.9624534302642
 21
252.6554841464246
 31
0.0
  0
ARC
  5
2F7
330
1F
100
AcDbEntity
  8
CUT
100
AcDbCircle
 10
355.4433735795883
 20
249.6635479578819
 30
0.0
 40
24.70095056632704
100
AcDbArc
 50
359.8579994688359
 51
6.957112363242483
  0
LINE
  5
2F8
330
1F
100
AcDbEntity
  8
CUT
100
AcDbLine
 10
370.9169998987599
 20
253.5053647094862
 30
0.0
 11
370.9169998987599
 21
253.5053647094862
 31
0.0
  0
ARC
  5
2F9
330
1F
100
AcDbEntity
  8
CUT
100
AcDbCircle
 10
375.9547406172258
 20
253.4916812377112
 30
0.0
 40
5.037759301900964
100
AcDbArc
 50
165.1456070645756
 51
179.8443740363851
  0
LINE
  5
2FA
330
1F
100
AcDbEntity
  8
CUT
100
AcDbLine
 10
371.0987947534883
 20
250.4041474304858
 30
0.0
 11
371.0987947534883
 21
250.4041474304858
 31
0.0
  0
ARC
  5
2FB
330
1F
100
AcDbEntity
  8
CUT
100
AcDbCircle
 10
396.2544784776413
 20
253.4347228507423
 30
0.0
 40
25.33757705479114
100
AcDbArc
 50
179.8402575906201
 51
186.869476286104
  0
LINE
  5
2FC
330
1F
100
AcDbEntity
  8
CUT
100
AcDbLine
 10
379.9735191825681
 20
248.342820443189
 30
0.0
 11
379.9735191825681
 21
248.342820443189
 31
0.0
  0
ARC
  5
2FD
330
1F
100
AcDbEntity
  8
CUT
100
AcDbCircle
 10
379.5750086271917
 20
248.4642046797359
 30
0.0
 40
0.4165870804867491
100
AcDbArc
 50
297.7335347070573
 51
343.0595377168251
  0
LINE
  5
2FE
330
1F
100
AcDbEntity
  8
CUT
100
AcDbLine
 10
372.2785896241902
 20
246.9770519783513
 30
0.0
 11
372.2785896241902
 21
246.9770519783513
 31
0.0
  0
ARC
  5
2FF
330
1F
100
AcDbEntity
  8
CUT
100
AcDbCircle
 10
372.3967081912584
 20
247.3595022201429
 30
0.0
 40
0.4002751345420433
100
AcDbArc
 50
205.5791103609304
 51
252.8368593737397
  0
LINE
  5
300
330
1F
100
AcDbEntity
  8
CUT
100
AcDbLine
 10
379.0291770849728
 20
255.8244175550761
 30
0.0
 11
379.0291770849728
 21
255.8244175550761
 31
0.0
  0
ARC
  5
301
330
1F
100
AcDbEntity
  8
CUT
100
AcDbCircle
 10
365.4798087212518
 20
249.5636460903379
 30
0.0
 40
14.92590507773257
100
AcDbArc
 50
22.14058713318788
 51
24.80029388145612
  0
LINE
  5
302
330
1F
100
AcDbEntity
  8
CUT
100
AcDbLine
 10
372.0356640218948
 20
247.1866806615883
 30
0.0
 11
372.0356640218948
 21
247.1866806615883
 31
0.0
  0
ARC
  5
303
330
1F
100
AcDbEntity
  8
CUT
100
AcDbCircle
 10
372.4650973761675
 20
247.3917973148589
 30
0.0
 40
0.4759052922701944
100
AcDbArc
 50
204.5081324912288
 51
205.5312358423337
  0
LINE
  5
304
330
1F
100
AcDbEntity
  8
CUT
100
AcDbLine
 10
371.9327600589053
 20
255.318403635206
 30
0.0
 11
371.9327600589053
 21
255.318403635206
 31
0.0
  0
ARC
  5
305
330
1F
100
AcDbEntity
  8
CUT
100
AcDbCircle
 10
375.7142661630041
 20
246.1290553502504
 30
0.0
 40
9.936997047275019
100
AcDbArc
 50
97.26670615796427
 51
112.3676420877108
  0
LINE
  5
306
330
1F
100
AcDbEntity
  8
CUT
100
AcDbLine
 10
379.7613154955275
 20
248.0915925860585
 30
0.0
 11
379.7613154955275
 21
248.0915925860585
 31
0.0
  0
ARC
  5
307
330
1F
100
AcDbEntity
  8
CUT
100
AcDbCircle
 10
372.7670711448336
 20
262.0520478790149
 30
0.0
 40
15.61453700958978
100
AcDbArc
 50
294.0418305656783
 51
296.6110539986681
  0
LINE
  5
308
330
1F
100
AcDbEntity
  8
CUT
100
AcDbLine
 10
372.2871217224454
 20
246.9745644795132
 30
0.0
 11
372.2871217224454
 21
246.9745644795132
 31
0.0
  0
ARC
  5
309
330
1F
100
AcDbEntity
  8
CUT
100
AcDbCircle
 10
372.4059506417487
 20
247.3980228443984
 30
0.0
 40
0.439815073472934
100
AcDbArc
 50
253.1672730280919
 51
254.3250647477205
  0
LINE
  5
30A
330
1F
100
AcDbEntity
  8
CUT
100
AcDbLine
 10
371.2999327737302
 20
255.0408752411661
 30
0.0
 11
371.2999327737302
 21
255.0408752411661
 31
0.0
  0
ARC
  5
30B
330
1F
100
AcDbEntity
  8
CUT
100
AcDbCircle
 10
377.6741800534596
 20
241.3664134873984
 30
0.0
 40
15.08714461514815
100
AcDbArc
 50
112.3677842836837
 51
114.9922250197494
  0
LINE
  5
30C
330
1F
100
AcDbEntity
  8
CUT
100
AcDbLine
 10
372.0320711259465
 20
247.1943816501863
 30
0.0
 11
372.0320711259465
 21
247.1943816501863
 31
0.0
  0
ARC
  5
30D
330
1F
100
AcDbEntity
  8
CUT
100
AcDbCircle
 10
385.8797910296648
 20
253.5070525559523
 30
0.0
 40
15.21871086841257
100
AcDbArc
 50
201.8679108002031
 51
204.5065137859976
  0
LINE
  5
30E
330
1F
100
AcDbEntity
  8
CUT
100
AcDbLine
 10
371.2923665970068
 20
255.0372603193303
 30
0.0
 11
371.2923665970068
 21
255.0372603193303
 31
0.0
  0
ARC
  5
30F
330
1F
100
AcDbEntity
  8
CUT
100
AcDbCircle
 10
371.4838614625431
 20
254.6463375357197
 30
0.0
 40
0.4353055320951999
100
AcDbArc
 50
114.994361772746
 51
116.0980816054081
  0
LINE
  5
310
330
1F
100
AcDbEntity
  8
CUT
100
AcDbLine
 10
379.1284881248471
 20
247.792099070192
 30
0.0
 11
379.1284881248471
 21
247.792099070192
 31
0.0
  0
ARC
  5
311
330
1F
100
AcDbEntity
  8
CUT
100
AcDbCircle
 10
375.061828569788
 20
256.8597645193124
 30
0.0
 40
9.937820517292736
100
AcDbArc
 50
278.926742264498
 51
294.1552433023066
  0
LINE
  5
312
330
1F
100
AcDbEntity
  8
CUT
100
AcDbLine
 10
371.7561424298712
 20
247.8385685676282
 30
0.0
 11
371.7561424298712
 21
247.8385685676282
 31
0.0
  0
ARC
  5
313
330
1F
100
AcDbEntity
  8
CUT
100
AcDbCircle
 10
381.1738225636006
 20
251.6185500477593
 30
0.0
 40
10.14795344349676
100
AcDbArc
 50
186.8730408338785
 51
201.8690835454902
  0
ARC
  5
314
330
1F
100
AcDbEntity
  8
CUT
100
AcDbCircle
 10
371.4691718976949
 20
254.6819738453803
 30
0.0
 40
0.3969535913084657
100
AcDbArc
 50
119.4115410517988
 51
163.935531021115
  0
ARC
  5
315
330
1F
100
AcDbEntity
  8
CUT
100
AcDbCircle
 10
371.4597745636376
 20
254.6955184954788
 30
0.0
 40
0.3805429035744222
100
AcDbArc
 50
116.098698553217
 51
119.1804767959496
  0
LINE
  5
316
330
1F
100
AcDbEntity
  8
CUT
100
AcDbLine
 10
379.7688716655535
 20
248.0954745372392
 30
0.0
 11
379.7688716655535
 21
248.0954745372392
 31
0.0
  0
ARC
  5
317
330
1F
100
AcDbEntity
  8
CUT
100
AcDbCircle
 10
379.5763759132577
 20
248.460718873998
 30
0.0
 40
0.4128656442310068
100
AcDbArc
 50
296.6117767002146
 51
297.7907021800789
  0
LINE
  5
318
330
1F
100
AcDbEntity
  8
CUT
100
AcDbLine
 10
379.9759128085429
 20
248.3512789048144
 30
0.0
 11
379.9759128085429
 21
248.3512789048144
 31
0.0
  0
ARC
  5
319
330
1F
100
AcDbEntity
  8
CUT
100
AcDbCircle
 10
379.5930101882103
 20
248.4550670624688
 30
0.0
 40
0.3967195461870888
100
AcDbArc
 50
343.5644303204084
 51
344.8340319686777
  0
LINE
  5
31A
330
1F
100
AcDbEntity
  8
CUT
100
AcDbLine
 10
373.5475636875825
 20
246.8014425730949
 30
0.0
 11
373.5475636875825
 21
246.8014425730949
 31
0.0
  0
ARC
  5
31B
330
1F
100
AcDbEntity
  8
CUT
100
AcDbCircle
 10
373.541853065931
 20
251.4347102331546
 30
0.0
 40
4.633271179302467
100
AcDbArc
 50
254.2876081062139
 51
270.0706184872857
  0
LINE
  5
31C
330
1F
100
AcDbEntity
  8
CUT
100
AcDbLine
 10
371.0853360660061
 20
254.7831801936645
 30
0.0
 11
371.0853360660061
 21
254.7831801936645
 31
0.0
  0
ARC
  5
31D
330
1F
100
AcDbEntity
  8
CUT
100
AcDbCircle
 10
371.5334180813091
 20
254.6642211245312
 30
0.0
 40
0.4636040903260047
100
AcDbArc
 50
164.0243451957023
 51
165.1318091770779
  0
LINE
  5
31E
330
1F
100
AcDbEntity
  8
CUT
100
AcDbLine
 10
376.6038949905557
 20
247.0423153705843
 30
0.0
 11
376.6038949905557
 21
247.0423153705843
 31
0.0
  0
ARC
  5
31F
330
1F
100
AcDbEntity
  8
CUT
100
AcDbCircle
 10
373.4892329616201
 20
267.052248988664
 30
0.0
 40
20.25089042374304
100
AcDbArc
 50
270.1650351646312
 51
278.8474218124956
  0
LINE
  5
320
330
1F
100
AcDbEntity
  8
CUT
100
AcDbLine
 10
378.782648528794
 20
256.0355125626487
 30
0.0
 11
378.782648528794
 21
256.0355125626487
 31
0.0
  0
ARC
  5
321
330
1F
100
AcDbEntity
  8
CUT
100
AcDbCircle
 10
378.6758296642459
 20
255.6612527043971
 30
0.0
 40
0.3892052303372942
100
AcDbArc
 50
26.02375476203855
 51
74.07053159121317
  0
LINE
  5
322
330
1F
100
AcDbEntity
  8
CUT
100
AcDbLine
 10
379.0255742406655
 20
255.8320140659137
 30
0.0
 11
379.0255742406655
 21
255.8320140659137
 31
0.0
  0
ARC
  5
323
330
1F
100
AcDbEntity
  8
CUT
100
AcDbCircle
 10
378.6528900316584
 20
255.6505305259096
 30
0.0
 40
0.4145235758501695
100
AcDbArc
 50
24.8022586359005
 51
25.96438342337036
  0
LINE
  5
324
330
1F
100
AcDbEntity
  8
CUT
100
AcDbLine
 10
377.5136844961698
 20
256.1925032624397
 30
0.0
 11
377.5136844961698
 21
256.1925032624397
 31
0.0
  0
ARC
  5
325
330
1F
100
AcDbEntity
  8
CUT
100
AcDbCircle
 10
377.553255189167
 20
251.3028223839337
 30
0.0
 40
4.889840992646991
100
AcDbArc
 50
75.54172878184518
 51
90.46366711129541
  0
LINE
  5
326
330
1F
100
AcDbEntity
  8
CUT
100
AcDbLine
 10
378.7741269882066
 20
256.0378060186382
 30
0.0
 11
378.7741269882066
 21
256.0378060186382
 31
0.0
  0
ARC
  5
327
330
1F
100
AcDbEntity
  8
CUT
100
AcDbCircle
 10
378.6677658736963
 20
255.6256337965903
 30
0.0
 40
0.4256743207051935
100
AcDbArc
 50
74.34264035705429
 51
75.53047622084076
  0
LINE
  5
328
330
1F
100
AcDbEntity
  8
CUT
100
AcDbLine
 10
379.3051057538812
 20
255.1889286920437
 30
0.0
 11
379.3051057538812
 21
255.1889286920437
 31
0.0
  0
ARC
  5
329
330
1F
100
AcDbEntity
  8
CUT
100
AcDbCircle
 10
370.1336192482253
 20
251.457219238799
 30
0.0
 40
9.901606948716136
100
AcDbArc
 50
6.950812632386988
 51
22.14050500594356
  0
ENDSEC
  0
SECTION
  2
OBJECTS
  0
DICTIONARY
  5
C
330
0
100
AcDbDictionary
281
     1
  3
ACAD_CIP_PREVIOUS_PRODUCT_INFO
350
2AF
  3
ACAD_COLOR
350
2AA
  3
ACAD_DETAILVIEWSTYLE
350
2A6
  3
ACAD_GROUP
350
D
  3
ACAD_LAYOUT
350
1A
  3
ACAD_MATERIAL
350
43
  3
ACAD_MLEADERSTYLE
350
6B
  3
ACAD_MLINESTYLE
350
17
  3
ACAD_PLOTSETTINGS
350
19
  3
ACAD_PLOTSTYLENAME
350
E
  3
ACAD_SCALELIST
350
47
  3
ACAD_SECTIONVIEWSTYLE
350
2A7
  3
ACAD_TABLESTYLE
350
69
  3
ACAD_VISUALSTYLE
350
2A
  3
ACDB_RECOMPOSE_DATA
350
355
  3
AcDbVariableDictionary
350
263
  0
DICTIONARY
  5
338
330
10
100
AcDbDictionary
280
     1
281
     1
  3
ADSK_XREC_LAYER_RECONCILED
360
339
  0
DICTIONARY
  5
33A
330
32A
100
AcDbDictionary
280
     1
281
     1
  3
ADSK_XREC_LAYER_RECONCILED
360
33B
  0
DICTIONARY
  5
33C
330
32B
100
AcDbDictionary
280
     1
281
     1
  3
ADSK_XREC_LAYER_RECONCILED
360
33D
  0
DICTIONARY
  5
33E
330
32C
100
AcDbDictionary
280
     1
281
     1
  3
ADSK_XREC_LAYER_RECONCILED
360
33F
  0
DICTIONARY
  5
340
330
32E
100
AcDbDictionary
280
     1
281
     1
  3
ADSK_XREC_LAYER_RECONCILED
360
341
  0
DICTIONARY
  5
342
330
32F
100
AcDbDictionary
280
     1
281
     1
  3
ADSK_XREC_LAYER_RECONCILED
360
343
  0
DICTIONARY
  5
344
330
331
100
AcDbDictionary
280
     1
281
     1
  3
ADSK_XREC_LAYER_RECONCILED
360
345
  0
DICTIONARY
  5
346
330
332
100
AcDbDictionary
280
     1
281
     1
  3
ADSK_XREC_LAYER_RECONCILED
360
347
  0
DICTIONARY
  5
348
330
333
100
AcDbDictionary
280
     1
281
     1
  3
ADSK_XREC_LAYER_RECONCILED
360
349
  0
DICTIONARY
  5
34A
330
334
100
AcDbDictionary
280
     1
281
     1
  3
ADSK_XREC_LAYER_RECONCILED
360
34B
  0
DICTIONARY
  5
34C
330
335
100
AcDbDictionary
280
     1
281
     1
  3
ADSK_XREC_LAYER_RECONCILED
360
34D
  0
DICTIONARY
  5
34E
330
336
100
AcDbDictionary
280
     1
281
     1
  3
ADSK_XREC_LAYER_RECONCILED
360
34F
  0
DICTIONARY
  5
2B0
330
1F
100
AcDbDictionary
280
     1
281
     1
  3
ACAD_SORTENTS
360
2B1
  0
XRECORD
  5
2AF
102
{ACAD_REACTORS
330
C
102
}
330
C
100
AcDbXrecord
280
     1
300
ACD
300
2019
300
87084ACD_2019_0F
  0
DICTIONARY
  5
2AA
102
{ACAD_REACTORS
330
C
102
}
330
C
100
AcDbDictionary
281
     1
  0
DICTIONARY
  5
2A6
102
{ACAD_REACTORS
330
C
102
}
330
C
100
AcDbDictionary
281
     1
  3
Metric50
350
2AC
  0
DICTIONARY
  5
D
102
{ACAD_REACTORS
330
C
102
}
330
C
100
AcDbDictionary
281
     1
  3
CENTERLINE
350
24E
  3
NULOVY_BOD
350
337
  0
DICTIONARY
  5
1A
102
{ACAD_REACTORS
330
C
102
}
330
C
100
AcDbDictionary
281
     1
  3
Layout1
350
1E
  3
Layout2
350
26
  3
Model
350
22
  0
DICTIONARY
  5
43
102
{ACAD_REACTORS
330
C
102
}
330
C
100
AcDbDictionary
281
     1
  3
ByBlock
350
45
  3
ByLayer
350
44
  3
Global
350
46
  0
DICTIONARY
  5
6B
102
{ACAD_REACTORS
330
C
102
}
330
C
100
AcDbDictionary
281
     1
  3
Standard
350
6C
  0
DICTIONARY
  5
17
102
{ACAD_REACTORS
330
C
102
}
330
C
100
AcDbDictionary
281
     1
  3
Standard
350
18
  0
DICTIONARY
  5
19
102
{ACAD_REACTORS
330
C
102
}
330
C
100
AcDbDictionary
281
     1
  0
ACDBDICTIONARYWDFLT
  5
E
102
{ACAD_REACTORS
330
C
102
}
330
C
100
AcDbDictionary
281
     1
  3
Normal
350
F
100
AcDbDictionaryWithDefault
340
F
  0
DICTIONARY
  5
47
102
{ACAD_REACTORS
330
C
102
}
330
C
100
AcDbDictionary
281
     1
  3
A0
350
48
  3
A1
350
49
  3
A2
350
4A
  3
A3
350
4B
  3
A4
350
4C
  3
A5
350
4D
  3
A6
350
4E
  3
A7
350
4F
  3
A8
350
50
  3
A9
350
51
  3
B0
350
52
  3
B1
350
53
  3
B2
350
54
  3
B3
350
55
  3
B4
350
56
  3
B5
350
57
  3
B6
350
58
  3
B7
350
59
  3
B8
350
5A
  3
B9
350
5B
  3
C0
350
5C
  3
C1
350
5D
  3
C2
350
5E
  3
C3
350
5F
  3
C4
350
60
  3
C5
350
61
  3
C6
350
62
  3
C7
350
63
  3
C8
350
64
  3
C9
350
65
  3
D0
350
66
  3
D1
350
67
  3
D2
350
68
  0
DICTIONARY
  5
2A7
102
{ACAD_REACTORS
330
C
102
}
330
C
100
AcDbDictionary
281
     1
  3
Metric50
350
2AB
  0
DICTIONARY
  5
69
102
{ACAD_REACTORS
330
C
102
}
330
C
100
AcDbDictionary
281
     1
  3
Standard
350
6A
  0
DICTIONARY
  5
2A
102
{ACAD_REACTORS
330
C
102
}
330
C
100
AcDbDictionary
281
     1
  3
2dWireframe
350
2F
  3
Basic
350
32
  3
Brighten
350
36
  3
ColorChange
350
3A
  3
Conceptual
350
34
  3
Dim
350
35
  3
EdgeColorOff
350
3D
  3
Facepattern
350
39
  3
Flat
350
2B
  3
FlatWithEdges
350
2C
  3
Gouraud
350
2D
  3
GouraudWithEdges
350
2E
  3
Hidden
350
31
  3
JitterOff
350
3B
  3
Linepattern
350
38
  3
OverhangOff
350
3C
  3
Realistic
350
33
  3
Shaded
350
42
  3
Shaded with edges
350
41
  3
Shades of Gray
350
3E
  3
Sketchy
350
3F
  3
Thicken
350
37
  3
Wireframe
350
30
  3
X-Ray
350
40
  0
XRECORD
  5
355
102
{ACAD_REACTORS
330
C
102
}
330
C
100
AcDbXrecord
280
     1
 90
        1
330
6A
  0
DICTIONARY
  5
263
102
{ACAD_REACTORS
330
C
102
}
330
C
100
AcDbDictionary
281
     1
  3
CANNOSCALE
350
264
  3
CMLEADERSTYLE
350
2A5
  3
CTABLESTYLE
350
2A4
  3
CVIEWDETAILSTYLE
350
350
  3
CVIEWSECTIONSTYLE
350
351
  3
MSLTSCALE
350
265
  3
XCLIPFRAME
350
352
  0
XRECORD
  5
339
102
{ACAD_REACTORS
330
338
102
}
330
338
100
AcDbXrecord
280
     1
290
     1
  0
XRECORD
  5
33B
102
{ACAD_REACTORS
330
33A
102
}
330
33A
100
AcDbXrecord
280
     1
290
     1
  0
XRECORD
  5
33D
102
{ACAD_REACTORS
330
33C
102
}
330
33C
100
AcDbXrecord
280
     1
290
     1
  0
XRECORD
  5
33F
102
{ACAD_REACTORS
330
33E
102
}
330
33E
100
AcDbXrecord
280
     1
290
     1
  0
XRECORD
  5
341
102
{ACAD_REACTORS
330
340
102
}
330
340
100
AcDbXrecord
280
     1
290
     1
  0
XRECORD
  5
343
102
{ACAD_REACTORS
330
342
102
}
330
342
100
AcDbXrecord
280
     1
290
     1
  0
XRECORD
  5
345
102
{ACAD_REACTORS
330
344
102
}
330
344
100
AcDbXrecord
280
     1
290
     1
  0
XRECORD
  5
347
102
{ACAD_REACTORS
330
346
102
}
330
346
100
AcDbXrecord
280
     1
290
     1
  0
XRECORD
  5
349
102
{ACAD_REACTORS
330
348
102
}
330
348
100
AcDbXrecord
280
     1
290
     1
  0
XRECORD
  5
34B
102
{ACAD_REACTORS
330
34A
102
}
330
34A
100
AcDbXrecord
280
     1
290
     1
  0
XRECORD
  5
34D
102
{ACAD_REACTORS
330
34C
102
}
330
34C
100
AcDbXrecord
280
     1
290
     1
  0
XRECORD
  5
34F
102
{ACAD_REACTORS
330
34E
102
}
330
34E
100
AcDbXrecord
280
     1
290
     1
  0
SORTENTSTABLE
  5
2B1
102
{ACAD_REACTORS
330
2B0
102
}
330
2B0
100
AcDbSortentsTable
330
1F
331
2B2
  5
1D3
331
2B3
  5
21E
331
2B4
  5
236
331
2B5
  5
2B2
331
2B6
  5
2B3
331
2B7
  5
2BC
331
2B8
  5
2BD
331
2B9
  5
2BE
331
2BA
  5
2BF
331
2BB
  5
2C0
331
2BC
  5
2C3
331
2BD
  5
2C4
331
2BE
  5
2C5
331
2BF
  5
2C6
331
2C0
  5
2C7
331
2C1
  5
2C8
331
2C2
  5
2C9
331
2C3
  5
2B5
331
2C4
  5
2B6
331
2C5
  5
2B7
331
2C6
  5
2B8
331
2C7
  5
2B9
331
2C8
  5
2BA
331
2C9
  5
2BB
  0
ACDBDETAILVIEWSTYLE
  5
2AC
102
{ACAD_XDICTIONARY
360
389
102
}
102
{ACAD_REACTORS
330
2A6
102
}
330
2A6
100
AcDbModelDocViewStyle
 70
     0
  3
Metric50
290
     0
100
AcDbDetailViewStyle
 70
     0
 71
     0
 90
        3
 71
     1
340
11
 62
   256
 40
5.0
340
0
 62
   256
 40
5.0
300

 40
0.0
280
     1
 71
     2
340
16
 90
       25
 62
   256
 71
     3
340
11
 62
   256
 40
5.0
 90
        0
 40
15.0
 90
        1
300
%<\AcVar ViewDetailId>% (%<\AcVar ViewScale \f "%sn">%)
 71
     4
340
16
 90
       25
 62
   256
340
16
 90
       25
 62
   256
280
     0
  0
GROUP
  5
24E
102
{ACAD_REACTORS
330
D
102
}
330
D
100
AcDbGroup
300

 70
     0
 71
     1
340
E4
  0
GROUP
  5
337
102
{ACAD_REACTORS
330
D
102
}
330
D
100
AcDbGroup
300

 70
     0
 71
     1
340
73
  0
LAYOUT
  5
1E
102
{ACAD_REACTORS
330
1A
102
}
330
1A
100
AcDbPlotSettings
  1

  2
none_device
  4

  6

 40
0.0
 41
0.0
 42
0.0
 43
0.0
 44
0.0
 45
0.0
 46
0.0
 47
0.0
 48
0.0
 49
0.0
140
0.0
141
0.0
142
1.0
143
1.0
 70
   688
 72
     0
 73
     0
 74
     5
  7

 75
    16
147
1.0
 76
     0
 77
     2
 78
   300
148
0.0
149
0.0
100
AcDbLayout
  1
Layout1
 70
     1
 71
     1
 10
-0.5
 20
-0.5
 11
5.0
 21
5.0
 12
0.0
 22
0.0
 32
0.0
 14
-0.5
 24
-0.5
 34
-0.5
 15
5.0
 25
5.0
 35
5.0
146
0.0
 13
0.0
 23
0.0
 33
0.0
 16
1.0
 26
0.0
 36
0.0
 17
0.0
 27
1.0
 37
0.0
 76
     0
330
1B
  0
LAYOUT
  5
26
102
{ACAD_REACTORS
330
1A
102
}
330
1A
100
AcDbPlotSettings
  1

  2
none_device
  4

  6

 40
0.0
 41
0.0
 42
0.0
 43
0.0
 44
0.0
 45
0.0
 46
0.0
 47
0.0
 48
0.0
 49
0.0
140
0.0
141
0.0
142
1.0
143
1.0
 70
   688
 72
     0
 73
     0
 74
     5
  7

 75
    16
147
1.0
 76
     0
 77
     2
 78
   300
148
0.0
149
0.0
100
AcDbLayout
  1
Layout2
 70
     1
 71
     2
 10
0.0
 20
0.0
 11
0.0
 21
0.0
 12
0.0
 22
0.0
 32
0.0
 14
0.0
 24
0.0
 34
0.0
 15
0.0
 25
0.0
 35
0.0
146
0.0
 13
0.0
 23
0.0
 33
0.0
 16
1.0
 26
0.0
 36
0.0
 17
0.0
 27
1.0
 37
0.0
 76
     0
330
23
  0
LAYOUT
  5
22
102
{ACAD_REACTORS
330
1A
102
}
330
1A
100
AcDbPlotSettings
  1

  2
none_device
  4
Letter_(8.50_x_11.00_Inches)
  6

 40
6.349999999999999
 41
6.349999999999999
 42
6.350005
 43
6.350005
 44
215.9
 45
279.4
 46
0.0
 47
0.0
 48
0.0
 49
0.0
140
0.0
141
0.0
142
1.0
143
1.0
 70
  1712
 72
     0
 73
     0
 74
     0
  7

 75
     0
147
1.0
 76
     0
 77
     2
 78
   300
148
0.0
149
0.0
100
AcDbLayout
  1
Model
 70
     1
 71
     0
 10
-0.5
 20
-0.5
 11
5.0
 21
5.0
 12
0.0
 22
0.0
 32
0.0
 14
-0.5
 24
-0.5
 34
-0.5
 15
5.0
 25
5.0
 35
5.0
146
0.0
 13
0.0
 23
0.0
 33
0.0
 16
1.0
 26
0.0
 36
0.0
 17
0.0
 27
1.0
 37
0.0
 76
     0
330
1F
331
29
  0
MATERIAL
  5
45
102
{ACAD_XDICTIONARY
360
299
102
}
102
{ACAD_REACTORS
330
43
102
}
330
43
100
AcDbMaterial
  1
ByBlock
  0
MATERIAL
  5
44
102
{ACAD_XDICTIONARY
360
297
102
}
102
{ACAD_REACTORS
330
43
102
}
330
43
100
AcDbMaterial
  1
ByLayer
  0
MATERIAL
  5
46
102
{ACAD_XDICTIONARY
360
29B
102
}
102
{ACAD_REACTORS
330
43
102
}
330
43
100
AcDbMaterial
  1
Global
  0
MLEADERSTYLE
  5
6C
102
{ACAD_REACTORS
330
6B
102
}
330
6B
100
AcDbMLeaderStyle
170
     2
171
     1
172
     0
 90
        2
 40
0.0
 41
0.0
173
     1
 91
-1056964608
340
14
 92
       -2
290
     1
 42
0.09
291
     1
 43
0.36
  3
Standard
 44
0.18
300

342
11
174
     1
178
     6
175
     1
176
     0
 93
-1056964608
 45
0.18
292
     0
297
     0
 46
0.18
 94
-1056964608
 47
1.0
 49
1.0
140
1.0
293
     1
141
0.0
294
     1
177
     0
142
1.0
295
     0
296
     0
143
0.125
1001
ACAD_MLEADERVER
1070
     2
  0
MLINESTYLE
  5
18
102
{ACAD_REACTORS
330
17
102
}
330
17
100
AcDbMlineStyle
  2
STANDARD
 70
     0
  3

 62
   256
 51
90.0
 52
90.0
 71
     2
 49
0.5
 62
   256
  6
BYLAYER
 49
-0.5
 62
   256
  6
BYLAYER
  0
ACDBPLACEHOLDER
  5
F
102
{ACAD_REACTORS
330
E
102
}
330
E
  0
SCALE
  5
48
102
{ACAD_REACTORS
330
47
102
}
330
47
100
AcDbScale
 70
     0
300
1:1
140
1.0
141
1.0
290
     1
  0
SCALE
  5
49
102
{ACAD_REACTORS
330
47
102
}
330
47
100
AcDbScale
 70
     0
300
1:2
140
1.0
141
2.0
290
     0
  0
SCALE
  5
4A
102
{ACAD_REACTORS
330
47
102
}
330
47
100
AcDbScale
 70
     0
300
1:4
140
1.0
141
4.0
290
     0
  0
SCALE
  5
4B
102
{ACAD_REACTORS
330
47
102
}
330
47
100
AcDbScale
 70
     0
300
1:5
140
1.0
141
5.0
290
     0
  0
SCALE
  5
4C
102
{ACAD_REACTORS
330
47
102
}
330
47
100
AcDbScale
 70
     0
300
1:8
140
1.0
141
8.0
290
     0
  0
SCALE
  5
4D
102
{ACAD_REACTORS
330
47
102
}
330
47
100
AcDbScale
 70
     0
300
1:10
140
1.0
141
10.0
290
     0
  0
SCALE
  5
4E
102
{ACAD_REACTORS
330
47
102
}
330
47
100
AcDbScale
 70
     0
300
1:16
140
1.0
141
16.0
290
     0
  0
SCALE
  5
4F
102
{ACAD_REACTORS
330
47
102
}
330
47
100
AcDbScale
 70
     0
300
1:20
140
1.0
141
20.0
290
     0
  0
SCALE
  5
50
102
{ACAD_REACTORS
330
47
102
}
330
47
100
AcDbScale
 70
     0
300
1:30
140
1.0
141
30.0
290
     0
  0
SCALE
  5
51
102
{ACAD_REACTORS
330
47
102
}
330
47
100
AcDbScale
 70
     0
300
1:40
140
1.0
141
40.0
290
     0
  0
SCALE
  5
52
102
{ACAD_REACTORS
330
47
102
}
330
47
100
AcDbScale
 70
     0
300
1:50
140
1.0
141
50.0
290
     0
  0
SCALE
  5
53
102
{ACAD_REACTORS
330
47
102
}
330
47
100
AcDbScale
 70
     0
300
1:100
140
1.0
141
100.0
290
     0
  0
SCALE
  5
54
102
{ACAD_REACTORS
330
47
102
}
330
47
100
AcDbScale
 70
     0
300
2:1
140
2.0
141
1.0
290
     0
  0
SCALE
  5
55
102
{ACAD_REACTORS
330
47
102
}
330
47
100
AcDbScale
 70
     0
300
4:1
140
4.0
141
1.0
290
     0
  0
SCALE
  5
56
102
{ACAD_REACTORS
330
47
102
}
330
47
100
AcDbScale
 70
     0
300
8:1
140
8.0
141
1.0
290
     0
  0
SCALE
  5
57
102
{ACAD_REACTORS
330
47
102
}
330
47
100
AcDbScale
 70
     0
300
10:1
140
10.0
141
1.0
290
     0
  0
SCALE
  5
58
102
{ACAD_REACTORS
330
47
102
}
330
47
100
AcDbScale
 70
     0
300
100:1
140
100.0
141
1.0
290
     0
  0
SCALE
  5
59
102
{ACAD_REACTORS
330
47
102
}
330
47
100
AcDbScale
 70
     0
300
1/128" = 1'-0"
140
0.007812
141
12.0
290
     0
  0
SCALE
  5
5A
102
{ACAD_REACTORS
330
47
102
}
330
47
100
AcDbScale
 70
     0
300
1/64" = 1'-0"
140
0.015625
141
12.0
290
     0
  0
SCALE
  5
5B
102
{ACAD_REACTORS
330
47
102
}
330
47
100
AcDbScale
 70
     0
300
1/32" = 1'-0"
140
0.03125
141
12.0
290
     0
  0
SCALE
  5
5C
102
{ACAD_REACTORS
330
47
102
}
330
47
100
AcDbScale
 70
     0
300
1/16" = 1'-0"
140
0.0625
141
12.0
290
     0
  0
SCALE
  5
5D
102
{ACAD_REACTORS
330
47
102
}
330
47
100
AcDbScale
 70
     0
300
3/32" = 1'-0"
140
0.09375
141
12.0
290
     0
  0
SCALE
  5
5E
102
{ACAD_REACTORS
330
47
102
}
330
47
100
AcDbScale
 70
     0
300
1/8" = 1'-0"
140
0.125
141
12.0
290
     0
  0
SCALE
  5
5F
102
{ACAD_REACTORS
330
47
102
}
330
47
100
AcDbScale
 70
     0
300
3/16" = 1'-0"
140
0.1875
141
12.0
290
     0
  0
SCALE
  5
60
102
{ACAD_REACTORS
330
47
102
}
330
47
100
AcDbScale
 70
     0
300
1/4" = 1'-0"
140
0.25
141
12.0
290
     0
  0
SCALE
  5
61
102
{ACAD_REACTORS
330
47
102
}
330
47
100
AcDbScale
 70
     0
300
3/8" = 1'-0"
140
0.375
141
12.0
290
     0
  0
SCALE
  5
62
102
{ACAD_REACTORS
330
47
102
}
330
47
100
AcDbScale
 70
     0
300
1/2" = 1'-0"
140
0.5
141
12.0
290
     0
  0
SCALE
  5
63
102
{ACAD_REACTORS
330
47
102
}
330
47
100
AcDbScale
 70
     0
300
3/4" = 1'-0"
140
0.75
141
12.0
290
     0
  0
SCALE
  5
64
102
{ACAD_REACTORS
330
47
102
}
330
47
100
AcDbScale
 70
     0
300
1" = 1'-0"
140
1.0
141
12.0
290
     0
  0
SCALE
  5
65
102
{ACAD_REACTORS
330
47
102
}
330
47
100
AcDbScale
 70
     0
300
1-1/2" = 1'-0"
140
1.5
141
12.0
290
     0
  0
SCALE
  5
66
102
{ACAD_REACTORS
330
47
102
}
330
47
100
AcDbScale
 70
     0
300
3" = 1'-0"
140
3.0
141
12.0
290
     0
  0
SCALE
  5
67
102
{ACAD_REACTORS
330
47
102
}
330
47
100
AcDbScale
 70
     0
300
6" = 1'-0"
140
6.0
141
12.0
290
     0
  0
SCALE
  5
68
102
{ACAD_REACTORS
330
47
102
}
330
47
100
AcDbScale
 70
     0
300
1'-0" = 1'-0"
140
12.0
141
12.0
290
     0
  0
ACDBSECTIONVIEWSTYLE
  5
2AB
102
{ACAD_XDICTIONARY
360
387
102
}
102
{ACAD_REACTORS
330
2A7
102
}
330
2A7
100
AcDbModelDocViewStyle
 70
     0
  3
Metric50
290
     0
100
AcDbSectionViewStyle
 70
     0
 71
     0
 90
      102
 71
     1
340
11
 62
   256
 40
5.0
340
0
340
0
 62
   256
 40
5.0
300
I, O, Q, S, X, Z
 40
10.0
 90
        0
 40
2.5
 90
        0
 71
     2
340
16
 90
       25
 62
   256
340
16
 90
       50
 62
   256
 40
5.0
 40
2.5
 40
5.0
 71
     3
340
11
 62
   256
 40
5.0
 90
        0
 40
15.0
 90
        1
300
%<\AcVar ViewSectionStartId>%-%<\AcVar ViewSectionEndId>% (%<\AcVar ViewScale \f "%sn">%)
 71
     4
 62
   256
 62
   257
300
ANSI31
 40
1.0
 90
        0
290
     0
290
     0
 90
        6
 40
0.0
 40
1.570796326794896
 40
0.2617993877991494
 40
1.308996938995747
 40
-0.2617993877991494
 40
1.832595714594046
  0
TABLESTYLE
  5
6A
102
{ACAD_XDICTIONARY
360
29D
102
}
102
{ACAD_REACTORS
330
69
102
}
330
69
100
AcDbTableStyle
  3
Standard
 70
     0
 71
     0
 40
0.06
 41
0.06
280
     0
281
     0
  7
Standard
140
0.18
170
     2
 62
     0
 63
     7
283
     0
274
    -2
284
     1
 64
     0
275
    -2
285
     1
 65
     0
276
    -2
286
     1
 66
     0
277
    -2
287
     1
 67
     0
278
    -2
288
     1
 68
     0
279
    -2
289
     1
 69
     0
  7
Standard
140
0.25
170
     5
 62
     0
 63
     7
283
     0
274
    -2
284
     1
 64
     0
275
    -2
285
     1
 65
     0
276
    -2
286
     1
 66
     0
277
    -2
287
     1
 67
     0
278
    -2
288
     1
 68
     0
279
    -2
289
     1
 69
     0
  7
Standard
140
0.18
170
     5
 62
     0
 63
     7
283
     0
274
    -2
284
     1
 64
     0
275
    -2
285
     1
 65
     0
276
    -2
286
     1
 66
     0
277
    -2
287
     1
 67
     0
278
    -2
288
     1
 68
     0
279
    -2
289
     1
 69
     0
  0
VISUALSTYLE
  5
2F
102
{ACAD_XDICTIONARY
360
35E
102
}
102
{ACAD_REACTORS
330
2A
102
}
330
2A
100
AcDbVisualStyle
  2

 70
     4
 71
     0
 72
     2
 73
     0
 90
        0
 40
-0.6
 41
-30.0
 62
     5
 63
     7
421
 16777215
 74
     1
 91
        4
 64
     7
 65
   257
 75
     1
175
     1
 42
1.0
 92
        0
 66
   257
 43
1.0
 76
     1
 77
     6
 78
     2
 67
     7
 79
     5
170
     0
171
     0
290
     0
174
     0
 93
        1
 44
0.0
173
     0
291
     0
 45
0.0
1001
ACAD
1000
AcDbSavedByObjectVersion
1070
     0
  0
VISUALSTYLE
  5
32
102
{ACAD_XDICTIONARY
360
364
102
}
102
{ACAD_REACTORS
330
2A
102
}
330
2A
100
AcDbVisualStyle
  2

 70
     7
 71
     1
 72
     0
 73
     1
 90
        0
 40
-0.6
 41
-30.0
 62
     5
 63
     7
421
 16777215
 74
     0
 91
        4
 64
     7
 65
   257
 75
     1
175
     1
 42
1.0
 92
        8
 66
     7
 43
1.0
 76
     1
 77
     6
 78
     2
 67
     7
 79
     5
170
     0
171
     0
290
     0
174
     0
 93
        1
 44
0.0
173
     0
291
     1
 45
0.0
1001
ACAD
1000
AcDbSavedByObjectVersion
1070
     0
  0
VISUALSTYLE
  5
36
102
{ACAD_XDICTIONARY
360
36C
102
}
102
{ACAD_REACTORS
330
2A
102
}
330
2A
100
AcDbVisualStyle
  2

 70
    12
 71
     2
 72
     2
 73
     0
 90
        0
 40
-0.6
 41
-30.0
 62
     5
 63
     7
421
 16777215
 74
     1
 91
        4
 64
     7
 65
   257
 75
     1
175
     1
 42
1.0
 92
        8
 66
     7
 43
1.0
 76
     1
 77
     6
 78
     2
 67
     7
 79
     5
170
     0
171
     0
290
     0
174
     0
 93
        1
 44
50.0
173
     0
291
     1
 45
0.0
1001
ACAD
1000
AcDbSavedByObjectVersion
1070
     0
  0
VISUALSTYLE
  5
3A
102
{ACAD_XDICTIONARY
360
374
102
}
102
{ACAD_REACTORS
330
2A
102
}
330
2A
100
AcDbVisualStyle
  2

 70
    16
 71
     2
 72
     2
 73
     3
 90
        0
 40
-0.6
 41
-30.0
 62
     5
 63
     8
421
  8421504
 74
     1
 91
        4
 64
     7
 65
   257
 75
     1
175
     1
 42
1.0
 92
        8
 66
     8
424
  8421504
 43
1.0
 76
     1
 77
     6
 78
     2
 67
     7
 79
     5
170
     0
171
     0
290
     0
174
     0
 93
        1
 44
0.0
173
     0
291
     1
 45
0.0
1001
ACAD
1000
AcDbSavedByObjectVersion
1070
     0
  0
VISUALSTYLE
  5
34
102
{ACAD_XDICTIONARY
360
368
102
}
102
{ACAD_REACTORS
330
2A
102
}
330
2A
100
AcDbVisualStyle
  2

 70
     9
 71
     3
 72
     2
 73
     0
 90
        0
 40
-0.6
 41
-30.0
 62
     5
 63
     7
421
 16777215
 74
     2
 91
        2
 64
     7
 65
   257
 75
     1
175
     1
 42
179.0
 92
        8
 66
     7
 43
1.0
 76
     1
 77
     6
 78
     2
 67
     7
 79
     3
170
     0
171
     0
290
     0
174
     0
 93
        1
 44
0.0
173
     0
291
     0
 45
0.0
1001
ACAD
1000
AcDbSavedByObjectVersion
1070
     0
  0
VISUALSTYLE
  5
35
102
{ACAD_XDICTIONARY
360
36A
102
}
102
{ACAD_REACTORS
330
2A
102
}
330
2A
100
AcDbVisualStyle
  2

 70
    11
 71
     2
 72
     2
 73
     0
 90
        0
 40
-0.6
 41
-30.0
 62
     5
 63
     7
421
 16777215
 74
     1
 91
        4
 64
     7
 65
   257
 75
     1
175
     1
 42
1.0
 92
        8
 66
     7
 43
1.0
 76
     1
 77
     6
 78
     2
 67
     7
 79
     5
170
     0
171
     0
290
     0
174
     0
 93
        1
 44
-50.0
173
     0
291
     1
 45
0.0
1001
ACAD
1000
AcDbSavedByObjectVersion
1070
     0
  0
VISUALSTYLE
  5
3D
102
{ACAD_XDICTIONARY
360
37A
102
}
102
{ACAD_REACTORS
330
2A
102
}
330
2A
100
AcDbVisualStyle
  2

 70
    22
 71
     2
 72
     2
 73
     0
 90
        0
 40
-0.6
 41
-30.0
 62
     5
 63
     7
421
 16777215
 74
     1
 91
        4
 64
     7
 65
   257
 75
     1
175
     1
 42
1.0
 92
        8
 66
     7
 43
1.0
 76
     1
 77
     6
 78
     2
 67
     7
 79
     5
170
     0
171
     0
290
     0
174
     0
 93
        1
 44
0.0
173
     0
291
     1
 45
0.0
1001
ACAD
1000
AcDbSavedByObjectVersion
1070
     0
  0
VISUALSTYLE
  5
39
102
{ACAD_XDICTIONARY
360
372
102
}
102
{ACAD_REACTORS
330
2A
102
}
330
2A
100
AcDbVisualStyle
  2

 70
    15
 71
     2
 72
     2
 73
     0
 90
        0
 40
-0.6
 41
-30.0
 62
     5
 63
     7
421
 16777215
 74
     1
 91
        4
 64
     7
 65
   257
 75
     1
175
     1
 42
1.0
 92
        8
 66
     7
 43
1.0
 76
     1
 77
     6
 78
     2
 67
     7
 79
     5
170
     0
171
     0
290
     0
174
     0
 93
        1
 44
0.0
173
     0
291
     1
 45
0.0
1001
ACAD
1000
AcDbSavedByObjectVersion
1070
     0
  0
VISUALSTYLE
  5
2B
102
{ACAD_XDICTIONARY
360
356
102
}
102
{ACAD_REACTORS
330
2A
102
}
330
2A
100
AcDbVisualStyle
  2

 70
     0
 71
     2
 72
     1
 73
     1
 90
        2
 40
-0.6
 41
30.0
 62
     5
 63
     7
421
 16777215
 74
     0
 91
        0
 64
     7
 65
   257
 75
     1
175
     1
 42
1.0
 92
        8
 66
     7
 43
1.0
 76
     1
 77
     6
 78
     2
 67
     7
 79
     5
170
     0
171
     0
290
     0
174
     0
 93
       13
 44
0.0
173
     0
291
     1
 45
0.0
1001
ACAD
1000
AcDbSavedByObjectVersion
1070
     0
  0
VISUALSTYLE
  5
2C
102
{ACAD_XDICTIONARY
360
358
102
}
102
{ACAD_REACTORS
330
2A
102
}
330
2A
100
AcDbVisualStyle
  2

 70
     1
 71
     2
 72
     1
 73
     1
 90
        2
 40
-0.6
 41
30.0
 62
     5
 63
     7
421
 16777215
 74
     1
 91
        0
 64
     7
 65
   257
 75
     1
175
     1
 42
1.0
 92
        0
 66
   257
 43
1.0
 76
     1
 77
     6
 78
     2
 67
     7
 79
     5
170
     0
171
     0
290
     0
174
     0
 93
       13
 44
0.0
173
     0
291
     1
 45
0.0
1001
ACAD
1000
AcDbSavedByObjectVersion
1070
     0
  0
VISUALSTYLE
  5
2D
102
{ACAD_XDICTIONARY
360
35A
102
}
102
{ACAD_REACTORS
330
2A
102
}
330
2A
100
AcDbVisualStyle
  2

 70
     2
 71
     2
 72
     2
 73
     1
 90
        2
 40
-0.6
 41
30.0
 62
     5
 63
     7
421
 16777215
 74
     0
 91
        0
 64
     7
 65
   257
 75
     1
175
     1
 42
1.0
 92
        0
 66
     7
 43
1.0
 76
     1
 77
     6
 78
     2
 67
     7
 79
     5
170
     0
171
     0
290
     0
174
     0
 93
       13
 44
0.0
173
     0
291
     1
 45
0.0
1001
ACAD
1000
AcDbSavedByObjectVersion
1070
     0
  0
VISUALSTYLE
  5
2E
102
{ACAD_XDICTIONARY
360
35C
102
}
102
{ACAD_REACTORS
330
2A
102
}
330
2A
100
AcDbVisualStyle
  2

 70
     3
 71
     2
 72
     2
 73
     1
 90
        2
 40
-0.6
 41
30.0
 62
     5
 63
     7
421
 16777215
 74
     1
 91
        0
 64
     7
 65
   257
 75
     1
175
     1
 42
1.0
 92
        0
 66
   257
 43
1.0
 76
     1
 77
     6
 78
     2
 67
     7
 79
     5
170
     0
171
     0
290
     0
174
     0
 93
       13
 44
0.0
173
     0
291
     1
 45
0.0
1001
ACAD
1000
AcDbSavedByObjectVersion
1070
     0
  0
VISUALSTYLE
  5
31
102
{ACAD_XDICTIONARY
360
362
102
}
102
{ACAD_REACTORS
330
2A
102
}
330
2A
100
AcDbVisualStyle
  2

 70
     6
 71
     1
 72
     2
 73
     2
 90
        0
 40
-0.6
 41
-30.0
 62
     5
 63
     7
421
 16777215
 74
     2
 91
        2
 64
     7
 65
   257
 75
     2
175
     1
 42
40.0
 92
        0
 66
   257
 43
1.0
 76
     1
 77
     6
 78
     2
 67
     7
 79
     3
170
     0
171
     0
290
     0
174
     0
 93
        1
 44
0.0
173
     0
291
     0
 45
0.0
1001
ACAD
1000
AcDbSavedByObjectVersion
1070
     0
  0
VISUALSTYLE
  5
3B
102
{ACAD_XDICTIONARY
360
376
102
}
102
{ACAD_REACTORS
330
2A
102
}
330
2A
100
AcDbVisualStyle
  2

 70
    20
 71
     2
 72
     2
 73
     0
 90
        0
 40
-0.6
 41
-30.0
 62
     5
 63
     7
421
 16777215
 74
     1
 91
        4
 64
     7
 65
   257
 75
     1
175
     1
 42
1.0
 92
       10
 66
     7
 43
1.0
 76
     1
 77
     6
 78
     2
 67
     7
 79
     5
170
     0
171
     0
290
     0
174
     0
 93
        1
 44
0.0
173
     0
291
     1
 45
0.0
1001
ACAD
1000
AcDbSavedByObjectVersion
1070
     0
  0
VISUALSTYLE
  5
38
102
{ACAD_XDICTIONARY
360
370
102
}
102
{ACAD_REACTORS
330
2A
102
}
330
2A
100
AcDbVisualStyle
  2

 70
    14
 71
     2
 72
     2
 73
     0
 90
        0
 40
-0.6
 41
-30.0
 62
     5
 63
     7
421
 16777215
 74
     1
 91
        4
 64
     7
 65
   257
 75
     7
175
     7
 42
1.0
 92
        8
 66
     7
 43
1.0
 76
     1
 77
     6
 78
     2
 67
     7
 79
     5
170
     0
171
     0
290
     0
174
     0
 93
        1
 44
0.0
173
     0
291
     1
 45
0.0
1001
ACAD
1000
AcDbSavedByObjectVersion
1070
     0
  0
VISUALSTYLE
  5
3C
102
{ACAD_XDICTIONARY
360
378
102
}
102
{ACAD_REACTORS
330
2A
102
}
330
2A
100
AcDbVisualStyle
  2

 70
    21
 71
     2
 72
     2
 73
     0
 90
        0
 40
-0.6
 41
-30.0
 62
     5
 63
     7
421
 16777215
 74
     1
 91
        4
 64
     7
 65
   257
 75
     1
175
     1
 42
1.0
 92
        9
 66
     7
 43
1.0
 76
     1
 77
     6
 78
     2
 67
     7
 79
     5
170
     0
171
     0
290
     0
174
     0
 93
        1
 44
0.0
173
     0
291
     1
 45
0.0
1001
ACAD
1000
AcDbSavedByObjectVersion
1070
     0
  0
VISUALSTYLE
  5
33
102
{ACAD_XDICTIONARY
360
366
102
}
102
{ACAD_REACTORS
330
2A
102
}
330
2A
100
AcDbVisualStyle
  2

 70
     8
 71
     2
 72
     3
 73
     0
 90
        2
 40
-0.6
 41
30.0
 62
     5
 63
     7
421
 16777215
 74
     0
 91
        0
 64
     7
 65
   257
 75
     1
175
     1
 42
1.0
 92
        8
 66
   257
 43
1.0
 76
     1
 77
     6
 78
     2
 67
     7
 79
     3
170
     0
171
     0
290
     0
174
     0
 93
       13
 44
0.0
173
     0
291
     0
 45
0.0
1001
ACAD
1000
AcDbSavedByObjectVersion
1070
     0
  0
VISUALSTYLE
  5
42
102
{ACAD_XDICTIONARY
360
384
102
}
102
{ACAD_REACTORS
330
2A
102
}
330
2A
100
AcDbVisualStyle
  2

 70
    27
 71
     2
 72
     2
 73
     1
 90
        2
 40
-0.6
 41
30.0
 62
     5
 63
     7
421
 16777215
 74
     0
 91
        4
 64
     7
 65
   257
 75
     1
175
     1
 42
1.0
 92
        8
 66
   257
 43
1.0
 76
     1
 77
     6
 78
     2
 67
     8
425
  7895160
 79
     3
170
     0
171
     0
290
     0
174
     0
 93
        5
 44
0.0
173
     0
291
     0
 45
0.0
1001
ACAD
1000
AcDbSavedByObjectVersion
1070
     0
  0
VISUALSTYLE
  5
41
102
{ACAD_XDICTIONARY
360
382
102
}
102
{ACAD_REACTORS
330
2A
102
}
330
2A
100
AcDbVisualStyle
  2

 70
    26
 71
     2
 72
     2
 73
     1
 90
        2
 40
-0.6
 41
30.0
 62
     5
 63
     7
421
 16777215
 74
     1
 91
       10
 64
     7
 65
   257
 75
     2
175
     1
 42
1.0
 92
        8
 66
   257
 43
1.0
 76
     1
 77
     6
 78
     2
 67
     7
 79
     3
170
     0
171
     0
290
     0
174
     0
 93
        5
 44
0.0
173
     0
291
     0
 45
0.0
1001
ACAD
1000
AcDbSavedByObjectVersion
1070
     0
  0
VISUALSTYLE
  5
3E
102
{ACAD_XDICTIONARY
360
37C
102
}
102
{ACAD_REACTORS
330
2A
102
}
330
2A
100
AcDbVisualStyle
  2

 70
    23
 71
     2
 72
     2
 73
     3
 90
        0
 40
-0.6
 41
-30.0
 62
     5
 63
     7
421
 16777215
 74
     2
 91
        2
 64
     7
 65
     7
 75
     1
175
     1
 42
40.0
 92
        8
 66
     7
 43
1.0
 76
     1
 77
     6
 78
     2
 67
     7
 79
     3
170
     0
171
     0
290
     0
174
     0
 93
        1
 44
0.0
173
     0
291
     0
 45
0.0
1001
ACAD
1000
AcDbSavedByObjectVersion
1070
     0
  0
VISUALSTYLE
  5
3F
102
{ACAD_XDICTIONARY
360
37E
102
}
102
{ACAD_REACTORS
330
2A
102
}
330
2A
100
AcDbVisualStyle
  2

 70
    24
 71
     1
 72
     2
 73
     2
 90
        0
 40
-0.6
 41
-30.0
 62
     5
 63
     7
421
 16777215
 74
     2
 91
        2
 64
     7
 65
     7
 75
     1
175
     1
 42
40.0
 92
       11
 66
     7
 43
1.0
 76
     1
 77
     6
 78
     2
 67
     7
 79
     6
170
     0
171
     0
290
     0
174
     0
 93
        1
 44
0.0
173
     0
291
     0
 45
0.0
1001
ACAD
1000
AcDbSavedByObjectVersion
1070
     0
  0
VISUALSTYLE
  5
37
102
{ACAD_XDICTIONARY
360
36E
102
}
102
{ACAD_REACTORS
330
2A
102
}
330
2A
100
AcDbVisualStyle
  2

 70
    13
 71
     2
 72
     2
 73
     0
 90
        0
 40
-0.6
 41
-30.0
 62
     5
 63
     7
421
 16777215
 74
     1
 91
        4
 64
     7
 65
   257
 75
     1
175
     1
 42
1.0
 92
       12
 66
     7
 43
1.0
 76
     1
 77
     6
 78
     2
 67
     7
 79
     5
170
     0
171
     0
290
     0
174
     0
 93
        1
 44
0.0
173
     0
291
     1
 45
0.0
1001
ACAD
1000
AcDbSavedByObjectVersion
1070
     0
  0
VISUALSTYLE
  5
30
102
{ACAD_XDICTIONARY
360
360
102
}
102
{ACAD_REACTORS
330
2A
102
}
330
2A
100
AcDbVisualStyle
  2

 70
     5
 71
     0
 72
     2
 73
     0
 90
        0
 40
-0.6
 41
-30.0
 62
     5
 63
     7
421
 16777215
 74
     1
 91
        4
 64
     7
 65
   257
 75
     1
175
     1
 42
1.0
 92
        0
 66
   257
 43
1.0
 76
     1
 77
     6
 78
     2
 67
     7
 79
     3
170
     0
171
     0
290
     0
174
     0
 93
        1
 44
0.0
173
     0
291
     0
 45
0.0
1001
ACAD
1000
AcDbSavedByObjectVersion
1070
     0
  0
VISUALSTYLE
  5
40
102
{ACAD_XDICTIONARY
360
380
102
}
102
{ACAD_REACTORS
330
2A
102
}
330
2A
100
AcDbVisualStyle
  2

 70
    25
 71
     2
 72
     2
 73
     1
 90
        1
 40
0.5
 41
-30.0
 62
     5
 63
     7
421
 16777215
 74
     1
 91
        0
 64
     7
 65
   257
 75
     1
175
     1
 42
1.0
 92
        8
 66
     7
 43
1.0
 76
     1
 77
     6
 78
     2
 67
     7
 79
     3
170
     0
171
     0
290
     0
174
     0
 93
       13
 44
0.0
173
     0
291
     0
 45
0.0
1001
ACAD
1000
AcDbSavedByObjectVersion
1070
     0
  0
DICTIONARYVAR
  5
264
102
{ACAD_REACTORS
330
263
102
}
330
263
100
DictionaryVariables
280
     0
  1
1:1
  0
DICTIONARYVAR
  5
2A5
102
{ACAD_REACTORS
330
263
102
}
330
263
100
DictionaryVariables
280
     0
  1
STANDARD
  0
DICTIONARYVAR
  5
2A4
102
{ACAD_REACTORS
330
263
102
}
330
263
100
DictionaryVariables
280
     0
  1
STANDARD
  0
DICTIONARYVAR
  5
350
102
{ACAD_REACTORS
330
263
102
}
330
263
100
DictionaryVariables
280
     0
  1
Metric50
  0
DICTIONARYVAR
  5
351
102
{ACAD_REACTORS
330
263
102
}
330
263
100
DictionaryVariables
280
     0
  1
Metric50
  0
DICTIONARYVAR
  5
265
102
{ACAD_REACTORS
330
263
102
}
330
263
100
DictionaryVariables
280
     0
  1
1
  0
DICTIONARYVAR
  5
352
102
{ACAD_REACTORS
330
263
102
}
330
263
100
DictionaryVariables
280
     0
  1
2
  0
DICTIONARY
  5
389
330
2AC
100
AcDbDictionary
280
     1
281
     1
  3
ACAD_XREC_ROUNDTRIP
360
38A
  0
DICTIONARY
  5
299
330
45
100
AcDbDictionary
280
     1
281
     1
  3
ACAD_XREC_ROUNDTRIP
360
29A
  0
DICTIONARY
  5
297
330
44
100
AcDbDictionary
280
     1
281
     1
  3
ACAD_XREC_ROUNDTRIP
360
298
  0
DICTIONARY
  5
29B
330
46
100
AcDbDictionary
280
     1
281
     1
  3
ACAD_XREC_ROUNDTRIP
360
29C
  0
DICTIONARY
  5
387
330
2AB
100
AcDbDictionary
280
     1
281
     1
  3
ACAD_XREC_ROUNDTRIP
360
388
  0
DICTIONARY
  5
29D
330
6A
100
AcDbDictionary
280
     1
281
     1
  3
ACAD_ROUNDTRIP_2008_TABLESTYLE_CELLSTYLEMAP
360
354
  3
ACAD_XREC_ROUNDTRIP
360
386
  0
DICTIONARY
  5
35E
330
2F
100
AcDbDictionary
280
     1
281
     1
  3
ACAD_XREC_ROUNDTRIP
360
35F
  0
DICTIONARY
  5
364
330
32
100
AcDbDictionary
280
     1
281
     1
  3
ACAD_XREC_ROUNDTRIP
360
365
  0
DICTIONARY
  5
36C
330
36
100
AcDbDictionary
280
     1
281
     1
  3
ACAD_XREC_ROUNDTRIP
360
36D
  0
DICTIONARY
  5
374
330
3A
100
AcDbDictionary
280
     1
281
     1
  3
ACAD_XREC_ROUNDTRIP
360
375
  0
DICTIONARY
  5
368
330
34
100
AcDbDictionary
280
     1
281
     1
  3
ACAD_XREC_ROUNDTRIP
360
369
  0
DICTIONARY
  5
36A
330
35
100
AcDbDictionary
280
     1
281
     1
  3
ACAD_XREC_ROUNDTRIP
360
36B
  0
DICTIONARY
  5
37A
330
3D
100
AcDbDictionary
280
     1
281
     1
  3
ACAD_XREC_ROUNDTRIP
360
37B
  0
DICTIONARY
  5
372
330
39
100
AcDbDictionary
280
     1
281
     1
  3
ACAD_XREC_ROUNDTRIP
360
373
  0
DICTIONARY
  5
356
330
2B
100
AcDbDictionary
280
     1
281
     1
  3
ACAD_XREC_ROUNDTRIP
360
357
  0
DICTIONARY
  5
358
330
2C
100
AcDbDictionary
280
     1
281
     1
  3
ACAD_XREC_ROUNDTRIP
360
359
  0
DICTIONARY
  5
35A
330
2D
100
AcDbDictionary
280
     1
281
     1
  3
ACAD_XREC_ROUNDTRIP
360
35B
  0
DICTIONARY
  5
35C
330
2E
100
AcDbDictionary
280
     1
281
     1
  3
ACAD_XREC_ROUNDTRIP
360
35D
  0
DICTIONARY
  5
362
330
31
100
AcDbDictionary
280
     1
281
     1
  3
ACAD_XREC_ROUNDTRIP
360
363
  0
DICTIONARY
  5
376
330
3B
100
AcDbDictionary
280
     1
281
     1
  3
ACAD_XREC_ROUNDTRIP
360
377
  0
DICTIONARY
  5
370
330
38
100
AcDbDictionary
280
     1
281
     1
  3
ACAD_XREC_ROUNDTRIP
360
371
  0
DICTIONARY
  5
378
330
3C
100
AcDbDictionary
280
     1
281
     1
  3
ACAD_XREC_ROUNDTRIP
360
379
  0
DICTIONARY
  5
366
330
33
100
AcDbDictionary
280
     1
281
     1
  3
ACAD_XREC_ROUNDTRIP
360
367
  0
DICTIONARY
  5
384
330
42
100
AcDbDictionary
280
     1
281
     1
  3
ACAD_XREC_ROUNDTRIP
360
385
  0
DICTIONARY
  5
382
330
41
100
AcDbDictionary
280
     1
281
     1
  3
ACAD_XREC_ROUNDTRIP
360
383
  0
DICTIONARY
  5
37C
330
3E
100
AcDbDictionary
280
     1
281
     1
  3
ACAD_XREC_ROUNDTRIP
360
37D
  0
DICTIONARY
  5
37E
330
3F
100
AcDbDictionary
280
     1
281
     1
  3
ACAD_XREC_ROUNDTRIP
360
37F
  0
DICTIONARY
  5
36E
330
37
100
AcDbDictionary
280
     1
281
     1
  3
ACAD_XREC_ROUNDTRIP
360
36F
  0
DICTIONARY
  5
360
330
30
100
AcDbDictionary
280
     1
281
     1
  3
ACAD_XREC_ROUNDTRIP
360
361
  0
DICTIONARY
  5
380
330
40
100
AcDbDictionary
280
     1
281
     1
  3
ACAD_XREC_ROUNDTRIP
360
381
  0
XRECORD
  5
38A
102
{ACAD_REACTORS
330
389
102
}
330
389
100
AcDbXrecord
280
     1
102
DISPLAYNAME
  1
Metric50
102
FLAGS
 90
        0
  0
XRECORD
  5
29A
102
{ACAD_REACTORS
330
299
102
}
330
299
100
AcDbXrecord
280
     1
102
MATERIAL
148
0.0
149
0.0
149
0.0
 93
        0
 94
      127
282
     0
 72
     1
 77
     1
171
     1
175
     1
179
     1
273
     0
  0
XRECORD
  5
298
102
{ACAD_REACTORS
330
297
102
}
330
297
100
AcDbXrecord
280
     1
102
MATERIAL
148
0.0
149
0.0
149
0.0
 93
        0
 94
      127
282
     0
 72
     1
 77
     1
171
     1
175
     1
179
     1
273
     0
  0
XRECORD
  5
29C
102
{ACAD_REACTORS
330
29B
102
}
330
29B
100
AcDbXrecord
280
     1
102
MATERIAL
148
0.0
149
0.0
149
0.0
 93
        0
 94
      127
282
     0
 72
     1
 77
     1
171
     1
175
     1
179
     1
273
     0
  0
XRECORD
  5
388
102
{ACAD_REACTORS
330
387
102
}
330
387
100
AcDbXrecord
280
     1
102
DISPLAYNAME
  1
Metric50
102
FLAGS
 90
        0
  0
CELLSTYLEMAP
  5
354
102
{ACAD_REACTORS
330
29D
102
}
330
29D
100
AcDbCellStyleMap
 90
        3
300
CELLSTYLE
  1
TABLEFORMAT_BEGIN
 90
        5
170
     1
 91
        0
 92
    32768
 62
   257
 93
        1
300
CONTENTFORMAT
  1
CONTENTFORMAT_BEGIN
 90
        0
 91
        0
 92
        4
 93
        0
300

 40
0.0
140
1.0
 94
        5
 62
     0
340
11
144
0.25
309
CONTENTFORMAT_END
171
     1
301
MARGIN
  1
CELLMARGIN_BEGIN
 40
0.06
 40
0.06
 40
0.06
 40
0.06
 40
0.18
 40
0.18
309
CELLMARGIN_END
 94
        6
 95
        1
302
GRIDFORMAT
  1
GRIDFORMAT_BEGIN
 90
        0
 91
        1
 62
     0
 92
       -2
340
14
 93
        0
 40
0.045
309
GRIDFORMAT_END
 95
        2
302
GRIDFORMAT
  1
GRIDFORMAT_BEGIN
 90
        0
 91
        1
 62
     0
 92
       -2
340
14
 93
        0
 40
0.045
309
GRIDFORMAT_END
 95
        4
302
GRIDFORMAT
  1
GRIDFORMAT_BEGIN
 90
        0
 91
        1
 62
     0
 92
       -2
340
14
 93
        0
 40
0.045
309
GRIDFORMAT_END
 95
        8
302
GRIDFORMAT
  1
GRIDFORMAT_BEGIN
 90
        0
 91
        1
 62
     0
 92
       -2
340
14
 93
        0
 40
0.045
309
GRIDFORMAT_END
 95
       16
302
GRIDFORMAT
  1
GRIDFORMAT_BEGIN
 90
        0
 91
        1
 62
     0
 92
       -2
340
14
 93
        0
 40
0.045
309
GRIDFORMAT_END
 95
       32
302
GRIDFORMAT
  1
GRIDFORMAT_BEGIN
 90
        0
 91
        1
 62
     0
 92
       -2
340
14
 93
        0
 40
0.045
309
GRIDFORMAT_END
309
TABLEFORMAT_END
  1
CELLSTYLE_BEGIN
 90
        1
 91
        1
300
_TITLE
309
CELLSTYLE_END
300
CELLSTYLE
  1
TABLEFORMAT_BEGIN
 90
        5
170
     1
 91
        0
 92
        0
 62
   257
 93
        1
300
CONTENTFORMAT
  1
CONTENTFORMAT_BEGIN
 90
        0
 91
        0
 92
        4
 93
        0
300

 40
0.0
140
1.0
 94
        5
 62
     0
340
11
144
0.18
309
CONTENTFORMAT_END
171
     1
301
MARGIN
  1
CELLMARGIN_BEGIN
 40
0.06
 40
0.06
 40
0.06
 40
0.06
 40
0.18
 40
0.18
309
CELLMARGIN_END
 94
        6
 95
        1
302
GRIDFORMAT
  1
GRIDFORMAT_BEGIN
 90
        0
 91
        1
 62
     0
 92
       -2
340
14
 93
        0
 40
0.045
309
GRIDFORMAT_END
 95
        2
302
GRIDFORMAT
  1
GRIDFORMAT_BEGIN
 90
        0
 91
        1
 62
     0
 92
       -2
340
14
 93
        0
 40
0.045
309
GRIDFORMAT_END
 95
        4
302
GRIDFORMAT
  1
GRIDFORMAT_BEGIN
 90
        0
 91
        1
 62
     0
 92
       -2
340
14
 93
        0
 40
0.045
309
GRIDFORMAT_END
 95
        8
302
GRIDFORMAT
  1
GRIDFORMAT_BEGIN
 90
        0
 91
        1
 62
     0
 92
       -2
340
14
 93
        0
 40
0.045
309
GRIDFORMAT_END
 95
       16
302
GRIDFORMAT
  1
GRIDFORMAT_BEGIN
 90
        0
 91
        1
 62
     0
 92
       -2
340
14
 93
        0
 40
0.045
309
GRIDFORMAT_END
 95
       32
302
GRIDFORMAT
  1
GRIDFORMAT_BEGIN
 90
        0
 91
        1
 62
     0
 92
       -2
340
14
 93
        0
 40
0.045
309
GRIDFORMAT_END
309
TABLEFORMAT_END
  1
CELLSTYLE_BEGIN
 90
        2
 91
        1
300
_HEADER
309
CELLSTYLE_END
300
CELLSTYLE
  1
TABLEFORMAT_BEGIN
 90
        5
170
     1
 91
        0
 92
        0
 62
   257
 93
        1
300
CONTENTFORMAT
  1
CONTENTFORMAT_BEGIN
 90
        0
 91
        0
 92
        4
 93
        0
300

 40
0.0
140
1.0
 94
        2
 62
     0
340
11
144
0.18
309
CONTENTFORMAT_END
171
     1
301
MARGIN
  1
CELLMARGIN_BEGIN
 40
0.06
 40
0.06
 40
0.06
 40
0.06
 40
0.18
 40
0.18
309
CELLMARGIN_END
 94
        6
 95
        1
302
GRIDFORMAT
  1
GRIDFORMAT_BEGIN
 90
        0
 91
        1
 62
     0
 92
       -2
340
14
 93
        0
 40
0.045
309
GRIDFORMAT_END
 95
        2
302
GRIDFORMAT
  1
GRIDFORMAT_BEGIN
 90
        0
 91
        1
 62
     0
 92
       -2
340
14
 93
        0
 40
0.045
309
GRIDFORMAT_END
 95
        4
302
GRIDFORMAT
  1
GRIDFORMAT_BEGIN
 90
        0
 91
        1
 62
     0
 92
       -2
340
14
 93
        0
 40
0.045
309
GRIDFORMAT_END
 95
        8
302
GRIDFORMAT
  1
GRIDFORMAT_BEGIN
 90
        0
 91
        1
 62
     0
 92
       -2
340
14
 93
        0
 40
0.045
309
GRIDFORMAT_END
 95
       16
302
GRIDFORMAT
  1
GRIDFORMAT_BEGIN
 90
        0
 91
        1
 62
     0
 92
       -2
340
14
 93
        0
 40
0.045
309
GRIDFORMAT_END
 95
       32
302
GRIDFORMAT
  1
GRIDFORMAT_BEGIN
 90
        0
 91
        1
 62
     0
 92
       -2
340
14
 93
        0
 40
0.045
309
GRIDFORMAT_END
309
TABLEFORMAT_END
  1
CELLSTYLE_BEGIN
 90
        3
 91
        2
300
_DATA
309
CELLSTYLE_END
  0
XRECORD
  5
386
102
{ACAD_REACTORS
330
29D
102
}
330
29D
100
AcDbXrecord
280
     1
102
ACAD_ROUNDTRIP_PRE2007_TABLESTYLE
 90
        4
 91
        0
  1

 92
        4
 93
        0
  2

 94
        4
 95
        0
  3

  0
XRECORD
  5
35F
102
{ACAD_REACTORS
330
35E
102
}
330
35E
100
AcDbXrecord
280
     1
102
RTVSPost2010Prop28
280
     1
102
RTVSPost2010PropOp28
 70
     1
102
RTVSPost2010Prop29
280
     1
102
RTVSPost2010PropOp29
 70
     1
102
RTVSPost2010Prop30
280
     0
102
RTVSPost2010PropOp30
 70
     1
102
RTVSPost2010Prop31
280
     0
102
RTVSPost2010PropOp31
 70
     1
102
RTVSPost2010Prop32
280
     0
102
RTVSPost2010PropOp32
 70
     1
102
RTVSPost2010Prop33
280
     0
102
RTVSPost2010PropOp33
 70
     1
102
RTVSPost2010Prop34
280
     0
102
RTVSPost2010PropOp34
 70
     1
102
RTVSPost2010Prop35
280
     0
102
RTVSPost2010PropOp35
 70
     1
102
RTVSPost2010Prop36
280
     0
102
RTVSPost2010PropOp36
 70
     1
102
RTVSPost2010Prop37
 90
       50
102
RTVSPost2010PropOp37
 70
     1
102
RTVSPost2010Prop38
140
0.0
102
RTVSPost2010PropOp38
 70
     1
102
RTVSPost2010Prop39
140
1.0
102
RTVSPost2010PropOp39
 70
     1
102
RTVSPost2010Prop40
 90
        0
102
RTVSPost2010PropOp40
 70
     1
102
RTVSPost2010Prop41ColorIndex
 90
       18
102
RTVSPost2010Prop41ColorRGB
 90
        0
102
RTVSPost2010PropOp41
 70
     1
102
RTVSPost2010Prop42
 90
       50
102
RTVSPost2010PropOp42
 70
     1
102
RTVSPost2010Prop43
 90
        3
102
RTVSPost2010PropOp43
 70
     1
102
RTVSPost2010Prop44ColorIndex
 90
        5
102
RTVSPost2010Prop44ColorRGB
 90
      255
102
RTVSPost2010PropOp44
 70
     1
102
RTVSPost2010Prop45
280
     0
102
RTVSPost2010PropOp45
 70
     1
102
RTVSPost2010Prop46
 90
       50
102
RTVSPost2010PropOp46
 70
     1
102
RTVSPost2010Prop47
 90
       50
102
RTVSPost2010PropOp47
 70
     1
102
RTVSPost2010Prop48
 90
       50
102
RTVSPost2010PropOp48
 70
     1
102
RTVSPost2010Prop49
280
     0
102
RTVSPost2010PropOp49
 70
     1
102
RTVSPost2010Prop50
 90
       50
102
RTVSPost2010PropOp50
 70
     1
102
RTVSPost2010Prop51ColorIndex
 90
      256
102
RTVSPost2010Prop51ColorRGB
 90
-16777216
102
RTVSPost2010PropOp51
 70
     0
102
RTVSPost2010Prop52
140
1.0
102
RTVSPost2010PropOp52
 70
     0
102
RTVSPost2010Prop53
 90
        2
102
RTVSPost2010PropOp53
 70
     1
102
RTVSPost2010Prop54
  1
strokes_ogs.tif
102
RTVSPost2010PropOp54
 70
     1
102
RTVSPost2010Prop55
280
     0
102
RTVSPost2010PropOp55
 70
     1
102
RTVSPost2010Prop56
140
1.0
102
RTVSPost2010PropOp56
 70
     1
102
RTVSPost2010Prop57
140
1.0
102
RTVSPost2010PropOp57
 70
     1
102
RTVSPropertyOp0
 70
     1
102
RTVSPropertyOp1
 70
     1
102
RTVSPropertyOp2
 70
     1
102
RTVSPropertyOp3
 70
     1
102
RTVSPropertyOp4
 70
     1
102
RTVSPropertyOp5
 70
     1
102
RTVSPropertyOp6
 70
     1
102
RTVSPropertyOp7
 70
     1
102
RTVSPropertyOp8
 70
     1
102
RTVSPropertyOp9
 70
     1
102
RTVSPropertyOp10
 70
     1
102
RTVSPropertyOp11
 70
     1
102
RTVSPropertyOp12
 70
     1
102
RTVSPropertyOp13
 70
     1
102
RTVSPropertyOp14
 70
     1
102
RTVSPropertyOp15
 70
     1
102
RTVSPropertyOp16
 70
     1
102
RTVSPropertyOp17
 70
     1
102
RTVSPropertyOp18
 70
     1
102
RTVSPropertyOp19
 70
     1
102
RTVSPropertyOp20
 70
     1
102
RTVSPropertyOp21
 70
     1
102
RTVSPropertyOp22
 70
     1
102
RTVSPropertyOp23
 70
     1
102
RTVSPropertyOp24
 70
     1
102
RTVSPropertyOp25
 70
     1
102
RTVSPropertyOp26
 70
     1
102
RTVSPropertyOp27
 70
     1
102
RTVSPropertyOp28
 70
     1
102
RTVSPropertyOp29
 70
     1
102
RTVSPropertyOp30
 70
     1
102
RTVSPropertyOp31
 70
     1
102
RTVSPropertyOp32
 70
     1
102
RTVSPropertyOp33
 70
     1
102
RTVSPropertyOp34
 70
     1
102
RTVSPropertyOp35
 70
     1
102
RTVSPropertyOp36
 70
     1
102
RTVSPropertyOp37
 70
     1
102
RTVSPropertyOp38
 70
     1
102
RTVSPropertyOp39
 70
     1
102
RTVSPropertyOp40
 70
     1
102
RTVSPropertyOp41
 70
     1
102
RTVSPropertyOp42
 70
     1
102
RTVSPropertyOp43
 70
     1
102
RTVSPropertyOp44
 70
     1
102
RTVSPropertyOp45
 70
     1
102
RTVSPropertyOp46
 70
     1
102
RTVSPropertyOp47
 70
     1
102
RTVSPropertyOp48
 70
     1
102
RTVSPropertyOp49
 70
     1
102
RTVSPropertyOp50
 70
     1
102
RTVSPropertyOp51
 70
     0
102
RTVSPropertyOp52
 70
     0
102
RTVSPropertyOp53
 70
     1
102
RTVSPropertyOp54
 70
     1
102
RTVSPropertyOp55
 70
     1
102
RTVSPropertyOp56
 70
     1
102
RTVSPropertyOp57
 70
     1
102
RTVSPropertyOp58
 70
     1
102
RTVSPropertyOp59
 70
     1
102
RTVSPropertyOp60
 70
     1
102
RTVSPropertyOp61
 70
     1
102
RTVSPropertyOp62
 70
     1
  0
XRECORD
  5
365
102
{ACAD_REACTORS
330
364
102
}
330
364
100
AcDbXrecord
280
     1
102
RTVSPost2010Prop28
280
     0
102
RTVSPost2010PropOp28
 70
     1
102
RTVSPost2010Prop29
280
     1
102
RTVSPost2010PropOp29
 70
     1
102
RTVSPost2010Prop30
280
     1
102
RTVSPost2010PropOp30
 70
     1
102
RTVSPost2010Prop31
280
     0
102
RTVSPost2010PropOp31
 70
     1
102
RTVSPost2010Prop32
280
     0
102
RTVSPost2010PropOp32
 70
     1
102
RTVSPost2010Prop33
280
     0
102
RTVSPost2010PropOp33
 70
     1
102
RTVSPost2010Prop34
280
     0
102
RTVSPost2010PropOp34
 70
     1
102
RTVSPost2010Prop35
280
     0
102
RTVSPost2010PropOp35
 70
     1
102
RTVSPost2010Prop36
280
     0
102
RTVSPost2010PropOp36
 70
     1
102
RTVSPost2010Prop37
 90
       50
102
RTVSPost2010PropOp37
 70
     1
102
RTVSPost2010Prop38
140
0.0
102
RTVSPost2010PropOp38
 70
     1
102
RTVSPost2010Prop39
140
1.0
102
RTVSPost2010PropOp39
 70
     1
102
RTVSPost2010Prop40
 90
        0
102
RTVSPost2010PropOp40
 70
     1
102
RTVSPost2010Prop41ColorIndex
 90
       18
102
RTVSPost2010Prop41ColorRGB
 90
        0
102
RTVSPost2010PropOp41
 70
     1
102
RTVSPost2010Prop42
 90
       50
102
RTVSPost2010PropOp42
 70
     1
102
RTVSPost2010Prop43
 90
        3
102
RTVSPost2010PropOp43
 70
     1
102
RTVSPost2010Prop44ColorIndex
 90
        5
102
RTVSPost2010Prop44ColorRGB
 90
      255
102
RTVSPost2010PropOp44
 70
     1
102
RTVSPost2010Prop45
280
     0
102
RTVSPost2010PropOp45
 70
     1
102
RTVSPost2010Prop46
 90
       50
102
RTVSPost2010PropOp46
 70
     1
102
RTVSPost2010Prop47
 90
       50
102
RTVSPost2010PropOp47
 70
     1
102
RTVSPost2010Prop48
 90
       50
102
RTVSPost2010PropOp48
 70
     1
102
RTVSPost2010Prop49
280
     0
102
RTVSPost2010PropOp49
 70
     1
102
RTVSPost2010Prop50
 90
       50
102
RTVSPost2010PropOp50
 70
     1
102
RTVSPost2010Prop51ColorIndex
 90
      256
102
RTVSPost2010Prop51ColorRGB
 90
-16777216
102
RTVSPost2010PropOp51
 70
     0
102
RTVSPost2010Prop52
140
1.0
102
RTVSPost2010PropOp52
 70
     0
102
RTVSPost2010Prop53
 90
        2
102
RTVSPost2010PropOp53
 70
     1
102
RTVSPost2010Prop54
  1
strokes_ogs.tif
102
RTVSPost2010PropOp54
 70
     1
102
RTVSPost2010Prop55
280
     0
102
RTVSPost2010PropOp55
 70
     1
102
RTVSPost2010Prop56
140
1.0
102
RTVSPost2010PropOp56
 70
     1
102
RTVSPost2010Prop57
140
1.0
102
RTVSPost2010PropOp57
 70
     1
102
RTVSPropertyOp0
 70
     1
102
RTVSPropertyOp1
 70
     1
102
RTVSPropertyOp2
 70
     1
102
RTVSPropertyOp3
 70
     1
102
RTVSPropertyOp4
 70
     1
102
RTVSPropertyOp5
 70
     1
102
RTVSPropertyOp6
 70
     1
102
RTVSPropertyOp7
 70
     1
102
RTVSPropertyOp8
 70
     1
102
RTVSPropertyOp9
 70
     1
102
RTVSPropertyOp10
 70
     1
102
RTVSPropertyOp11
 70
     1
102
RTVSPropertyOp12
 70
     1
102
RTVSPropertyOp13
 70
     1
102
RTVSPropertyOp14
 70
     1
102
RTVSPropertyOp15
 70
     1
102
RTVSPropertyOp16
 70
     1
102
RTVSPropertyOp17
 70
     1
102
RTVSPropertyOp18
 70
     1
102
RTVSPropertyOp19
 70
     1
102
RTVSPropertyOp20
 70
     1
102
RTVSPropertyOp21
 70
     1
102
RTVSPropertyOp22
 70
     1
102
RTVSPropertyOp23
 70
     1
102
RTVSPropertyOp24
 70
     1
102
RTVSPropertyOp25
 70
     1
102
RTVSPropertyOp26
 70
     1
102
RTVSPropertyOp27
 70
     1
102
RTVSPropertyOp28
 70
     1
102
RTVSPropertyOp29
 70
     1
102
RTVSPropertyOp30
 70
     1
102
RTVSPropertyOp31
 70
     1
102
RTVSPropertyOp32
 70
     1
102
RTVSPropertyOp33
 70
     1
102
RTVSPropertyOp34
 70
     1
102
RTVSPropertyOp35
 70
     1
102
RTVSPropertyOp36
 70
     1
102
RTVSPropertyOp37
 70
     1
102
RTVSPropertyOp38
 70
     1
102
RTVSPropertyOp39
 70
     1
102
RTVSPropertyOp40
 70
     1
102
RTVSPropertyOp41
 70
     1
102
RTVSPropertyOp42
 70
     1
102
RTVSPropertyOp43
 70
     1
102
RTVSPropertyOp44
 70
     1
102
RTVSPropertyOp45
 70
     1
102
RTVSPropertyOp46
 70
     1
102
RTVSPropertyOp47
 70
     1
102
RTVSPropertyOp48
 70
     1
102
RTVSPropertyOp49
 70
     1
102
RTVSPropertyOp50
 70
     1
102
RTVSPropertyOp51
 70
     0
102
RTVSPropertyOp52
 70
     0
102
RTVSPropertyOp53
 70
     1
102
RTVSPropertyOp54
 70
     1
102
RTVSPropertyOp55
 70
     1
102
RTVSPropertyOp56
 70
     1
102
RTVSPropertyOp57
 70
     1
102
RTVSPropertyOp58
 70
     1
102
RTVSPropertyOp59
 70
     1
102
RTVSPropertyOp60
 70
     1
102
RTVSPropertyOp61
 70
     1
102
RTVSPropertyOp62
 70
     1
  0
XRECORD
  5
36D
102
{ACAD_REACTORS
330
36C
102
}
330
36C
100
AcDbXrecord
280
     1
102
RTVSPost2010Prop28
280
     0
102
RTVSPost2010PropOp28
 70
     1
102
RTVSPost2010Prop29
280
     1
102
RTVSPost2010PropOp29
 70
     1
102
RTVSPost2010Prop30
280
     1
102
RTVSPost2010PropOp30
 70
     1
102
RTVSPost2010Prop31
280
     0
102
RTVSPost2010PropOp31
 70
     1
102
RTVSPost2010Prop32
280
     0
102
RTVSPost2010PropOp32
 70
     1
102
RTVSPost2010Prop33
280
     0
102
RTVSPost2010PropOp33
 70
     1
102
RTVSPost2010Prop34
280
     0
102
RTVSPost2010PropOp34
 70
     1
102
RTVSPost2010Prop35
280
     0
102
RTVSPost2010PropOp35
 70
     1
102
RTVSPost2010Prop36
280
     0
102
RTVSPost2010PropOp36
 70
     1
102
RTVSPost2010Prop37
 90
       50
102
RTVSPost2010PropOp37
 70
     1
102
RTVSPost2010Prop38
140
0.0
102
RTVSPost2010PropOp38
 70
     1
102
RTVSPost2010Prop39
140
1.0
102
RTVSPost2010PropOp39
 70
     1
102
RTVSPost2010Prop40
 90
        0
102
RTVSPost2010PropOp40
 70
     1
102
RTVSPost2010Prop41ColorIndex
 90
       18
102
RTVSPost2010Prop41ColorRGB
 90
        0
102
RTVSPost2010PropOp41
 70
     1
102
RTVSPost2010Prop42
 90
       50
102
RTVSPost2010PropOp42
 70
     1
102
RTVSPost2010Prop43
 90
        3
102
RTVSPost2010PropOp43
 70
     1
102
RTVSPost2010Prop44ColorIndex
 90
        5
102
RTVSPost2010Prop44ColorRGB
 90
      255
102
RTVSPost2010PropOp44
 70
     1
102
RTVSPost2010Prop45
280
     0
102
RTVSPost2010PropOp45
 70
     1
102
RTVSPost2010Prop46
 90
       50
102
RTVSPost2010PropOp46
 70
     1
102
RTVSPost2010Prop47
 90
       50
102
RTVSPost2010PropOp47
 70
     1
102
RTVSPost2010Prop48
 90
       50
102
RTVSPost2010PropOp48
 70
     1
102
RTVSPost2010Prop49
280
     0
102
RTVSPost2010PropOp49
 70
     1
102
RTVSPost2010Prop50
 90
       50
102
RTVSPost2010PropOp50
 70
     1
102
RTVSPost2010Prop51ColorIndex
 90
      256
102
RTVSPost2010Prop51ColorRGB
 90
-16777216
102
RTVSPost2010PropOp51
 70
     0
102
RTVSPost2010Prop52
140
1.0
102
RTVSPost2010PropOp52
 70
     0
102
RTVSPost2010Prop53
 90
        2
102
RTVSPost2010PropOp53
 70
     1
102
RTVSPost2010Prop54
  1
strokes_ogs.tif
102
RTVSPost2010PropOp54
 70
     1
102
RTVSPost2010Prop55
280
     0
102
RTVSPost2010PropOp55
 70
     1
102
RTVSPost2010Prop56
140
1.0
102
RTVSPost2010PropOp56
 70
     1
102
RTVSPost2010Prop57
140
1.0
102
RTVSPost2010PropOp57
 70
     1
102
RTVSPropertyOp0
 70
     1
102
RTVSPropertyOp1
 70
     1
102
RTVSPropertyOp2
 70
     1
102
RTVSPropertyOp3
 70
     1
102
RTVSPropertyOp4
 70
     1
102
RTVSPropertyOp5
 70
     1
102
RTVSPropertyOp6
 70
     1
102
RTVSPropertyOp7
 70
     1
102
RTVSPropertyOp8
 70
     1
102
RTVSPropertyOp9
 70
     1
102
RTVSPropertyOp10
 70
     1
102
RTVSPropertyOp11
 70
     1
102
RTVSPropertyOp12
 70
     1
102
RTVSPropertyOp13
 70
     1
102
RTVSPropertyOp14
 70
     1
102
RTVSPropertyOp15
 70
     1
102
RTVSPropertyOp16
 70
     1
102
RTVSPropertyOp17
 70
     1
102
RTVSPropertyOp18
 70
     1
102
RTVSPropertyOp19
 70
     1
102
RTVSPropertyOp20
 70
     1
102
RTVSPropertyOp21
 70
     1
102
RTVSPropertyOp22
 70
     1
102
RTVSPropertyOp23
 70
     1
102
RTVSPropertyOp24
 70
     1
102
RTVSPropertyOp25
 70
     1
102
RTVSPropertyOp26
 70
     1
102
RTVSPropertyOp27
 70
     1
102
RTVSPropertyOp28
 70
     1
102
RTVSPropertyOp29
 70
     1
102
RTVSPropertyOp30
 70
     1
102
RTVSPropertyOp31
 70
     1
102
RTVSPropertyOp32
 70
     1
102
RTVSPropertyOp33
 70
     1
102
RTVSPropertyOp34
 70
     1
102
RTVSPropertyOp35
 70
     1
102
RTVSPropertyOp36
 70
     1
102
RTVSPropertyOp37
 70
     1
102
RTVSPropertyOp38
 70
     1
102
RTVSPropertyOp39
 70
     1
102
RTVSPropertyOp40
 70
     1
102
RTVSPropertyOp41
 70
     1
102
RTVSPropertyOp42
 70
     1
102
RTVSPropertyOp43
 70
     1
102
RTVSPropertyOp44
 70
     1
102
RTVSPropertyOp45
 70
     1
102
RTVSPropertyOp46
 70
     1
102
RTVSPropertyOp47
 70
     1
102
RTVSPropertyOp48
 70
     1
102
RTVSPropertyOp49
 70
     1
102
RTVSPropertyOp50
 70
     1
102
RTVSPropertyOp51
 70
     0
102
RTVSPropertyOp52
 70
     0
102
RTVSPropertyOp53
 70
     1
102
RTVSPropertyOp54
 70
     1
102
RTVSPropertyOp55
 70
     1
102
RTVSPropertyOp56
 70
     1
102
RTVSPropertyOp57
 70
     1
102
RTVSPropertyOp58
 70
     1
102
RTVSPropertyOp59
 70
     1
102
RTVSPropertyOp60
 70
     1
102
RTVSPropertyOp61
 70
     1
102
RTVSPropertyOp62
 70
     1
  0
XRECORD
  5
375
102
{ACAD_REACTORS
330
374
102
}
330
374
100
AcDbXrecord
280
     1
102
RTVSPost2010Prop28
280
     0
102
RTVSPost2010PropOp28
 70
     1
102
RTVSPost2010Prop29
280
     1
102
RTVSPost2010PropOp29
 70
     1
102
RTVSPost2010Prop30
280
     1
102
RTVSPost2010PropOp30
 70
     1
102
RTVSPost2010Prop31
280
     0
102
RTVSPost2010PropOp31
 70
     1
102
RTVSPost2010Prop32
280
     0
102
RTVSPost2010PropOp32
 70
     1
102
RTVSPost2010Prop33
280
     0
102
RTVSPost2010PropOp33
 70
     1
102
RTVSPost2010Prop34
280
     0
102
RTVSPost2010PropOp34
 70
     1
102
RTVSPost2010Prop35
280
     0
102
RTVSPost2010PropOp35
 70
     1
102
RTVSPost2010Prop36
280
     0
102
RTVSPost2010PropOp36
 70
     1
102
RTVSPost2010Prop37
 90
       50
102
RTVSPost2010PropOp37
 70
     1
102
RTVSPost2010Prop38
140
0.0
102
RTVSPost2010PropOp38
 70
     1
102
RTVSPost2010Prop39
140
1.0
102
RTVSPost2010PropOp39
 70
     1
102
RTVSPost2010Prop40
 90
        0
102
RTVSPost2010PropOp40
 70
     1
102
RTVSPost2010Prop41ColorIndex
 90
       18
102
RTVSPost2010Prop41ColorRGB
 90
        0
102
RTVSPost2010PropOp41
 70
     1
102
RTVSPost2010Prop42
 90
       50
102
RTVSPost2010PropOp42
 70
     1
102
RTVSPost2010Prop43
 90
        3
102
RTVSPost2010PropOp43
 70
     1
102
RTVSPost2010Prop44ColorIndex
 90
        5
102
RTVSPost2010Prop44ColorRGB
 90
      255
102
RTVSPost2010PropOp44
 70
     1
102
RTVSPost2010Prop45
280
     0
102
RTVSPost2010PropOp45
 70
     1
102
RTVSPost2010Prop46
 90
       50
102
RTVSPost2010PropOp46
 70
     1
102
RTVSPost2010Prop47
 90
       50
102
RTVSPost2010PropOp47
 70
     1
102
RTVSPost2010Prop48
 90
       50
102
RTVSPost2010PropOp48
 70
     1
102
RTVSPost2010Prop49
280
     0
102
RTVSPost2010PropOp49
 70
     1
102
RTVSPost2010Prop50
 90
       50
102
RTVSPost2010PropOp50
 70
     1
102
RTVSPost2010Prop51ColorIndex
 90
      256
102
RTVSPost2010Prop51ColorRGB
 90
-16777216
102
RTVSPost2010PropOp51
 70
     0
102
RTVSPost2010Prop52
140
1.0
102
RTVSPost2010PropOp52
 70
     0
102
RTVSPost2010Prop53
 90
        2
102
RTVSPost2010PropOp53
 70
     1
102
RTVSPost2010Prop54
  1
strokes_ogs.tif
102
RTVSPost2010PropOp54
 70
     1
102
RTVSPost2010Prop55
280
     0
102
RTVSPost2010PropOp55
 70
     1
102
RTVSPost2010Prop56
140
1.0
102
RTVSPost2010PropOp56
 70
     1
102
RTVSPost2010Prop57
140
1.0
102
RTVSPost2010PropOp57
 70
     1
102
RTVSPropertyOp0
 70
     1
102
RTVSPropertyOp1
 70
     1
102
RTVSPropertyOp2
 70
     1
102
RTVSPropertyOp3
 70
     1
102
RTVSPropertyOp4
 70
     1
102
RTVSPropertyOp5
 70
     1
102
RTVSPropertyOp6
 70
     1
102
RTVSPropertyOp7
 70
     1
102
RTVSPropertyOp8
 70
     1
102
RTVSPropertyOp9
 70
     1
102
RTVSPropertyOp10
 70
     1
102
RTVSPropertyOp11
 70
     1
102
RTVSPropertyOp12
 70
     1
102
RTVSPropertyOp13
 70
     1
102
RTVSPropertyOp14
 70
     1
102
RTVSPropertyOp15
 70
     1
102
RTVSPropertyOp16
 70
     1
102
RTVSPropertyOp17
 70
     1
102
RTVSPropertyOp18
 70
     1
102
RTVSPropertyOp19
 70
     1
102
RTVSPropertyOp20
 70
     1
102
RTVSPropertyOp21
 70
     1
102
RTVSPropertyOp22
 70
     1
102
RTVSPropertyOp23
 70
     1
102
RTVSPropertyOp24
 70
     1
102
RTVSPropertyOp25
 70
     1
102
RTVSPropertyOp26
 70
     1
102
RTVSPropertyOp27
 70
     1
102
RTVSPropertyOp28
 70
     1
102
RTVSPropertyOp29
 70
     1
102
RTVSPropertyOp30
 70
     1
102
RTVSPropertyOp31
 70
     1
102
RTVSPropertyOp32
 70
     1
102
RTVSPropertyOp33
 70
     1
102
RTVSPropertyOp34
 70
     1
102
RTVSPropertyOp35
 70
     1
102
RTVSPropertyOp36
 70
     1
102
RTVSPropertyOp37
 70
     1
102
RTVSPropertyOp38
 70
     1
102
RTVSPropertyOp39
 70
     1
102
RTVSPropertyOp40
 70
     1
102
RTVSPropertyOp41
 70
     1
102
RTVSPropertyOp42
 70
     1
102
RTVSPropertyOp43
 70
     1
102
RTVSPropertyOp44
 70
     1
102
RTVSPropertyOp45
 70
     1
102
RTVSPropertyOp46
 70
     1
102
RTVSPropertyOp47
 70
     1
102
RTVSPropertyOp48
 70
     1
102
RTVSPropertyOp49
 70
     1
102
RTVSPropertyOp50
 70
     1
102
RTVSPropertyOp51
 70
     0
102
RTVSPropertyOp52
 70
     0
102
RTVSPropertyOp53
 70
     1
102
RTVSPropertyOp54
 70
     1
102
RTVSPropertyOp55
 70
     1
102
RTVSPropertyOp56
 70
     1
102
RTVSPropertyOp57
 70
     1
102
RTVSPropertyOp58
 70
     1
102
RTVSPropertyOp59
 70
     1
102
RTVSPropertyOp60
 70
     1
102
RTVSPropertyOp61
 70
     1
102
RTVSPropertyOp62
 70
     1
  0
XRECORD
  5
369
102
{ACAD_REACTORS
330
368
102
}
330
368
100
AcDbXrecord
280
     1
102
RTVSPost2010Prop28
280
     0
102
RTVSPost2010PropOp28
 70
     1
102
RTVSPost2010Prop29
280
     1
102
RTVSPost2010PropOp29
 70
     1
102
RTVSPost2010Prop30
280
     1
102
RTVSPost2010PropOp30
 70
     1
102
RTVSPost2010Prop31
280
     0
102
RTVSPost2010PropOp31
 70
     1
102
RTVSPost2010Prop32
280
     0
102
RTVSPost2010PropOp32
 70
     1
102
RTVSPost2010Prop33
280
     0
102
RTVSPost2010PropOp33
 70
     1
102
RTVSPost2010Prop34
280
     0
102
RTVSPost2010PropOp34
 70
     1
102
RTVSPost2010Prop35
280
     0
102
RTVSPost2010PropOp35
 70
     1
102
RTVSPost2010Prop36
280
     0
102
RTVSPost2010PropOp36
 70
     1
102
RTVSPost2010Prop37
 90
       50
102
RTVSPost2010PropOp37
 70
     1
102
RTVSPost2010Prop38
140
0.0
102
RTVSPost2010PropOp38
 70
     1
102
RTVSPost2010Prop39
140
1.0
102
RTVSPost2010PropOp39
 70
     1
102
RTVSPost2010Prop40
 90
        0
102
RTVSPost2010PropOp40
 70
     1
102
RTVSPost2010Prop41ColorIndex
 90
       18
102
RTVSPost2010Prop41ColorRGB
 90
        0
102
RTVSPost2010PropOp41
 70
     1
102
RTVSPost2010Prop42
 90
       50
102
RTVSPost2010PropOp42
 70
     1
102
RTVSPost2010Prop43
 90
        3
102
RTVSPost2010PropOp43
 70
     1
102
RTVSPost2010Prop44ColorIndex
 90
        5
102
RTVSPost2010Prop44ColorRGB
 90
      255
102
RTVSPost2010PropOp44
 70
     1
102
RTVSPost2010Prop45
280
     0
102
RTVSPost2010PropOp45
 70
     1
102
RTVSPost2010Prop46
 90
       50
102
RTVSPost2010PropOp46
 70
     1
102
RTVSPost2010Prop47
 90
       50
102
RTVSPost2010PropOp47
 70
     1
102
RTVSPost2010Prop48
 90
       50
102
RTVSPost2010PropOp48
 70
     1
102
RTVSPost2010Prop49
280
     0
102
RTVSPost2010PropOp49
 70
     1
102
RTVSPost2010Prop50
 90
       50
102
RTVSPost2010PropOp50
 70
     1
102
RTVSPost2010Prop51ColorIndex
 90
      256
102
RTVSPost2010Prop51ColorRGB
 90
-16777216
102
RTVSPost2010PropOp51
 70
     0
102
RTVSPost2010Prop52
140
1.0
102
RTVSPost2010PropOp52
 70
     0
102
RTVSPost2010Prop53
 90
        2
102
RTVSPost2010PropOp53
 70
     1
102
RTVSPost2010Prop54
  1
strokes_ogs.tif
102
RTVSPost2010PropOp54
 70
     1
102
RTVSPost2010Prop55
280
     0
102
RTVSPost2010PropOp55
 70
     1
102
RTVSPost2010Prop56
140
1.0
102
RTVSPost2010PropOp56
 70
     1
102
RTVSPost2010Prop57
140
1.0
102
RTVSPost2010PropOp57
 70
     1
102
RTVSPropertyOp0
 70
     1
102
RTVSPropertyOp1
 70
     1
102
RTVSPropertyOp2
 70
     1
102
RTVSPropertyOp3
 70
     1
102
RTVSPropertyOp4
 70
     1
102
RTVSPropertyOp5
 70
     1
102
RTVSPropertyOp6
 70
     1
102
RTVSPropertyOp7
 70
     1
102
RTVSPropertyOp8
 70
     1
102
RTVSPropertyOp9
 70
     1
102
RTVSPropertyOp10
 70
     1
102
RTVSPropertyOp11
 70
     1
102
RTVSPropertyOp12
 70
     1
102
RTVSPropertyOp13
 70
     1
102
RTVSPropertyOp14
 70
     1
102
RTVSPropertyOp15
 70
     1
102
RTVSPropertyOp16
 70
     1
102
RTVSPropertyOp17
 70
     1
102
RTVSPropertyOp18
 70
     1
102
RTVSPropertyOp19
 70
     1
102
RTVSPropertyOp20
 70
     1
102
RTVSPropertyOp21
 70
     1
102
RTVSPropertyOp22
 70
     1
102
RTVSPropertyOp23
 70
     1
102
RTVSPropertyOp24
 70
     1
102
RTVSPropertyOp25
 70
     1
102
RTVSPropertyOp26
 70
     1
102
RTVSPropertyOp27
 70
     1
102
RTVSPropertyOp28
 70
     1
102
RTVSPropertyOp29
 70
     1
102
RTVSPropertyOp30
 70
     1
102
RTVSPropertyOp31
 70
     1
102
RTVSPropertyOp32
 70
     1
102
RTVSPropertyOp33
 70
     1
102
RTVSPropertyOp34
 70
     1
102
RTVSPropertyOp35
 70
     1
102
RTVSPropertyOp36
 70
     1
102
RTVSPropertyOp37
 70
     1
102
RTVSPropertyOp38
 70
     1
102
RTVSPropertyOp39
 70
     1
102
RTVSPropertyOp40
 70
     1
102
RTVSPropertyOp41
 70
     1
102
RTVSPropertyOp42
 70
     1
102
RTVSPropertyOp43
 70
     1
102
RTVSPropertyOp44
 70
     1
102
RTVSPropertyOp45
 70
     1
102
RTVSPropertyOp46
 70
     1
102
RTVSPropertyOp47
 70
     1
102
RTVSPropertyOp48
 70
     1
102
RTVSPropertyOp49
 70
     1
102
RTVSPropertyOp50
 70
     1
102
RTVSPropertyOp51
 70
     0
102
RTVSPropertyOp52
 70
     0
102
RTVSPropertyOp53
 70
     1
102
RTVSPropertyOp54
 70
     1
102
RTVSPropertyOp55
 70
     1
102
RTVSPropertyOp56
 70
     1
102
RTVSPropertyOp57
 70
     1
102
RTVSPropertyOp58
 70
     1
102
RTVSPropertyOp59
 70
     1
102
RTVSPropertyOp60
 70
     1
102
RTVSPropertyOp61
 70
     1
102
RTVSPropertyOp62
 70
     1
  0
XRECORD
  5
36B
102
{ACAD_REACTORS
330
36A
102
}
330
36A
100
AcDbXrecord
280
     1
102
RTVSPost2010Prop28
280
     0
102
RTVSPost2010PropOp28
 70
     1
102
RTVSPost2010Prop29
280
     1
102
RTVSPost2010PropOp29
 70
     1
102
RTVSPost2010Prop30
280
     1
102
RTVSPost2010PropOp30
 70
     1
102
RTVSPost2010Prop31
280
     0
102
RTVSPost2010PropOp31
 70
     1
102
RTVSPost2010Prop32
280
     0
102
RTVSPost2010PropOp32
 70
     1
102
RTVSPost2010Prop33
280
     0
102
RTVSPost2010PropOp33
 70
     1
102
RTVSPost2010Prop34
280
     0
102
RTVSPost2010PropOp34
 70
     1
102
RTVSPost2010Prop35
280
     0
102
RTVSPost2010PropOp35
 70
     1
102
RTVSPost2010Prop36
280
     0
102
RTVSPost2010PropOp36
 70
     1
102
RTVSPost2010Prop37
 90
       50
102
RTVSPost2010PropOp37
 70
     1
102
RTVSPost2010Prop38
140
0.0
102
RTVSPost2010PropOp38
 70
     1
102
RTVSPost2010Prop39
140
1.0
102
RTVSPost2010PropOp39
 70
     1
102
RTVSPost2010Prop40
 90
        0
102
RTVSPost2010PropOp40
 70
     1
102
RTVSPost2010Prop41ColorIndex
 90
       18
102
RTVSPost2010Prop41ColorRGB
 90
        0
102
RTVSPost2010PropOp41
 70
     1
102
RTVSPost2010Prop42
 90
       50
102
RTVSPost2010PropOp42
 70
     1
102
RTVSPost2010Prop43
 90
        3
102
RTVSPost2010PropOp43
 70
     1
102
RTVSPost2010Prop44ColorIndex
 90
        5
102
RTVSPost2010Prop44ColorRGB
 90
      255
102
RTVSPost2010PropOp44
 70
     1
102
RTVSPost2010Prop45
280
     0
102
RTVSPost2010PropOp45
 70
     1
102
RTVSPost2010Prop46
 90
       50
102
RTVSPost2010PropOp46
 70
     1
102
RTVSPost2010Prop47
 90
       50
102
RTVSPost2010PropOp47
 70
     1
102
RTVSPost2010Prop48
 90
       50
102
RTVSPost2010PropOp48
 70
     1
102
RTVSPost2010Prop49
280
     0
102
RTVSPost2010PropOp49
 70
     1
102
RTVSPost2010Prop50
 90
       50
102
RTVSPost2010PropOp50
 70
     1
102
RTVSPost2010Prop51ColorIndex
 90
      256
102
RTVSPost2010Prop51ColorRGB
 90
-16777216
102
RTVSPost2010PropOp51
 70
     0
102
RTVSPost2010Prop52
140
1.0
102
RTVSPost2010PropOp52
 70
     0
102
RTVSPost2010Prop53
 90
        2
102
RTVSPost2010PropOp53
 70
     1
102
RTVSPost2010Prop54
  1
strokes_ogs.tif
102
RTVSPost2010PropOp54
 70
     1
102
RTVSPost2010Prop55
280
     0
102
RTVSPost2010PropOp55
 70
     1
102
RTVSPost2010Prop56
140
1.0
102
RTVSPost2010PropOp56
 70
     1
102
RTVSPost2010Prop57
140
1.0
102
RTVSPost2010PropOp57
 70
     1
102
RTVSPropertyOp0
 70
     1
102
RTVSPropertyOp1
 70
     1
102
RTVSPropertyOp2
 70
     1
102
RTVSPropertyOp3
 70
     1
102
RTVSPropertyOp4
 70
     1
102
RTVSPropertyOp5
 70
     1
102
RTVSPropertyOp6
 70
     1
102
RTVSPropertyOp7
 70
     1
102
RTVSPropertyOp8
 70
     1
102
RTVSPropertyOp9
 70
     1
102
RTVSPropertyOp10
 70
     1
102
RTVSPropertyOp11
 70
     1
102
RTVSPropertyOp12
 70
     1
102
RTVSPropertyOp13
 70
     1
102
RTVSPropertyOp14
 70
     1
102
RTVSPropertyOp15
 70
     1
102
RTVSPropertyOp16
 70
     1
102
RTVSPropertyOp17
 70
     1
102
RTVSPropertyOp18
 70
     1
102
RTVSPropertyOp19
 70
     1
102
RTVSPropertyOp20
 70
     1
102
RTVSPropertyOp21
 70
     1
102
RTVSPropertyOp22
 70
     1
102
RTVSPropertyOp23
 70
     1
102
RTVSPropertyOp24
 70
     1
102
RTVSPropertyOp25
 70
     1
102
RTVSPropertyOp26
 70
     1
102
RTVSPropertyOp27
 70
     1
102
RTVSPropertyOp28
 70
     1
102
RTVSPropertyOp29
 70
     1
102
RTVSPropertyOp30
 70
     1
102
RTVSPropertyOp31
 70
     1
102
RTVSPropertyOp32
 70
     1
102
RTVSPropertyOp33
 70
     1
102
RTVSPropertyOp34
 70
     1
102
RTVSPropertyOp35
 70
     1
102
RTVSPropertyOp36
 70
     1
102
RTVSPropertyOp37
 70
     1
102
RTVSPropertyOp38
 70
     1
102
RTVSPropertyOp39
 70
     1
102
RTVSPropertyOp40
 70
     1
102
RTVSPropertyOp41
 70
     1
102
RTVSPropertyOp42
 70
     1
102
RTVSPropertyOp43
 70
     1
102
RTVSPropertyOp44
 70
     1
102
RTVSPropertyOp45
 70
     1
102
RTVSPropertyOp46
 70
     1
102
RTVSPropertyOp47
 70
     1
102
RTVSPropertyOp48
 70
     1
102
RTVSPropertyOp49
 70
     1
102
RTVSPropertyOp50
 70
     1
102
RTVSPropertyOp51
 70
     0
102
RTVSPropertyOp52
 70
     0
102
RTVSPropertyOp53
 70
     1
102
RTVSPropertyOp54
 70
     1
102
RTVSPropertyOp55
 70
     1
102
RTVSPropertyOp56
 70
     1
102
RTVSPropertyOp57
 70
     1
102
RTVSPropertyOp58
 70
     1
102
RTVSPropertyOp59
 70
     1
102
RTVSPropertyOp60
 70
     1
102
RTVSPropertyOp61
 70
     1
102
RTVSPropertyOp62
 70
     1
  0
XRECORD
  5
37B
102
{ACAD_REACTORS
330
37A
102
}
330
37A
100
AcDbXrecord
280
     1
102
RTVSPost2010Prop28
280
     0
102
RTVSPost2010PropOp28
 70
     0
102
RTVSPost2010Prop29
280
     1
102
RTVSPost2010PropOp29
 70
     0
102
RTVSPost2010Prop30
280
     1
102
RTVSPost2010PropOp30
 70
     0
102
RTVSPost2010Prop31
280
     0
102
RTVSPost2010PropOp31
 70
     0
102
RTVSPost2010Prop32
280
     0
102
RTVSPost2010PropOp32
 70
     0
102
RTVSPost2010Prop33
280
     0
102
RTVSPost2010PropOp33
 70
     0
102
RTVSPost2010Prop34
280
     0
102
RTVSPost2010PropOp34
 70
     0
102
RTVSPost2010Prop35
280
     0
102
RTVSPost2010PropOp35
 70
     0
102
RTVSPost2010Prop36
280
     0
102
RTVSPost2010PropOp36
 70
     0
102
RTVSPost2010Prop37
 90
       50
102
RTVSPost2010PropOp37
 70
     0
102
RTVSPost2010Prop38
140
0.0
102
RTVSPost2010PropOp38
 70
     0
102
RTVSPost2010Prop39
140
1.0
102
RTVSPost2010PropOp39
 70
     0
102
RTVSPost2010Prop40
 90
        0
102
RTVSPost2010PropOp40
 70
     0
102
RTVSPost2010Prop41ColorIndex
 90
       18
102
RTVSPost2010Prop41ColorRGB
 90
        0
102
RTVSPost2010PropOp41
 70
     0
102
RTVSPost2010Prop42
 90
       50
102
RTVSPost2010PropOp42
 70
     0
102
RTVSPost2010Prop43
 90
        3
102
RTVSPost2010PropOp43
 70
     0
102
RTVSPost2010Prop44ColorIndex
 90
        5
102
RTVSPost2010Prop44ColorRGB
 90
      255
102
RTVSPost2010PropOp44
 70
     0
102
RTVSPost2010Prop45
280
     0
102
RTVSPost2010PropOp45
 70
     0
102
RTVSPost2010Prop46
 90
       50
102
RTVSPost2010PropOp46
 70
     0
102
RTVSPost2010Prop47
 90
       50
102
RTVSPost2010PropOp47
 70
     0
102
RTVSPost2010Prop48
 90
       50
102
RTVSPost2010PropOp48
 70
     0
102
RTVSPost2010Prop49
280
     0
102
RTVSPost2010PropOp49
 70
     0
102
RTVSPost2010Prop50
 90
       50
102
RTVSPost2010PropOp50
 70
     0
102
RTVSPost2010Prop51ColorIndex
 90
      256
102
RTVSPost2010Prop51ColorRGB
 90
-16777216
102
RTVSPost2010PropOp51
 70
     0
102
RTVSPost2010Prop52
140
1.0
102
RTVSPost2010PropOp52
 70
     0
102
RTVSPost2010Prop53
 90
        2
102
RTVSPost2010PropOp53
 70
     0
102
RTVSPost2010Prop54
  1
strokes_ogs.tif
102
RTVSPost2010PropOp54
 70
     0
102
RTVSPost2010Prop55
280
     0
102
RTVSPost2010PropOp55
 70
     0
102
RTVSPost2010Prop56
140
1.0
102
RTVSPost2010PropOp56
 70
     0
102
RTVSPost2010Prop57
140
1.0
102
RTVSPost2010PropOp57
 70
     0
102
RTVSPropertyOp0
 70
     0
102
RTVSPropertyOp1
 70
     0
102
RTVSPropertyOp2
 70
     0
102
RTVSPropertyOp3
 70
     0
102
RTVSPropertyOp4
 70
     0
102
RTVSPropertyOp5
 70
     0
102
RTVSPropertyOp6
 70
     0
102
RTVSPropertyOp7
 70
     0
102
RTVSPropertyOp8
 70
     0
102
RTVSPropertyOp9
 70
     0
102
RTVSPropertyOp10
 70
     0
102
RTVSPropertyOp11
 70
     0
102
RTVSPropertyOp12
 70
     0
102
RTVSPropertyOp13
 70
     0
102
RTVSPropertyOp14
 70
     2
102
RTVSPropertyOp15
 70
     0
102
RTVSPropertyOp16
 70
     0
102
RTVSPropertyOp17
 70
     0
102
RTVSPropertyOp18
 70
     0
102
RTVSPropertyOp19
 70
     0
102
RTVSPropertyOp20
 70
     0
102
RTVSPropertyOp21
 70
     0
102
RTVSPropertyOp22
 70
     0
102
RTVSPropertyOp23
 70
     0
102
RTVSPropertyOp24
 70
     0
102
RTVSPropertyOp25
 70
     0
102
RTVSPropertyOp26
 70
     0
102
RTVSPropertyOp27
 70
     0
102
RTVSPropertyOp28
 70
     0
102
RTVSPropertyOp29
 70
     0
102
RTVSPropertyOp30
 70
     0
102
RTVSPropertyOp31
 70
     0
102
RTVSPropertyOp32
 70
     0
102
RTVSPropertyOp33
 70
     0
102
RTVSPropertyOp34
 70
     0
102
RTVSPropertyOp35
 70
     0
102
RTVSPropertyOp36
 70
     0
102
RTVSPropertyOp37
 70
     0
102
RTVSPropertyOp38
 70
     0
102
RTVSPropertyOp39
 70
     0
102
RTVSPropertyOp40
 70
     0
102
RTVSPropertyOp41
 70
     0
102
RTVSPropertyOp42
 70
     0
102
RTVSPropertyOp43
 70
     0
102
RTVSPropertyOp44
 70
     0
102
RTVSPropertyOp45
 70
     0
102
RTVSPropertyOp46
 70
     0
102
RTVSPropertyOp47
 70
     0
102
RTVSPropertyOp48
 70
     0
102
RTVSPropertyOp49
 70
     0
102
RTVSPropertyOp50
 70
     0
102
RTVSPropertyOp51
 70
     0
102
RTVSPropertyOp52
 70
     0
102
RTVSPropertyOp53
 70
     0
102
RTVSPropertyOp54
 70
     0
102
RTVSPropertyOp55
 70
     0
102
RTVSPropertyOp56
 70
     0
102
RTVSPropertyOp57
 70
     0
102
RTVSPropertyOp58
 70
     1
102
RTVSPropertyOp59
 70
     1
102
RTVSPropertyOp60
 70
     1
102
RTVSPropertyOp61
 70
     1
102
RTVSPropertyOp62
 70
     1
  0
XRECORD
  5
373
102
{ACAD_REACTORS
330
372
102
}
330
372
100
AcDbXrecord
280
     1
102
RTVSPost2010Prop28
280
     0
102
RTVSPost2010PropOp28
 70
     1
102
RTVSPost2010Prop29
280
     1
102
RTVSPost2010PropOp29
 70
     1
102
RTVSPost2010Prop30
280
     1
102
RTVSPost2010PropOp30
 70
     1
102
RTVSPost2010Prop31
280
     0
102
RTVSPost2010PropOp31
 70
     1
102
RTVSPost2010Prop32
280
     0
102
RTVSPost2010PropOp32
 70
     1
102
RTVSPost2010Prop33
280
     0
102
RTVSPost2010PropOp33
 70
     1
102
RTVSPost2010Prop34
280
     0
102
RTVSPost2010PropOp34
 70
     1
102
RTVSPost2010Prop35
280
     0
102
RTVSPost2010PropOp35
 70
     1
102
RTVSPost2010Prop36
280
     0
102
RTVSPost2010PropOp36
 70
     1
102
RTVSPost2010Prop37
 90
       50
102
RTVSPost2010PropOp37
 70
     1
102
RTVSPost2010Prop38
140
0.0
102
RTVSPost2010PropOp38
 70
     1
102
RTVSPost2010Prop39
140
1.0
102
RTVSPost2010PropOp39
 70
     1
102
RTVSPost2010Prop40
 90
        0
102
RTVSPost2010PropOp40
 70
     1
102
RTVSPost2010Prop41ColorIndex
 90
       18
102
RTVSPost2010Prop41ColorRGB
 90
        0
102
RTVSPost2010PropOp41
 70
     1
102
RTVSPost2010Prop42
 90
       50
102
RTVSPost2010PropOp42
 70
     1
102
RTVSPost2010Prop43
 90
        3
102
RTVSPost2010PropOp43
 70
     1
102
RTVSPost2010Prop44ColorIndex
 90
        5
102
RTVSPost2010Prop44ColorRGB
 90
      255
102
RTVSPost2010PropOp44
 70
     1
102
RTVSPost2010Prop45
280
     0
102
RTVSPost2010PropOp45
 70
     1
102
RTVSPost2010Prop46
 90
       50
102
RTVSPost2010PropOp46
 70
     1
102
RTVSPost2010Prop47
 90
       50
102
RTVSPost2010PropOp47
 70
     1
102
RTVSPost2010Prop48
 90
       50
102
RTVSPost2010PropOp48
 70
     1
102
RTVSPost2010Prop49
280
     0
102
RTVSPost2010PropOp49
 70
     1
102
RTVSPost2010Prop50
 90
       50
102
RTVSPost2010PropOp50
 70
     1
102
RTVSPost2010Prop51ColorIndex
 90
      256
102
RTVSPost2010Prop51ColorRGB
 90
-16777216
102
RTVSPost2010PropOp51
 70
     0
102
RTVSPost2010Prop52
140
1.0
102
RTVSPost2010PropOp52
 70
     0
102
RTVSPost2010Prop53
 90
        2
102
RTVSPost2010PropOp53
 70
     1
102
RTVSPost2010Prop54
  1
strokes_ogs.tif
102
RTVSPost2010PropOp54
 70
     1
102
RTVSPost2010Prop55
280
     0
102
RTVSPost2010PropOp55
 70
     1
102
RTVSPost2010Prop56
140
1.0
102
RTVSPost2010PropOp56
 70
     1
102
RTVSPost2010Prop57
140
1.0
102
RTVSPost2010PropOp57
 70
     1
102
RTVSPropertyOp0
 70
     1
102
RTVSPropertyOp1
 70
     1
102
RTVSPropertyOp2
 70
     1
102
RTVSPropertyOp3
 70
     1
102
RTVSPropertyOp4
 70
     1
102
RTVSPropertyOp5
 70
     1
102
RTVSPropertyOp6
 70
     1
102
RTVSPropertyOp7
 70
     1
102
RTVSPropertyOp8
 70
     1
102
RTVSPropertyOp9
 70
     1
102
RTVSPropertyOp10
 70
     1
102
RTVSPropertyOp11
 70
     1
102
RTVSPropertyOp12
 70
     1
102
RTVSPropertyOp13
 70
     1
102
RTVSPropertyOp14
 70
     1
102
RTVSPropertyOp15
 70
     1
102
RTVSPropertyOp16
 70
     1
102
RTVSPropertyOp17
 70
     1
102
RTVSPropertyOp18
 70
     1
102
RTVSPropertyOp19
 70
     1
102
RTVSPropertyOp20
 70
     1
102
RTVSPropertyOp21
 70
     1
102
RTVSPropertyOp22
 70
     1
102
RTVSPropertyOp23
 70
     1
102
RTVSPropertyOp24
 70
     1
102
RTVSPropertyOp25
 70
     1
102
RTVSPropertyOp26
 70
     1
102
RTVSPropertyOp27
 70
     1
102
RTVSPropertyOp28
 70
     1
102
RTVSPropertyOp29
 70
     1
102
RTVSPropertyOp30
 70
     1
102
RTVSPropertyOp31
 70
     1
102
RTVSPropertyOp32
 70
     1
102
RTVSPropertyOp33
 70
     1
102
RTVSPropertyOp34
 70
     1
102
RTVSPropertyOp35
 70
     1
102
RTVSPropertyOp36
 70
     1
102
RTVSPropertyOp37
 70
     1
102
RTVSPropertyOp38
 70
     1
102
RTVSPropertyOp39
 70
     1
102
RTVSPropertyOp40
 70
     1
102
RTVSPropertyOp41
 70
     1
102
RTVSPropertyOp42
 70
     1
102
RTVSPropertyOp43
 70
     1
102
RTVSPropertyOp44
 70
     1
102
RTVSPropertyOp45
 70
     1
102
RTVSPropertyOp46
 70
     1
102
RTVSPropertyOp47
 70
     1
102
RTVSPropertyOp48
 70
     1
102
RTVSPropertyOp49
 70
     1
102
RTVSPropertyOp50
 70
     1
102
RTVSPropertyOp51
 70
     0
102
RTVSPropertyOp52
 70
     0
102
RTVSPropertyOp53
 70
     1
102
RTVSPropertyOp54
 70
     1
102
RTVSPropertyOp55
 70
     1
102
RTVSPropertyOp56
 70
     1
102
RTVSPropertyOp57
 70
     1
102
RTVSPropertyOp58
 70
     1
102
RTVSPropertyOp59
 70
     1
102
RTVSPropertyOp60
 70
     1
102
RTVSPropertyOp61
 70
     1
102
RTVSPropertyOp62
 70
     1
  0
XRECORD
  5
357
102
{ACAD_REACTORS
330
356
102
}
330
356
100
AcDbXrecord
280
     1
102
RTVSPost2010Prop28
280
     0
102
RTVSPost2010PropOp28
 70
     1
102
RTVSPost2010Prop29
280
     1
102
RTVSPost2010PropOp29
 70
     1
102
RTVSPost2010Prop30
280
     1
102
RTVSPost2010PropOp30
 70
     1
102
RTVSPost2010Prop31
280
     0
102
RTVSPost2010PropOp31
 70
     1
102
RTVSPost2010Prop32
280
     0
102
RTVSPost2010PropOp32
 70
     1
102
RTVSPost2010Prop33
280
     0
102
RTVSPost2010PropOp33
 70
     1
102
RTVSPost2010Prop34
280
     0
102
RTVSPost2010PropOp34
 70
     1
102
RTVSPost2010Prop35
280
     0
102
RTVSPost2010PropOp35
 70
     1
102
RTVSPost2010Prop36
280
     0
102
RTVSPost2010PropOp36
 70
     1
102
RTVSPost2010Prop37
 90
       50
102
RTVSPost2010PropOp37
 70
     1
102
RTVSPost2010Prop38
140
0.0
102
RTVSPost2010PropOp38
 70
     1
102
RTVSPost2010Prop39
140
1.0
102
RTVSPost2010PropOp39
 70
     1
102
RTVSPost2010Prop40
 90
        0
102
RTVSPost2010PropOp40
 70
     1
102
RTVSPost2010Prop41ColorIndex
 90
       18
102
RTVSPost2010Prop41ColorRGB
 90
        0
102
RTVSPost2010PropOp41
 70
     1
102
RTVSPost2010Prop42
 90
       50
102
RTVSPost2010PropOp42
 70
     1
102
RTVSPost2010Prop43
 90
        3
102
RTVSPost2010PropOp43
 70
     1
102
RTVSPost2010Prop44ColorIndex
 90
        5
102
RTVSPost2010Prop44ColorRGB
 90
      255
102
RTVSPost2010PropOp44
 70
     1
102
RTVSPost2010Prop45
280
     0
102
RTVSPost2010PropOp45
 70
     1
102
RTVSPost2010Prop46
 90
       50
102
RTVSPost2010PropOp46
 70
     1
102
RTVSPost2010Prop47
 90
       50
102
RTVSPost2010PropOp47
 70
     1
102
RTVSPost2010Prop48
 90
       50
102
RTVSPost2010PropOp48
 70
     1
102
RTVSPost2010Prop49
280
     0
102
RTVSPost2010PropOp49
 70
     1
102
RTVSPost2010Prop50
 90
       50
102
RTVSPost2010PropOp50
 70
     1
102
RTVSPost2010Prop51ColorIndex
 90
      256
102
RTVSPost2010Prop51ColorRGB
 90
-16777216
102
RTVSPost2010PropOp51
 70
     0
102
RTVSPost2010Prop52
140
1.0
102
RTVSPost2010PropOp52
 70
     0
102
RTVSPost2010Prop53
 90
        2
102
RTVSPost2010PropOp53
 70
     1
102
RTVSPost2010Prop54
  1
strokes_ogs.tif
102
RTVSPost2010PropOp54
 70
     1
102
RTVSPost2010Prop55
280
     0
102
RTVSPost2010PropOp55
 70
     1
102
RTVSPost2010Prop56
140
1.0
102
RTVSPost2010PropOp56
 70
     1
102
RTVSPost2010Prop57
140
1.0
102
RTVSPost2010PropOp57
 70
     1
102
RTVSPropertyOp0
 70
     1
102
RTVSPropertyOp1
 70
     1
102
RTVSPropertyOp2
 70
     1
102
RTVSPropertyOp3
 70
     1
102
RTVSPropertyOp4
 70
     1
102
RTVSPropertyOp5
 70
     1
102
RTVSPropertyOp6
 70
     1
102
RTVSPropertyOp7
 70
     1
102
RTVSPropertyOp8
 70
     1
102
RTVSPropertyOp9
 70
     1
102
RTVSPropertyOp10
 70
     1
102
RTVSPropertyOp11
 70
     1
102
RTVSPropertyOp12
 70
     1
102
RTVSPropertyOp13
 70
     1
102
RTVSPropertyOp14
 70
     1
102
RTVSPropertyOp15
 70
     1
102
RTVSPropertyOp16
 70
     1
102
RTVSPropertyOp17
 70
     1
102
RTVSPropertyOp18
 70
     1
102
RTVSPropertyOp19
 70
     1
102
RTVSPropertyOp20
 70
     1
102
RTVSPropertyOp21
 70
     1
102
RTVSPropertyOp22
 70
     1
102
RTVSPropertyOp23
 70
     1
102
RTVSPropertyOp24
 70
     1
102
RTVSPropertyOp25
 70
     1
102
RTVSPropertyOp26
 70
     1
102
RTVSPropertyOp27
 70
     1
102
RTVSPropertyOp28
 70
     1
102
RTVSPropertyOp29
 70
     1
102
RTVSPropertyOp30
 70
     1
102
RTVSPropertyOp31
 70
     1
102
RTVSPropertyOp32
 70
     1
102
RTVSPropertyOp33
 70
     1
102
RTVSPropertyOp34
 70
     1
102
RTVSPropertyOp35
 70
     1
102
RTVSPropertyOp36
 70
     1
102
RTVSPropertyOp37
 70
     1
102
RTVSPropertyOp38
 70
     1
102
RTVSPropertyOp39
 70
     1
102
RTVSPropertyOp40
 70
     1
102
RTVSPropertyOp41
 70
     1
102
RTVSPropertyOp42
 70
     1
102
RTVSPropertyOp43
 70
     1
102
RTVSPropertyOp44
 70
     1
102
RTVSPropertyOp45
 70
     1
102
RTVSPropertyOp46
 70
     1
102
RTVSPropertyOp47
 70
     1
102
RTVSPropertyOp48
 70
     1
102
RTVSPropertyOp49
 70
     1
102
RTVSPropertyOp50
 70
     1
102
RTVSPropertyOp51
 70
     0
102
RTVSPropertyOp52
 70
     0
102
RTVSPropertyOp53
 70
     1
102
RTVSPropertyOp54
 70
     1
102
RTVSPropertyOp55
 70
     1
102
RTVSPropertyOp56
 70
     1
102
RTVSPropertyOp57
 70
     1
102
RTVSPropertyOp58
 70
     1
102
RTVSPropertyOp59
 70
     1
102
RTVSPropertyOp60
 70
     1
102
RTVSPropertyOp61
 70
     1
102
RTVSPropertyOp62
 70
     1
  0
XRECORD
  5
359
102
{ACAD_REACTORS
330
358
102
}
330
358
100
AcDbXrecord
280
     1
102
RTVSPost2010Prop28
280
     0
102
RTVSPost2010PropOp28
 70
     1
102
RTVSPost2010Prop29
280
     1
102
RTVSPost2010PropOp29
 70
     1
102
RTVSPost2010Prop30
280
     1
102
RTVSPost2010PropOp30
 70
     1
102
RTVSPost2010Prop31
280
     0
102
RTVSPost2010PropOp31
 70
     1
102
RTVSPost2010Prop32
280
     0
102
RTVSPost2010PropOp32
 70
     1
102
RTVSPost2010Prop33
280
     0
102
RTVSPost2010PropOp33
 70
     1
102
RTVSPost2010Prop34
280
     0
102
RTVSPost2010PropOp34
 70
     1
102
RTVSPost2010Prop35
280
     0
102
RTVSPost2010PropOp35
 70
     1
102
RTVSPost2010Prop36
280
     0
102
RTVSPost2010PropOp36
 70
     1
102
RTVSPost2010Prop37
 90
       50
102
RTVSPost2010PropOp37
 70
     1
102
RTVSPost2010Prop38
140
0.0
102
RTVSPost2010PropOp38
 70
     1
102
RTVSPost2010Prop39
140
1.0
102
RTVSPost2010PropOp39
 70
     1
102
RTVSPost2010Prop40
 90
        0
102
RTVSPost2010PropOp40
 70
     1
102
RTVSPost2010Prop41ColorIndex
 90
       18
102
RTVSPost2010Prop41ColorRGB
 90
        0
102
RTVSPost2010PropOp41
 70
     1
102
RTVSPost2010Prop42
 90
       50
102
RTVSPost2010PropOp42
 70
     1
102
RTVSPost2010Prop43
 90
        3
102
RTVSPost2010PropOp43
 70
     1
102
RTVSPost2010Prop44ColorIndex
 90
        5
102
RTVSPost2010Prop44ColorRGB
 90
      255
102
RTVSPost2010PropOp44
 70
     1
102
RTVSPost2010Prop45
280
     0
102
RTVSPost2010PropOp45
 70
     1
102
RTVSPost2010Prop46
 90
       50
102
RTVSPost2010PropOp46
 70
     1
102
RTVSPost2010Prop47
 90
       50
102
RTVSPost2010PropOp47
 70
     1
102
RTVSPost2010Prop48
 90
       50
102
RTVSPost2010PropOp48
 70
     1
102
RTVSPost2010Prop49
280
     0
102
RTVSPost2010PropOp49
 70
     1
102
RTVSPost2010Prop50
 90
       50
102
RTVSPost2010PropOp50
 70
     1
102
RTVSPost2010Prop51ColorIndex
 90
      256
102
RTVSPost2010Prop51ColorRGB
 90
-16777216
102
RTVSPost2010PropOp51
 70
     0
102
RTVSPost2010Prop52
140
1.0
102
RTVSPost2010PropOp52
 70
     0
102
RTVSPost2010Prop53
 90
        2
102
RTVSPost2010PropOp53
 70
     1
102
RTVSPost2010Prop54
  1
strokes_ogs.tif
102
RTVSPost2010PropOp54
 70
     1
102
RTVSPost2010Prop55
280
     0
102
RTVSPost2010PropOp55
 70
     1
102
RTVSPost2010Prop56
140
1.0
102
RTVSPost2010PropOp56
 70
     1
102
RTVSPost2010Prop57
140
1.0
102
RTVSPost2010PropOp57
 70
     1
102
RTVSPropertyOp0
 70
     1
102
RTVSPropertyOp1
 70
     1
102
RTVSPropertyOp2
 70
     1
102
RTVSPropertyOp3
 70
     1
102
RTVSPropertyOp4
 70
     1
102
RTVSPropertyOp5
 70
     1
102
RTVSPropertyOp6
 70
     1
102
RTVSPropertyOp7
 70
     1
102
RTVSPropertyOp8
 70
     1
102
RTVSPropertyOp9
 70
     1
102
RTVSPropertyOp10
 70
     1
102
RTVSPropertyOp11
 70
     1
102
RTVSPropertyOp12
 70
     1
102
RTVSPropertyOp13
 70
     1
102
RTVSPropertyOp14
 70
     1
102
RTVSPropertyOp15
 70
     1
102
RTVSPropertyOp16
 70
     1
102
RTVSPropertyOp17
 70
     1
102
RTVSPropertyOp18
 70
     1
102
RTVSPropertyOp19
 70
     1
102
RTVSPropertyOp20
 70
     1
102
RTVSPropertyOp21
 70
     1
102
RTVSPropertyOp22
 70
     1
102
RTVSPropertyOp23
 70
     1
102
RTVSPropertyOp24
 70
     1
102
RTVSPropertyOp25
 70
     1
102
RTVSPropertyOp26
 70
     1
102
RTVSPropertyOp27
 70
     1
102
RTVSPropertyOp28
 70
     1
102
RTVSPropertyOp29
 70
     1
102
RTVSPropertyOp30
 70
     1
102
RTVSPropertyOp31
 70
     1
102
RTVSPropertyOp32
 70
     1
102
RTVSPropertyOp33
 70
     1
102
RTVSPropertyOp34
 70
     1
102
RTVSPropertyOp35
 70
     1
102
RTVSPropertyOp36
 70
     1
102
RTVSPropertyOp37
 70
     1
102
RTVSPropertyOp38
 70
     1
102
RTVSPropertyOp39
 70
     1
102
RTVSPropertyOp40
 70
     1
102
RTVSPropertyOp41
 70
     1
102
RTVSPropertyOp42
 70
     1
102
RTVSPropertyOp43
 70
     1
102
RTVSPropertyOp44
 70
     1
102
RTVSPropertyOp45
 70
     1
102
RTVSPropertyOp46
 70
     1
102
RTVSPropertyOp47
 70
     1
102
RTVSPropertyOp48
 70
     1
102
RTVSPropertyOp49
 70
     1
102
RTVSPropertyOp50
 70
     1
102
RTVSPropertyOp51
 70
     0
102
RTVSPropertyOp52
 70
     0
102
RTVSPropertyOp53
 70
     1
102
RTVSPropertyOp54
 70
     1
102
RTVSPropertyOp55
 70
     1
102
RTVSPropertyOp56
 70
     1
102
RTVSPropertyOp57
 70
     1
102
RTVSPropertyOp58
 70
     1
102
RTVSPropertyOp59
 70
     1
102
RTVSPropertyOp60
 70
     1
102
RTVSPropertyOp61
 70
     1
102
RTVSPropertyOp62
 70
     1
  0
XRECORD
  5
35B
102
{ACAD_REACTORS
330
35A
102
}
330
35A
100
AcDbXrecord
280
     1
102
RTVSPost2010Prop28
280
     0
102
RTVSPost2010PropOp28
 70
     1
102
RTVSPost2010Prop29
280
     1
102
RTVSPost2010PropOp29
 70
     1
102
RTVSPost2010Prop30
280
     1
102
RTVSPost2010PropOp30
 70
     1
102
RTVSPost2010Prop31
280
     0
102
RTVSPost2010PropOp31
 70
     1
102
RTVSPost2010Prop32
280
     0
102
RTVSPost2010PropOp32
 70
     1
102
RTVSPost2010Prop33
280
     0
102
RTVSPost2010PropOp33
 70
     1
102
RTVSPost2010Prop34
280
     0
102
RTVSPost2010PropOp34
 70
     1
102
RTVSPost2010Prop35
280
     0
102
RTVSPost2010PropOp35
 70
     1
102
RTVSPost2010Prop36
280
     0
102
RTVSPost2010PropOp36
 70
     1
102
RTVSPost2010Prop37
 90
       50
102
RTVSPost2010PropOp37
 70
     1
102
RTVSPost2010Prop38
140
0.0
102
RTVSPost2010PropOp38
 70
     1
102
RTVSPost2010Prop39
140
1.0
102
RTVSPost2010PropOp39
 70
     1
102
RTVSPost2010Prop40
 90
        0
102
RTVSPost2010PropOp40
 70
     1
102
RTVSPost2010Prop41ColorIndex
 90
       18
102
RTVSPost2010Prop41ColorRGB
 90
        0
102
RTVSPost2010PropOp41
 70
     1
102
RTVSPost2010Prop42
 90
       50
102
RTVSPost2010PropOp42
 70
     1
102
RTVSPost2010Prop43
 90
        3
102
RTVSPost2010PropOp43
 70
     1
102
RTVSPost2010Prop44ColorIndex
 90
        5
102
RTVSPost2010Prop44ColorRGB
 90
      255
102
RTVSPost2010PropOp44
 70
     1
102
RTVSPost2010Prop45
280
     0
102
RTVSPost2010PropOp45
 70
     1
102
RTVSPost2010Prop46
 90
       50
102
RTVSPost2010PropOp46
 70
     1
102
RTVSPost2010Prop47
 90
       50
102
RTVSPost2010PropOp47
 70
     1
102
RTVSPost2010Prop48
 90
       50
102
RTVSPost2010PropOp48
 70
     1
102
RTVSPost2010Prop49
280
     0
102
RTVSPost2010PropOp49
 70
     1
102
RTVSPost2010Prop50
 90
       50
102
RTVSPost2010PropOp50
 70
     1
102
RTVSPost2010Prop51ColorIndex
 90
      256
102
RTVSPost2010Prop51ColorRGB
 90
-16777216
102
RTVSPost2010PropOp51
 70
     0
102
RTVSPost2010Prop52
140
1.0
102
RTVSPost2010PropOp52
 70
     0
102
RTVSPost2010Prop53
 90
        2
102
RTVSPost2010PropOp53
 70
     1
102
RTVSPost2010Prop54
  1
strokes_ogs.tif
102
RTVSPost2010PropOp54
 70
     1
102
RTVSPost2010Prop55
280
     0
102
RTVSPost2010PropOp55
 70
     1
102
RTVSPost2010Prop56
140
1.0
102
RTVSPost2010PropOp56
 70
     1
102
RTVSPost2010Prop57
140
1.0
102
RTVSPost2010PropOp57
 70
     1
102
RTVSPropertyOp0
 70
     1
102
RTVSPropertyOp1
 70
     1
102
RTVSPropertyOp2
 70
     1
102
RTVSPropertyOp3
 70
     1
102
RTVSPropertyOp4
 70
     1
102
RTVSPropertyOp5
 70
     1
102
RTVSPropertyOp6
 70
     1
102
RTVSPropertyOp7
 70
     1
102
RTVSPropertyOp8
 70
     1
102
RTVSPropertyOp9
 70
     1
102
RTVSPropertyOp10
 70
     1
102
RTVSPropertyOp11
 70
     1
102
RTVSPropertyOp12
 70
     1
102
RTVSPropertyOp13
 70
     1
102
RTVSPropertyOp14
 70
     1
102
RTVSPropertyOp15
 70
     1
102
RTVSPropertyOp16
 70
     1
102
RTVSPropertyOp17
 70
     1
102
RTVSPropertyOp18
 70
     1
102
RTVSPropertyOp19
 70
     1
102
RTVSPropertyOp20
 70
     1
102
RTVSPropertyOp21
 70
     1
102
RTVSPropertyOp22
 70
     1
102
RTVSPropertyOp23
 70
     1
102
RTVSPropertyOp24
 70
     1
102
RTVSPropertyOp25
 70
     1
102
RTVSPropertyOp26
 70
     1
102
RTVSPropertyOp27
 70
     1
102
RTVSPropertyOp28
 70
     1
102
RTVSPropertyOp29
 70
     1
102
RTVSPropertyOp30
 70
     1
102
RTVSPropertyOp31
 70
     1
102
RTVSPropertyOp32
 70
     1
102
RTVSPropertyOp33
 70
     1
102
RTVSPropertyOp34
 70
     1
102
RTVSPropertyOp35
 70
     1
102
RTVSPropertyOp36
 70
     1
102
RTVSPropertyOp37
 70
     1
102
RTVSPropertyOp38
 70
     1
102
RTVSPropertyOp39
 70
     1
102
RTVSPropertyOp40
 70
     1
102
RTVSPropertyOp41
 70
     1
102
RTVSPropertyOp42
 70
     1
102
RTVSPropertyOp43
 70
     1
102
RTVSPropertyOp44
 70
     1
102
RTVSPropertyOp45
 70
     1
102
RTVSPropertyOp46
 70
     1
102
RTVSPropertyOp47
 70
     1
102
RTVSPropertyOp48
 70
     1
102
RTVSPropertyOp49
 70
     1
102
RTVSPropertyOp50
 70
     1
102
RTVSPropertyOp51
 70
     0
102
RTVSPropertyOp52
 70
     0
102
RTVSPropertyOp53
 70
     1
102
RTVSPropertyOp54
 70
     1
102
RTVSPropertyOp55
 70
     1
102
RTVSPropertyOp56
 70
     1
102
RTVSPropertyOp57
 70
     1
102
RTVSPropertyOp58
 70
     1
102
RTVSPropertyOp59
 70
     1
102
RTVSPropertyOp60
 70
     1
102
RTVSPropertyOp61
 70
     1
102
RTVSPropertyOp62
 70
     1
  0
XRECORD
  5
35D
102
{ACAD_REACTORS
330
35C
102
}
330
35C
100
AcDbXrecord
280
     1
102
RTVSPost2010Prop28
280
     0
102
RTVSPost2010PropOp28
 70
     1
102
RTVSPost2010Prop29
280
     1
102
RTVSPost2010PropOp29
 70
     1
102
RTVSPost2010Prop30
280
     1
102
RTVSPost2010PropOp30
 70
     1
102
RTVSPost2010Prop31
280
     0
102
RTVSPost2010PropOp31
 70
     1
102
RTVSPost2010Prop32
280
     0
102
RTVSPost2010PropOp32
 70
     1
102
RTVSPost2010Prop33
280
     0
102
RTVSPost2010PropOp33
 70
     1
102
RTVSPost2010Prop34
280
     0
102
RTVSPost2010PropOp34
 70
     1
102
RTVSPost2010Prop35
280
     0
102
RTVSPost2010PropOp35
 70
     1
102
RTVSPost2010Prop36
280
     0
102
RTVSPost2010PropOp36
 70
     1
102
RTVSPost2010Prop37
 90
       50
102
RTVSPost2010PropOp37
 70
     1
102
RTVSPost2010Prop38
140
0.0
102
RTVSPost2010PropOp38
 70
     1
102
RTVSPost2010Prop39
140
1.0
102
RTVSPost2010PropOp39
 70
     1
102
RTVSPost2010Prop40
 90
        0
102
RTVSPost2010PropOp40
 70
     1
102
RTVSPost2010Prop41ColorIndex
 90
       18
102
RTVSPost2010Prop41ColorRGB
 90
        0
102
RTVSPost2010PropOp41
 70
     1
102
RTVSPost2010Prop42
 90
       50
102
RTVSPost2010PropOp42
 70
     1
102
RTVSPost2010Prop43
 90
        3
102
RTVSPost2010PropOp43
 70
     1
102
RTVSPost2010Prop44ColorIndex
 90
        5
102
RTVSPost2010Prop44ColorRGB
 90
      255
102
RTVSPost2010PropOp44
 70
     1
102
RTVSPost2010Prop45
280
     0
102
RTVSPost2010PropOp45
 70
     1
102
RTVSPost2010Prop46
 90
       50
102
RTVSPost2010PropOp46
 70
     1
102
RTVSPost2010Prop47
 90
       50
102
RTVSPost2010PropOp47
 70
     1
102
RTVSPost2010Prop48
 90
       50
102
RTVSPost2010PropOp48
 70
     1
102
RTVSPost2010Prop49
280
     0
102
RTVSPost2010PropOp49
 70
     1
102
RTVSPost2010Prop50
 90
       50
102
RTVSPost2010PropOp50
 70
     1
102
RTVSPost2010Prop51ColorIndex
 90
      256
102
RTVSPost2010Prop51ColorRGB
 90
-16777216
102
RTVSPost2010PropOp51
 70
     0
102
RTVSPost2010Prop52
140
1.0
102
RTVSPost2010PropOp52
 70
     0
102
RTVSPost2010Prop53
 90
        2
102
RTVSPost2010PropOp53
 70
     1
102
RTVSPost2010Prop54
  1
strokes_ogs.tif
102
RTVSPost2010PropOp54
 70
     1
102
RTVSPost2010Prop55
280
     0
102
RTVSPost2010PropOp55
 70
     1
102
RTVSPost2010Prop56
140
1.0
102
RTVSPost2010PropOp56
 70
     1
102
RTVSPost2010Prop57
140
1.0
102
RTVSPost2010PropOp57
 70
     1
102
RTVSPropertyOp0
 70
     1
102
RTVSPropertyOp1
 70
     1
102
RTVSPropertyOp2
 70
     1
102
RTVSPropertyOp3
 70
     1
102
RTVSPropertyOp4
 70
     1
102
RTVSPropertyOp5
 70
     1
102
RTVSPropertyOp6
 70
     1
102
RTVSPropertyOp7
 70
     1
102
RTVSPropertyOp8
 70
     1
102
RTVSPropertyOp9
 70
     1
102
RTVSPropertyOp10
 70
     1
102
RTVSPropertyOp11
 70
     1
102
RTVSPropertyOp12
 70
     1
102
RTVSPropertyOp13
 70
     1
102
RTVSPropertyOp14
 70
     1
102
RTVSPropertyOp15
 70
     1
102
RTVSPropertyOp16
 70
     1
102
RTVSPropertyOp17
 70
     1
102
RTVSPropertyOp18
 70
     1
102
RTVSPropertyOp19
 70
     1
102
RTVSPropertyOp20
 70
     1
102
RTVSPropertyOp21
 70
     1
102
RTVSPropertyOp22
 70
     1
102
RTVSPropertyOp23
 70
     1
102
RTVSPropertyOp24
 70
     1
102
RTVSPropertyOp25
 70
     1
102
RTVSPropertyOp26
 70
     1
102
RTVSPropertyOp27
 70
     1
102
RTVSPropertyOp28
 70
     1
102
RTVSPropertyOp29
 70
     1
102
RTVSPropertyOp30
 70
     1
102
RTVSPropertyOp31
 70
     1
102
RTVSPropertyOp32
 70
     1
102
RTVSPropertyOp33
 70
     1
102
RTVSPropertyOp34
 70
     1
102
RTVSPropertyOp35
 70
     1
102
RTVSPropertyOp36
 70
     1
102
RTVSPropertyOp37
 70
     1
102
RTVSPropertyOp38
 70
     1
102
RTVSPropertyOp39
 70
     1
102
RTVSPropertyOp40
 70
     1
102
RTVSPropertyOp41
 70
     1
102
RTVSPropertyOp42
 70
     1
102
RTVSPropertyOp43
 70
     1
102
RTVSPropertyOp44
 70
     1
102
RTVSPropertyOp45
 70
     1
102
RTVSPropertyOp46
 70
     1
102
RTVSPropertyOp47
 70
     1
102
RTVSPropertyOp48
 70
     1
102
RTVSPropertyOp49
 70
     1
102
RTVSPropertyOp50
 70
     1
102
RTVSPropertyOp51
 70
     0
102
RTVSPropertyOp52
 70
     0
102
RTVSPropertyOp53
 70
     1
102
RTVSPropertyOp54
 70
     1
102
RTVSPropertyOp55
 70
     1
102
RTVSPropertyOp56
 70
     1
102
RTVSPropertyOp57
 70
     1
102
RTVSPropertyOp58
 70
     1
102
RTVSPropertyOp59
 70
     1
102
RTVSPropertyOp60
 70
     1
102
RTVSPropertyOp61
 70
     1
102
RTVSPropertyOp62
 70
     1
  0
XRECORD
  5
363
102
{ACAD_REACTORS
330
362
102
}
330
362
100
AcDbXrecord
280
     1
102
RTVSPost2010Prop28
280
     0
102
RTVSPost2010PropOp28
 70
     1
102
RTVSPost2010Prop29
280
     1
102
RTVSPost2010PropOp29
 70
     1
102
RTVSPost2010Prop30
280
     1
102
RTVSPost2010PropOp30
 70
     1
102
RTVSPost2010Prop31
280
     0
102
RTVSPost2010PropOp31
 70
     1
102
RTVSPost2010Prop32
280
     0
102
RTVSPost2010PropOp32
 70
     1
102
RTVSPost2010Prop33
280
     0
102
RTVSPost2010PropOp33
 70
     1
102
RTVSPost2010Prop34
280
     0
102
RTVSPost2010PropOp34
 70
     1
102
RTVSPost2010Prop35
280
     0
102
RTVSPost2010PropOp35
 70
     1
102
RTVSPost2010Prop36
280
     0
102
RTVSPost2010PropOp36
 70
     1
102
RTVSPost2010Prop37
 90
       50
102
RTVSPost2010PropOp37
 70
     1
102
RTVSPost2010Prop38
140
0.0
102
RTVSPost2010PropOp38
 70
     1
102
RTVSPost2010Prop39
140
1.0
102
RTVSPost2010PropOp39
 70
     1
102
RTVSPost2010Prop40
 90
        0
102
RTVSPost2010PropOp40
 70
     1
102
RTVSPost2010Prop41ColorIndex
 90
       18
102
RTVSPost2010Prop41ColorRGB
 90
        0
102
RTVSPost2010PropOp41
 70
     1
102
RTVSPost2010Prop42
 90
       50
102
RTVSPost2010PropOp42
 70
     1
102
RTVSPost2010Prop43
 90
        3
102
RTVSPost2010PropOp43
 70
     1
102
RTVSPost2010Prop44ColorIndex
 90
        5
102
RTVSPost2010Prop44ColorRGB
 90
      255
102
RTVSPost2010PropOp44
 70
     1
102
RTVSPost2010Prop45
280
     0
102
RTVSPost2010PropOp45
 70
     1
102
RTVSPost2010Prop46
 90
       50
102
RTVSPost2010PropOp46
 70
     1
102
RTVSPost2010Prop47
 90
       50
102
RTVSPost2010PropOp47
 70
     1
102
RTVSPost2010Prop48
 90
       50
102
RTVSPost2010PropOp48
 70
     1
102
RTVSPost2010Prop49
280
     0
102
RTVSPost2010PropOp49
 70
     1
102
RTVSPost2010Prop50
 90
       50
102
RTVSPost2010PropOp50
 70
     1
102
RTVSPost2010Prop51ColorIndex
 90
      256
102
RTVSPost2010Prop51ColorRGB
 90
-16777216
102
RTVSPost2010PropOp51
 70
     0
102
RTVSPost2010Prop52
140
1.0
102
RTVSPost2010PropOp52
 70
     0
102
RTVSPost2010Prop53
 90
        2
102
RTVSPost2010PropOp53
 70
     1
102
RTVSPost2010Prop54
  1
strokes_ogs.tif
102
RTVSPost2010PropOp54
 70
     1
102
RTVSPost2010Prop55
280
     0
102
RTVSPost2010PropOp55
 70
     1
102
RTVSPost2010Prop56
140
1.0
102
RTVSPost2010PropOp56
 70
     1
102
RTVSPost2010Prop57
140
1.0
102
RTVSPost2010PropOp57
 70
     1
102
RTVSPropertyOp0
 70
     1
102
RTVSPropertyOp1
 70
     1
102
RTVSPropertyOp2
 70
     1
102
RTVSPropertyOp3
 70
     1
102
RTVSPropertyOp4
 70
     1
102
RTVSPropertyOp5
 70
     1
102
RTVSPropertyOp6
 70
     1
102
RTVSPropertyOp7
 70
     1
102
RTVSPropertyOp8
 70
     1
102
RTVSPropertyOp9
 70
     1
102
RTVSPropertyOp10
 70
     1
102
RTVSPropertyOp11
 70
     1
102
RTVSPropertyOp12
 70
     1
102
RTVSPropertyOp13
 70
     1
102
RTVSPropertyOp14
 70
     1
102
RTVSPropertyOp15
 70
     1
102
RTVSPropertyOp16
 70
     1
102
RTVSPropertyOp17
 70
     1
102
RTVSPropertyOp18
 70
     1
102
RTVSPropertyOp19
 70
     1
102
RTVSPropertyOp20
 70
     1
102
RTVSPropertyOp21
 70
     1
102
RTVSPropertyOp22
 70
     1
102
RTVSPropertyOp23
 70
     1
102
RTVSPropertyOp24
 70
     1
102
RTVSPropertyOp25
 70
     1
102
RTVSPropertyOp26
 70
     1
102
RTVSPropertyOp27
 70
     1
102
RTVSPropertyOp28
 70
     1
102
RTVSPropertyOp29
 70
     1
102
RTVSPropertyOp30
 70
     1
102
RTVSPropertyOp31
 70
     1
102
RTVSPropertyOp32
 70
     1
102
RTVSPropertyOp33
 70
     1
102
RTVSPropertyOp34
 70
     1
102
RTVSPropertyOp35
 70
     1
102
RTVSPropertyOp36
 70
     1
102
RTVSPropertyOp37
 70
     1
102
RTVSPropertyOp38
 70
     1
102
RTVSPropertyOp39
 70
     1
102
RTVSPropertyOp40
 70
     1
102
RTVSPropertyOp41
 70
     1
102
RTVSPropertyOp42
 70
     1
102
RTVSPropertyOp43
 70
     1
102
RTVSPropertyOp44
 70
     1
102
RTVSPropertyOp45
 70
     1
102
RTVSPropertyOp46
 70
     1
102
RTVSPropertyOp47
 70
     1
102
RTVSPropertyOp48
 70
     1
102
RTVSPropertyOp49
 70
     1
102
RTVSPropertyOp50
 70
     1
102
RTVSPropertyOp51
 70
     0
102
RTVSPropertyOp52
 70
     0
102
RTVSPropertyOp53
 70
     1
102
RTVSPropertyOp54
 70
     1
102
RTVSPropertyOp55
 70
     1
102
RTVSPropertyOp56
 70
     1
102
RTVSPropertyOp57
 70
     1
102
RTVSPropertyOp58
 70
     1
102
RTVSPropertyOp59
 70
     1
102
RTVSPropertyOp60
 70
     1
102
RTVSPropertyOp61
 70
     1
102
RTVSPropertyOp62
 70
     1
  0
XRECORD
  5
377
102
{ACAD_REACTORS
330
376
102
}
330
376
100
AcDbXrecord
280
     1
102
RTVSPost2010Prop28
280
     0
102
RTVSPost2010PropOp28
 70
     0
102
RTVSPost2010Prop29
280
     1
102
RTVSPost2010PropOp29
 70
     0
102
RTVSPost2010Prop30
280
     1
102
RTVSPost2010PropOp30
 70
     0
102
RTVSPost2010Prop31
280
     0
102
RTVSPost2010PropOp31
 70
     0
102
RTVSPost2010Prop32
280
     0
102
RTVSPost2010PropOp32
 70
     0
102
RTVSPost2010Prop33
280
     0
102
RTVSPost2010PropOp33
 70
     0
102
RTVSPost2010Prop34
280
     0
102
RTVSPost2010PropOp34
 70
     0
102
RTVSPost2010Prop35
280
     0
102
RTVSPost2010PropOp35
 70
     0
102
RTVSPost2010Prop36
280
     0
102
RTVSPost2010PropOp36
 70
     0
102
RTVSPost2010Prop37
 90
       50
102
RTVSPost2010PropOp37
 70
     0
102
RTVSPost2010Prop38
140
0.0
102
RTVSPost2010PropOp38
 70
     0
102
RTVSPost2010Prop39
140
1.0
102
RTVSPost2010PropOp39
 70
     0
102
RTVSPost2010Prop40
 90
        0
102
RTVSPost2010PropOp40
 70
     0
102
RTVSPost2010Prop41ColorIndex
 90
       18
102
RTVSPost2010Prop41ColorRGB
 90
        0
102
RTVSPost2010PropOp41
 70
     0
102
RTVSPost2010Prop42
 90
       50
102
RTVSPost2010PropOp42
 70
     0
102
RTVSPost2010Prop43
 90
        3
102
RTVSPost2010PropOp43
 70
     0
102
RTVSPost2010Prop44ColorIndex
 90
        5
102
RTVSPost2010Prop44ColorRGB
 90
      255
102
RTVSPost2010PropOp44
 70
     0
102
RTVSPost2010Prop45
280
     0
102
RTVSPost2010PropOp45
 70
     0
102
RTVSPost2010Prop46
 90
       50
102
RTVSPost2010PropOp46
 70
     0
102
RTVSPost2010Prop47
 90
       50
102
RTVSPost2010PropOp47
 70
     0
102
RTVSPost2010Prop48
 90
       50
102
RTVSPost2010PropOp48
 70
     0
102
RTVSPost2010Prop49
280
     0
102
RTVSPost2010PropOp49
 70
     0
102
RTVSPost2010Prop50
 90
       50
102
RTVSPost2010PropOp50
 70
     0
102
RTVSPost2010Prop51ColorIndex
 90
      256
102
RTVSPost2010Prop51ColorRGB
 90
-16777216
102
RTVSPost2010PropOp51
 70
     0
102
RTVSPost2010Prop52
140
1.0
102
RTVSPost2010PropOp52
 70
     0
102
RTVSPost2010Prop53
 90
        2
102
RTVSPost2010PropOp53
 70
     0
102
RTVSPost2010Prop54
  1
strokes_ogs.tif
102
RTVSPost2010PropOp54
 70
     0
102
RTVSPost2010Prop55
280
     0
102
RTVSPost2010PropOp55
 70
     0
102
RTVSPost2010Prop56
140
1.0
102
RTVSPost2010PropOp56
 70
     0
102
RTVSPost2010Prop57
140
1.0
102
RTVSPost2010PropOp57
 70
     0
102
RTVSPropertyOp0
 70
     0
102
RTVSPropertyOp1
 70
     0
102
RTVSPropertyOp2
 70
     0
102
RTVSPropertyOp3
 70
     0
102
RTVSPropertyOp4
 70
     0
102
RTVSPropertyOp5
 70
     0
102
RTVSPropertyOp6
 70
     0
102
RTVSPropertyOp7
 70
     0
102
RTVSPropertyOp8
 70
     0
102
RTVSPropertyOp9
 70
     0
102
RTVSPropertyOp10
 70
     0
102
RTVSPropertyOp11
 70
     0
102
RTVSPropertyOp12
 70
     0
102
RTVSPropertyOp13
 70
     0
102
RTVSPropertyOp14
 70
     2
102
RTVSPropertyOp15
 70
     0
102
RTVSPropertyOp16
 70
     0
102
RTVSPropertyOp17
 70
     0
102
RTVSPropertyOp18
 70
     0
102
RTVSPropertyOp19
 70
     0
102
RTVSPropertyOp20
 70
     0
102
RTVSPropertyOp21
 70
     0
102
RTVSPropertyOp22
 70
     0
102
RTVSPropertyOp23
 70
     0
102
RTVSPropertyOp24
 70
     0
102
RTVSPropertyOp25
 70
     0
102
RTVSPropertyOp26
 70
     0
102
RTVSPropertyOp27
 70
     0
102
RTVSPropertyOp28
 70
     0
102
RTVSPropertyOp29
 70
     0
102
RTVSPropertyOp30
 70
     0
102
RTVSPropertyOp31
 70
     0
102
RTVSPropertyOp32
 70
     0
102
RTVSPropertyOp33
 70
     0
102
RTVSPropertyOp34
 70
     0
102
RTVSPropertyOp35
 70
     0
102
RTVSPropertyOp36
 70
     0
102
RTVSPropertyOp37
 70
     0
102
RTVSPropertyOp38
 70
     0
102
RTVSPropertyOp39
 70
     0
102
RTVSPropertyOp40
 70
     0
102
RTVSPropertyOp41
 70
     0
102
RTVSPropertyOp42
 70
     0
102
RTVSPropertyOp43
 70
     0
102
RTVSPropertyOp44
 70
     0
102
RTVSPropertyOp45
 70
     0
102
RTVSPropertyOp46
 70
     0
102
RTVSPropertyOp47
 70
     0
102
RTVSPropertyOp48
 70
     0
102
RTVSPropertyOp49
 70
     0
102
RTVSPropertyOp50
 70
     0
102
RTVSPropertyOp51
 70
     0
102
RTVSPropertyOp52
 70
     0
102
RTVSPropertyOp53
 70
     0
102
RTVSPropertyOp54
 70
     0
102
RTVSPropertyOp55
 70
     0
102
RTVSPropertyOp56
 70
     0
102
RTVSPropertyOp57
 70
     0
102
RTVSPropertyOp58
 70
     1
102
RTVSPropertyOp59
 70
     1
102
RTVSPropertyOp60
 70
     1
102
RTVSPropertyOp61
 70
     1
102
RTVSPropertyOp62
 70
     1
  0
XRECORD
  5
371
102
{ACAD_REACTORS
330
370
102
}
330
370
100
AcDbXrecord
280
     1
102
RTVSPost2010Prop28
280
     0
102
RTVSPost2010PropOp28
 70
     1
102
RTVSPost2010Prop29
280
     1
102
RTVSPost2010PropOp29
 70
     1
102
RTVSPost2010Prop30
280
     1
102
RTVSPost2010PropOp30
 70
     1
102
RTVSPost2010Prop31
280
     0
102
RTVSPost2010PropOp31
 70
     1
102
RTVSPost2010Prop32
280
     0
102
RTVSPost2010PropOp32
 70
     1
102
RTVSPost2010Prop33
280
     0
102
RTVSPost2010PropOp33
 70
     1
102
RTVSPost2010Prop34
280
     0
102
RTVSPost2010PropOp34
 70
     1
102
RTVSPost2010Prop35
280
     0
102
RTVSPost2010PropOp35
 70
     1
102
RTVSPost2010Prop36
280
     0
102
RTVSPost2010PropOp36
 70
     1
102
RTVSPost2010Prop37
 90
       50
102
RTVSPost2010PropOp37
 70
     1
102
RTVSPost2010Prop38
140
0.0
102
RTVSPost2010PropOp38
 70
     1
102
RTVSPost2010Prop39
140
1.0
102
RTVSPost2010PropOp39
 70
     1
102
RTVSPost2010Prop40
 90
        0
102
RTVSPost2010PropOp40
 70
     1
102
RTVSPost2010Prop41ColorIndex
 90
       18
102
RTVSPost2010Prop41ColorRGB
 90
        0
102
RTVSPost2010PropOp41
 70
     1
102
RTVSPost2010Prop42
 90
       50
102
RTVSPost2010PropOp42
 70
     1
102
RTVSPost2010Prop43
 90
        3
102
RTVSPost2010PropOp43
 70
     1
102
RTVSPost2010Prop44ColorIndex
 90
        5
102
RTVSPost2010Prop44ColorRGB
 90
      255
102
RTVSPost2010PropOp44
 70
     1
102
RTVSPost2010Prop45
280
     0
102
RTVSPost2010PropOp45
 70
     1
102
RTVSPost2010Prop46
 90
       50
102
RTVSPost2010PropOp46
 70
     1
102
RTVSPost2010Prop47
 90
       50
102
RTVSPost2010PropOp47
 70
     1
102
RTVSPost2010Prop48
 90
       50
102
RTVSPost2010PropOp48
 70
     1
102
RTVSPost2010Prop49
280
     0
102
RTVSPost2010PropOp49
 70
     1
102
RTVSPost2010Prop50
 90
       50
102
RTVSPost2010PropOp50
 70
     1
102
RTVSPost2010Prop51ColorIndex
 90
      256
102
RTVSPost2010Prop51ColorRGB
 90
-16777216
102
RTVSPost2010PropOp51
 70
     0
102
RTVSPost2010Prop52
140
1.0
102
RTVSPost2010PropOp52
 70
     0
102
RTVSPost2010Prop53
 90
        2
102
RTVSPost2010PropOp53
 70
     1
102
RTVSPost2010Prop54
  1
strokes_ogs.tif
102
RTVSPost2010PropOp54
 70
     1
102
RTVSPost2010Prop55
280
     0
102
RTVSPost2010PropOp55
 70
     1
102
RTVSPost2010Prop56
140
1.0
102
RTVSPost2010PropOp56
 70
     1
102
RTVSPost2010Prop57
140
1.0
102
RTVSPost2010PropOp57
 70
     1
102
RTVSPropertyOp0
 70
     1
102
RTVSPropertyOp1
 70
     1
102
RTVSPropertyOp2
 70
     1
102
RTVSPropertyOp3
 70
     1
102
RTVSPropertyOp4
 70
     1
102
RTVSPropertyOp5
 70
     1
102
RTVSPropertyOp6
 70
     1
102
RTVSPropertyOp7
 70
     1
102
RTVSPropertyOp8
 70
     1
102
RTVSPropertyOp9
 70
     1
102
RTVSPropertyOp10
 70
     1
102
RTVSPropertyOp11
 70
     1
102
RTVSPropertyOp12
 70
     1
102
RTVSPropertyOp13
 70
     1
102
RTVSPropertyOp14
 70
     1
102
RTVSPropertyOp15
 70
     1
102
RTVSPropertyOp16
 70
     1
102
RTVSPropertyOp17
 70
     1
102
RTVSPropertyOp18
 70
     1
102
RTVSPropertyOp19
 70
     1
102
RTVSPropertyOp20
 70
     1
102
RTVSPropertyOp21
 70
     1
102
RTVSPropertyOp22
 70
     1
102
RTVSPropertyOp23
 70
     1
102
RTVSPropertyOp24
 70
     1
102
RTVSPropertyOp25
 70
     1
102
RTVSPropertyOp26
 70
     1
102
RTVSPropertyOp27
 70
     1
102
RTVSPropertyOp28
 70
     1
102
RTVSPropertyOp29
 70
     1
102
RTVSPropertyOp30
 70
     1
102
RTVSPropertyOp31
 70
     1
102
RTVSPropertyOp32
 70
     1
102
RTVSPropertyOp33
 70
     1
102
RTVSPropertyOp34
 70
     1
102
RTVSPropertyOp35
 70
     1
102
RTVSPropertyOp36
 70
     1
102
RTVSPropertyOp37
 70
     1
102
RTVSPropertyOp38
 70
     1
102
RTVSPropertyOp39
 70
     1
102
RTVSPropertyOp40
 70
     1
102
RTVSPropertyOp41
 70
     1
102
RTVSPropertyOp42
 70
     1
102
RTVSPropertyOp43
 70
     1
102
RTVSPropertyOp44
 70
     1
102
RTVSPropertyOp45
 70
     1
102
RTVSPropertyOp46
 70
     1
102
RTVSPropertyOp47
 70
     1
102
RTVSPropertyOp48
 70
     1
102
RTVSPropertyOp49
 70
     1
102
RTVSPropertyOp50
 70
     1
102
RTVSPropertyOp51
 70
     0
102
RTVSPropertyOp52
 70
     0
102
RTVSPropertyOp53
 70
     1
102
RTVSPropertyOp54
 70
     1
102
RTVSPropertyOp55
 70
     1
102
RTVSPropertyOp56
 70
     1
102
RTVSPropertyOp57
 70
     1
102
RTVSPropertyOp58
 70
     1
102
RTVSPropertyOp59
 70
     1
102
RTVSPropertyOp60
 70
     1
102
RTVSPropertyOp61
 70
     1
102
RTVSPropertyOp62
 70
     1
  0
XRECORD
  5
379
102
{ACAD_REACTORS
330
378
102
}
330
378
100
AcDbXrecord
280
     1
102
RTVSPost2010Prop28
280
     0
102
RTVSPost2010PropOp28
 70
     0
102
RTVSPost2010Prop29
280
     1
102
RTVSPost2010PropOp29
 70
     0
102
RTVSPost2010Prop30
280
     1
102
RTVSPost2010PropOp30
 70
     0
102
RTVSPost2010Prop31
280
     0
102
RTVSPost2010PropOp31
 70
     0
102
RTVSPost2010Prop32
280
     0
102
RTVSPost2010PropOp32
 70
     0
102
RTVSPost2010Prop33
280
     0
102
RTVSPost2010PropOp33
 70
     0
102
RTVSPost2010Prop34
280
     0
102
RTVSPost2010PropOp34
 70
     0
102
RTVSPost2010Prop35
280
     0
102
RTVSPost2010PropOp35
 70
     0
102
RTVSPost2010Prop36
280
     0
102
RTVSPost2010PropOp36
 70
     0
102
RTVSPost2010Prop37
 90
       50
102
RTVSPost2010PropOp37
 70
     0
102
RTVSPost2010Prop38
140
0.0
102
RTVSPost2010PropOp38
 70
     0
102
RTVSPost2010Prop39
140
1.0
102
RTVSPost2010PropOp39
 70
     0
102
RTVSPost2010Prop40
 90
        0
102
RTVSPost2010PropOp40
 70
     0
102
RTVSPost2010Prop41ColorIndex
 90
       18
102
RTVSPost2010Prop41ColorRGB
 90
        0
102
RTVSPost2010PropOp41
 70
     0
102
RTVSPost2010Prop42
 90
       50
102
RTVSPost2010PropOp42
 70
     0
102
RTVSPost2010Prop43
 90
        3
102
RTVSPost2010PropOp43
 70
     0
102
RTVSPost2010Prop44ColorIndex
 90
        5
102
RTVSPost2010Prop44ColorRGB
 90
      255
102
RTVSPost2010PropOp44
 70
     0
102
RTVSPost2010Prop45
280
     0
102
RTVSPost2010PropOp45
 70
     0
102
RTVSPost2010Prop46
 90
       50
102
RTVSPost2010PropOp46
 70
     0
102
RTVSPost2010Prop47
 90
       50
102
RTVSPost2010PropOp47
 70
     0
102
RTVSPost2010Prop48
 90
       50
102
RTVSPost2010PropOp48
 70
     0
102
RTVSPost2010Prop49
280
     0
102
RTVSPost2010PropOp49
 70
     0
102
RTVSPost2010Prop50
 90
       50
102
RTVSPost2010PropOp50
 70
     0
102
RTVSPost2010Prop51ColorIndex
 90
      256
102
RTVSPost2010Prop51ColorRGB
 90
-16777216
102
RTVSPost2010PropOp51
 70
     0
102
RTVSPost2010Prop52
140
1.0
102
RTVSPost2010PropOp52
 70
     0
102
RTVSPost2010Prop53
 90
        2
102
RTVSPost2010PropOp53
 70
     0
102
RTVSPost2010Prop54
  1
strokes_ogs.tif
102
RTVSPost2010PropOp54
 70
     0
102
RTVSPost2010Prop55
280
     0
102
RTVSPost2010PropOp55
 70
     0
102
RTVSPost2010Prop56
140
1.0
102
RTVSPost2010PropOp56
 70
     0
102
RTVSPost2010Prop57
140
1.0
102
RTVSPost2010PropOp57
 70
     0
102
RTVSPropertyOp0
 70
     0
102
RTVSPropertyOp1
 70
     0
102
RTVSPropertyOp2
 70
     0
102
RTVSPropertyOp3
 70
     0
102
RTVSPropertyOp4
 70
     0
102
RTVSPropertyOp5
 70
     0
102
RTVSPropertyOp6
 70
     0
102
RTVSPropertyOp7
 70
     0
102
RTVSPropertyOp8
 70
     0
102
RTVSPropertyOp9
 70
     0
102
RTVSPropertyOp10
 70
     0
102
RTVSPropertyOp11
 70
     0
102
RTVSPropertyOp12
 70
     0
102
RTVSPropertyOp13
 70
     0
102
RTVSPropertyOp14
 70
     2
102
RTVSPropertyOp15
 70
     0
102
RTVSPropertyOp16
 70
     0
102
RTVSPropertyOp17
 70
     0
102
RTVSPropertyOp18
 70
     0
102
RTVSPropertyOp19
 70
     0
102
RTVSPropertyOp20
 70
     0
102
RTVSPropertyOp21
 70
     0
102
RTVSPropertyOp22
 70
     0
102
RTVSPropertyOp23
 70
     0
102
RTVSPropertyOp24
 70
     0
102
RTVSPropertyOp25
 70
     0
102
RTVSPropertyOp26
 70
     0
102
RTVSPropertyOp27
 70
     0
102
RTVSPropertyOp28
 70
     0
102
RTVSPropertyOp29
 70
     0
102
RTVSPropertyOp30
 70
     0
102
RTVSPropertyOp31
 70
     0
102
RTVSPropertyOp32
 70
     0
102
RTVSPropertyOp33
 70
     0
102
RTVSPropertyOp34
 70
     0
102
RTVSPropertyOp35
 70
     0
102
RTVSPropertyOp36
 70
     0
102
RTVSPropertyOp37
 70
     0
102
RTVSPropertyOp38
 70
     0
102
RTVSPropertyOp39
 70
     0
102
RTVSPropertyOp40
 70
     0
102
RTVSPropertyOp41
 70
     0
102
RTVSPropertyOp42
 70
     0
102
RTVSPropertyOp43
 70
     0
102
RTVSPropertyOp44
 70
     0
102
RTVSPropertyOp45
 70
     0
102
RTVSPropertyOp46
 70
     0
102
RTVSPropertyOp47
 70
     0
102
RTVSPropertyOp48
 70
     0
102
RTVSPropertyOp49
 70
     0
102
RTVSPropertyOp50
 70
     0
102
RTVSPropertyOp51
 70
     0
102
RTVSPropertyOp52
 70
     0
102
RTVSPropertyOp53
 70
     0
102
RTVSPropertyOp54
 70
     0
102
RTVSPropertyOp55
 70
     0
102
RTVSPropertyOp56
 70
     0
102
RTVSPropertyOp57
 70
     0
102
RTVSPropertyOp58
 70
     1
102
RTVSPropertyOp59
 70
     1
102
RTVSPropertyOp60
 70
     1
102
RTVSPropertyOp61
 70
     1
102
RTVSPropertyOp62
 70
     1
  0
XRECORD
  5
367
102
{ACAD_REACTORS
330
366
102
}
330
366
100
AcDbXrecord
280
     1
102
RTVSPost2010Prop28
280
     0
102
RTVSPost2010PropOp28
 70
     1
102
RTVSPost2010Prop29
280
     1
102
RTVSPost2010PropOp29
 70
     1
102
RTVSPost2010Prop30
280
     1
102
RTVSPost2010PropOp30
 70
     1
102
RTVSPost2010Prop31
280
     0
102
RTVSPost2010PropOp31
 70
     1
102
RTVSPost2010Prop32
280
     0
102
RTVSPost2010PropOp32
 70
     1
102
RTVSPost2010Prop33
280
     0
102
RTVSPost2010PropOp33
 70
     1
102
RTVSPost2010Prop34
280
     0
102
RTVSPost2010PropOp34
 70
     1
102
RTVSPost2010Prop35
280
     0
102
RTVSPost2010PropOp35
 70
     1
102
RTVSPost2010Prop36
280
     0
102
RTVSPost2010PropOp36
 70
     1
102
RTVSPost2010Prop37
 90
       50
102
RTVSPost2010PropOp37
 70
     1
102
RTVSPost2010Prop38
140
0.0
102
RTVSPost2010PropOp38
 70
     1
102
RTVSPost2010Prop39
140
1.0
102
RTVSPost2010PropOp39
 70
     1
102
RTVSPost2010Prop40
 90
        0
102
RTVSPost2010PropOp40
 70
     1
102
RTVSPost2010Prop41ColorIndex
 90
       18
102
RTVSPost2010Prop41ColorRGB
 90
        0
102
RTVSPost2010PropOp41
 70
     1
102
RTVSPost2010Prop42
 90
       50
102
RTVSPost2010PropOp42
 70
     1
102
RTVSPost2010Prop43
 90
        3
102
RTVSPost2010PropOp43
 70
     1
102
RTVSPost2010Prop44ColorIndex
 90
        5
102
RTVSPost2010Prop44ColorRGB
 90
      255
102
RTVSPost2010PropOp44
 70
     1
102
RTVSPost2010Prop45
280
     0
102
RTVSPost2010PropOp45
 70
     1
102
RTVSPost2010Prop46
 90
       50
102
RTVSPost2010PropOp46
 70
     1
102
RTVSPost2010Prop47
 90
       50
102
RTVSPost2010PropOp47
 70
     1
102
RTVSPost2010Prop48
 90
       50
102
RTVSPost2010PropOp48
 70
     1
102
RTVSPost2010Prop49
280
     0
102
RTVSPost2010PropOp49
 70
     1
102
RTVSPost2010Prop50
 90
       50
102
RTVSPost2010PropOp50
 70
     1
102
RTVSPost2010Prop51ColorIndex
 90
      256
102
RTVSPost2010Prop51ColorRGB
 90
-16777216
102
RTVSPost2010PropOp51
 70
     0
102
RTVSPost2010Prop52
140
1.0
102
RTVSPost2010PropOp52
 70
     0
102
RTVSPost2010Prop53
 90
        2
102
RTVSPost2010PropOp53
 70
     1
102
RTVSPost2010Prop54
  1
strokes_ogs.tif
102
RTVSPost2010PropOp54
 70
     1
102
RTVSPost2010Prop55
280
     0
102
RTVSPost2010PropOp55
 70
     1
102
RTVSPost2010Prop56
140
1.0
102
RTVSPost2010PropOp56
 70
     1
102
RTVSPost2010Prop57
140
1.0
102
RTVSPost2010PropOp57
 70
     1
102
RTVSPropertyOp0
 70
     1
102
RTVSPropertyOp1
 70
     1
102
RTVSPropertyOp2
 70
     1
102
RTVSPropertyOp3
 70
     1
102
RTVSPropertyOp4
 70
     1
102
RTVSPropertyOp5
 70
     1
102
RTVSPropertyOp6
 70
     1
102
RTVSPropertyOp7
 70
     1
102
RTVSPropertyOp8
 70
     1
102
RTVSPropertyOp9
 70
     1
102
RTVSPropertyOp10
 70
     1
102
RTVSPropertyOp11
 70
     1
102
RTVSPropertyOp12
 70
     1
102
RTVSPropertyOp13
 70
     1
102
RTVSPropertyOp14
 70
     1
102
RTVSPropertyOp15
 70
     1
102
RTVSPropertyOp16
 70
     1
102
RTVSPropertyOp17
 70
     1
102
RTVSPropertyOp18
 70
     1
102
RTVSPropertyOp19
 70
     1
102
RTVSPropertyOp20
 70
     1
102
RTVSPropertyOp21
 70
     1
102
RTVSPropertyOp22
 70
     1
102
RTVSPropertyOp23
 70
     1
102
RTVSPropertyOp24
 70
     1
102
RTVSPropertyOp25
 70
     1
102
RTVSPropertyOp26
 70
     1
102
RTVSPropertyOp27
 70
     1
102
RTVSPropertyOp28
 70
     1
102
RTVSPropertyOp29
 70
     1
102
RTVSPropertyOp30
 70
     1
102
RTVSPropertyOp31
 70
     1
102
RTVSPropertyOp32
 70
     1
102
RTVSPropertyOp33
 70
     1
102
RTVSPropertyOp34
 70
     1
102
RTVSPropertyOp35
 70
     1
102
RTVSPropertyOp36
 70
     1
102
RTVSPropertyOp37
 70
     1
102
RTVSPropertyOp38
 70
     1
102
RTVSPropertyOp39
 70
     1
102
RTVSPropertyOp40
 70
     1
102
RTVSPropertyOp41
 70
     1
102
RTVSPropertyOp42
 70
     1
102
RTVSPropertyOp43
 70
     1
102
RTVSPropertyOp44
 70
     1
102
RTVSPropertyOp45
 70
     1
102
RTVSPropertyOp46
 70
     1
102
RTVSPropertyOp47
 70
     1
102
RTVSPropertyOp48
 70
     1
102
RTVSPropertyOp49
 70
     1
102
RTVSPropertyOp50
 70
     1
102
RTVSPropertyOp51
 70
     0
102
RTVSPropertyOp52
 70
     0
102
RTVSPropertyOp53
 70
     1
102
RTVSPropertyOp54
 70
     1
102
RTVSPropertyOp55
 70
     1
102
RTVSPropertyOp56
 70
     1
102
RTVSPropertyOp57
 70
     1
102
RTVSPropertyOp58
 70
     1
102
RTVSPropertyOp59
 70
     1
102
RTVSPropertyOp60
 70
     1
102
RTVSPropertyOp61
 70
     1
102
RTVSPropertyOp62
 70
     1
  0
XRECORD
  5
385
102
{ACAD_REACTORS
330
384
102
}
330
384
100
AcDbXrecord
280
     1
102
RTVSPost2010Prop28
280
     0
102
RTVSPost2010PropOp28
 70
     1
102
RTVSPost2010Prop29
280
     1
102
RTVSPost2010PropOp29
 70
     1
102
RTVSPost2010Prop30
280
     1
102
RTVSPost2010PropOp30
 70
     1
102
RTVSPost2010Prop31
280
     0
102
RTVSPost2010PropOp31
 70
     1
102
RTVSPost2010Prop32
280
     0
102
RTVSPost2010PropOp32
 70
     1
102
RTVSPost2010Prop33
280
     0
102
RTVSPost2010PropOp33
 70
     1
102
RTVSPost2010Prop34
280
     0
102
RTVSPost2010PropOp34
 70
     1
102
RTVSPost2010Prop35
280
     0
102
RTVSPost2010PropOp35
 70
     1
102
RTVSPost2010Prop36
280
     0
102
RTVSPost2010PropOp36
 70
     1
102
RTVSPost2010Prop37
 90
       50
102
RTVSPost2010PropOp37
 70
     1
102
RTVSPost2010Prop38
140
0.0
102
RTVSPost2010PropOp38
 70
     1
102
RTVSPost2010Prop39
140
1.0
102
RTVSPost2010PropOp39
 70
     1
102
RTVSPost2010Prop40
 90
        0
102
RTVSPost2010PropOp40
 70
     1
102
RTVSPost2010Prop41ColorIndex
 90
       18
102
RTVSPost2010Prop41ColorRGB
 90
        0
102
RTVSPost2010PropOp41
 70
     1
102
RTVSPost2010Prop42
 90
       50
102
RTVSPost2010PropOp42
 70
     1
102
RTVSPost2010Prop43
 90
        3
102
RTVSPost2010PropOp43
 70
     1
102
RTVSPost2010Prop44ColorIndex
 90
        5
102
RTVSPost2010Prop44ColorRGB
 90
      255
102
RTVSPost2010PropOp44
 70
     1
102
RTVSPost2010Prop45
280
     0
102
RTVSPost2010PropOp45
 70
     1
102
RTVSPost2010Prop46
 90
       50
102
RTVSPost2010PropOp46
 70
     1
102
RTVSPost2010Prop47
 90
       50
102
RTVSPost2010PropOp47
 70
     1
102
RTVSPost2010Prop48
 90
       50
102
RTVSPost2010PropOp48
 70
     1
102
RTVSPost2010Prop49
280
     0
102
RTVSPost2010PropOp49
 70
     1
102
RTVSPost2010Prop50
 90
       50
102
RTVSPost2010PropOp50
 70
     1
102
RTVSPost2010Prop51ColorIndex
 90
      256
102
RTVSPost2010Prop51ColorRGB
 90
-16777216
102
RTVSPost2010PropOp51
 70
     0
102
RTVSPost2010Prop52
140
1.0
102
RTVSPost2010PropOp52
 70
     0
102
RTVSPost2010Prop53
 90
        2
102
RTVSPost2010PropOp53
 70
     1
102
RTVSPost2010Prop54
  1
strokes_ogs.tif
102
RTVSPost2010PropOp54
 70
     1
102
RTVSPost2010Prop55
280
     0
102
RTVSPost2010PropOp55
 70
     1
102
RTVSPost2010Prop56
140
1.0
102
RTVSPost2010PropOp56
 70
     1
102
RTVSPost2010Prop57
140
1.0
102
RTVSPost2010PropOp57
 70
     1
102
RTVSPropertyOp0
 70
     1
102
RTVSPropertyOp1
 70
     1
102
RTVSPropertyOp2
 70
     1
102
RTVSPropertyOp3
 70
     1
102
RTVSPropertyOp4
 70
     1
102
RTVSPropertyOp5
 70
     1
102
RTVSPropertyOp6
 70
     1
102
RTVSPropertyOp7
 70
     1
102
RTVSPropertyOp8
 70
     1
102
RTVSPropertyOp9
 70
     1
102
RTVSPropertyOp10
 70
     1
102
RTVSPropertyOp11
 70
     1
102
RTVSPropertyOp12
 70
     1
102
RTVSPropertyOp13
 70
     1
102
RTVSPropertyOp14
 70
     1
102
RTVSPropertyOp15
 70
     1
102
RTVSPropertyOp16
 70
     1
102
RTVSPropertyOp17
 70
     1
102
RTVSPropertyOp18
 70
     1
102
RTVSPropertyOp19
 70
     1
102
RTVSPropertyOp20
 70
     1
102
RTVSPropertyOp21
 70
     1
102
RTVSPropertyOp22
 70
     1
102
RTVSPropertyOp23
 70
     1
102
RTVSPropertyOp24
 70
     1
102
RTVSPropertyOp25
 70
     1
102
RTVSPropertyOp26
 70
     1
102
RTVSPropertyOp27
 70
     1
102
RTVSPropertyOp28
 70
     1
102
RTVSPropertyOp29
 70
     1
102
RTVSPropertyOp30
 70
     1
102
RTVSPropertyOp31
 70
     1
102
RTVSPropertyOp32
 70
     1
102
RTVSPropertyOp33
 70
     1
102
RTVSPropertyOp34
 70
     1
102
RTVSPropertyOp35
 70
     1
102
RTVSPropertyOp36
 70
     1
102
RTVSPropertyOp37
 70
     1
102
RTVSPropertyOp38
 70
     1
102
RTVSPropertyOp39
 70
     1
102
RTVSPropertyOp40
 70
     1
102
RTVSPropertyOp41
 70
     1
102
RTVSPropertyOp42
 70
     1
102
RTVSPropertyOp43
 70
     1
102
RTVSPropertyOp44
 70
     1
102
RTVSPropertyOp45
 70
     1
102
RTVSPropertyOp46
 70
     1
102
RTVSPropertyOp47
 70
     1
102
RTVSPropertyOp48
 70
     1
102
RTVSPropertyOp49
 70
     1
102
RTVSPropertyOp50
 70
     1
102
RTVSPropertyOp51
 70
     0
102
RTVSPropertyOp52
 70
     0
102
RTVSPropertyOp53
 70
     1
102
RTVSPropertyOp54
 70
     1
102
RTVSPropertyOp55
 70
     1
102
RTVSPropertyOp56
 70
     1
102
RTVSPropertyOp57
 70
     1
102
RTVSPropertyOp58
 70
     1
102
RTVSPropertyOp59
 70
     1
102
RTVSPropertyOp60
 70
     1
102
RTVSPropertyOp61
 70
     1
102
RTVSPropertyOp62
 70
     1
  0
XRECORD
  5
383
102
{ACAD_REACTORS
330
382
102
}
330
382
100
AcDbXrecord
280
     1
102
RTVSPost2010Prop28
280
     0
102
RTVSPost2010PropOp28
 70
     1
102
RTVSPost2010Prop29
280
     1
102
RTVSPost2010PropOp29
 70
     1
102
RTVSPost2010Prop30
280
     1
102
RTVSPost2010PropOp30
 70
     1
102
RTVSPost2010Prop31
280
     0
102
RTVSPost2010PropOp31
 70
     1
102
RTVSPost2010Prop32
280
     0
102
RTVSPost2010PropOp32
 70
     1
102
RTVSPost2010Prop33
280
     0
102
RTVSPost2010PropOp33
 70
     1
102
RTVSPost2010Prop34
280
     0
102
RTVSPost2010PropOp34
 70
     1
102
RTVSPost2010Prop35
280
     0
102
RTVSPost2010PropOp35
 70
     1
102
RTVSPost2010Prop36
280
     0
102
RTVSPost2010PropOp36
 70
     1
102
RTVSPost2010Prop37
 90
       50
102
RTVSPost2010PropOp37
 70
     1
102
RTVSPost2010Prop38
140
0.0
102
RTVSPost2010PropOp38
 70
     1
102
RTVSPost2010Prop39
140
1.0
102
RTVSPost2010PropOp39
 70
     1
102
RTVSPost2010Prop40
 90
        0
102
RTVSPost2010PropOp40
 70
     1
102
RTVSPost2010Prop41ColorIndex
 90
       18
102
RTVSPost2010Prop41ColorRGB
 90
        0
102
RTVSPost2010PropOp41
 70
     1
102
RTVSPost2010Prop42
 90
       50
102
RTVSPost2010PropOp42
 70
     1
102
RTVSPost2010Prop43
 90
        3
102
RTVSPost2010PropOp43
 70
     1
102
RTVSPost2010Prop44ColorIndex
 90
        5
102
RTVSPost2010Prop44ColorRGB
 90
      255
102
RTVSPost2010PropOp44
 70
     1
102
RTVSPost2010Prop45
280
     0
102
RTVSPost2010PropOp45
 70
     1
102
RTVSPost2010Prop46
 90
       50
102
RTVSPost2010PropOp46
 70
     1
102
RTVSPost2010Prop47
 90
       50
102
RTVSPost2010PropOp47
 70
     1
102
RTVSPost2010Prop48
 90
       50
102
RTVSPost2010PropOp48
 70
     1
102
RTVSPost2010Prop49
280
     0
102
RTVSPost2010PropOp49
 70
     1
102
RTVSPost2010Prop50
 90
       50
102
RTVSPost2010PropOp50
 70
     1
102
RTVSPost2010Prop51ColorIndex
 90
      256
102
RTVSPost2010Prop51ColorRGB
 90
-16777216
102
RTVSPost2010PropOp51
 70
     0
102
RTVSPost2010Prop52
140
1.0
102
RTVSPost2010PropOp52
 70
     0
102
RTVSPost2010Prop53
 90
        2
102
RTVSPost2010PropOp53
 70
     1
102
RTVSPost2010Prop54
  1
strokes_ogs.tif
102
RTVSPost2010PropOp54
 70
     1
102
RTVSPost2010Prop55
280
     0
102
RTVSPost2010PropOp55
 70
     1
102
RTVSPost2010Prop56
140
1.0
102
RTVSPost2010PropOp56
 70
     1
102
RTVSPost2010Prop57
140
1.0
102
RTVSPost2010PropOp57
 70
     1
102
RTVSPropertyOp0
 70
     1
102
RTVSPropertyOp1
 70
     1
102
RTVSPropertyOp2
 70
     1
102
RTVSPropertyOp3
 70
     1
102
RTVSPropertyOp4
 70
     1
102
RTVSPropertyOp5
 70
     1
102
RTVSPropertyOp6
 70
     1
102
RTVSPropertyOp7
 70
     1
102
RTVSPropertyOp8
 70
     1
102
RTVSPropertyOp9
 70
     1
102
RTVSPropertyOp10
 70
     1
102
RTVSPropertyOp11
 70
     1
102
RTVSPropertyOp12
 70
     1
102
RTVSPropertyOp13
 70
     1
102
RTVSPropertyOp14
 70
     1
102
RTVSPropertyOp15
 70
     1
102
RTVSPropertyOp16
 70
     1
102
RTVSPropertyOp17
 70
     1
102
RTVSPropertyOp18
 70
     1
102
RTVSPropertyOp19
 70
     1
102
RTVSPropertyOp20
 70
     1
102
RTVSPropertyOp21
 70
     1
102
RTVSPropertyOp22
 70
     1
102
RTVSPropertyOp23
 70
     1
102
RTVSPropertyOp24
 70
     1
102
RTVSPropertyOp25
 70
     1
102
RTVSPropertyOp26
 70
     1
102
RTVSPropertyOp27
 70
     1
102
RTVSPropertyOp28
 70
     1
102
RTVSPropertyOp29
 70
     1
102
RTVSPropertyOp30
 70
     1
102
RTVSPropertyOp31
 70
     1
102
RTVSPropertyOp32
 70
     1
102
RTVSPropertyOp33
 70
     1
102
RTVSPropertyOp34
 70
     1
102
RTVSPropertyOp35
 70
     1
102
RTVSPropertyOp36
 70
     1
102
RTVSPropertyOp37
 70
     1
102
RTVSPropertyOp38
 70
     1
102
RTVSPropertyOp39
 70
     1
102
RTVSPropertyOp40
 70
     1
102
RTVSPropertyOp41
 70
     1
102
RTVSPropertyOp42
 70
     1
102
RTVSPropertyOp43
 70
     1
102
RTVSPropertyOp44
 70
     1
102
RTVSPropertyOp45
 70
     1
102
RTVSPropertyOp46
 70
     1
102
RTVSPropertyOp47
 70
     1
102
RTVSPropertyOp48
 70
     1
102
RTVSPropertyOp49
 70
     1
102
RTVSPropertyOp50
 70
     1
102
RTVSPropertyOp51
 70
     0
102
RTVSPropertyOp52
 70
     0
102
RTVSPropertyOp53
 70
     1
102
RTVSPropertyOp54
 70
     1
102
RTVSPropertyOp55
 70
     1
102
RTVSPropertyOp56
 70
     1
102
RTVSPropertyOp57
 70
     1
102
RTVSPropertyOp58
 70
     1
102
RTVSPropertyOp59
 70
     1
102
RTVSPropertyOp60
 70
     1
102
RTVSPropertyOp61
 70
     1
102
RTVSPropertyOp62
 70
     1
  0
XRECORD
  5
37D
102
{ACAD_REACTORS
330
37C
102
}
330
37C
100
AcDbXrecord
280
     1
102
RTVSPost2010Prop28
280
     0
102
RTVSPost2010PropOp28
 70
     1
102
RTVSPost2010Prop29
280
     1
102
RTVSPost2010PropOp29
 70
     1
102
RTVSPost2010Prop30
280
     1
102
RTVSPost2010PropOp30
 70
     1
102
RTVSPost2010Prop31
280
     0
102
RTVSPost2010PropOp31
 70
     1
102
RTVSPost2010Prop32
280
     0
102
RTVSPost2010PropOp32
 70
     1
102
RTVSPost2010Prop33
280
     0
102
RTVSPost2010PropOp33
 70
     1
102
RTVSPost2010Prop34
280
     0
102
RTVSPost2010PropOp34
 70
     1
102
RTVSPost2010Prop35
280
     0
102
RTVSPost2010PropOp35
 70
     1
102
RTVSPost2010Prop36
280
     0
102
RTVSPost2010PropOp36
 70
     1
102
RTVSPost2010Prop37
 90
       50
102
RTVSPost2010PropOp37
 70
     1
102
RTVSPost2010Prop38
140
0.0
102
RTVSPost2010PropOp38
 70
     1
102
RTVSPost2010Prop39
140
1.0
102
RTVSPost2010PropOp39
 70
     1
102
RTVSPost2010Prop40
 90
        0
102
RTVSPost2010PropOp40
 70
     1
102
RTVSPost2010Prop41ColorIndex
 90
       18
102
RTVSPost2010Prop41ColorRGB
 90
        0
102
RTVSPost2010PropOp41
 70
     1
102
RTVSPost2010Prop42
 90
       50
102
RTVSPost2010PropOp42
 70
     1
102
RTVSPost2010Prop43
 90
        3
102
RTVSPost2010PropOp43
 70
     1
102
RTVSPost2010Prop44ColorIndex
 90
        5
102
RTVSPost2010Prop44ColorRGB
 90
      255
102
RTVSPost2010PropOp44
 70
     1
102
RTVSPost2010Prop45
280
     0
102
RTVSPost2010PropOp45
 70
     1
102
RTVSPost2010Prop46
 90
       50
102
RTVSPost2010PropOp46
 70
     1
102
RTVSPost2010Prop47
 90
       50
102
RTVSPost2010PropOp47
 70
     1
102
RTVSPost2010Prop48
 90
       50
102
RTVSPost2010PropOp48
 70
     1
102
RTVSPost2010Prop49
280
     0
102
RTVSPost2010PropOp49
 70
     1
102
RTVSPost2010Prop50
 90
       50
102
RTVSPost2010PropOp50
 70
     1
102
RTVSPost2010Prop51ColorIndex
 90
      256
102
RTVSPost2010Prop51ColorRGB
 90
-16777216
102
RTVSPost2010PropOp51
 70
     0
102
RTVSPost2010Prop52
140
1.0
102
RTVSPost2010PropOp52
 70
     0
102
RTVSPost2010Prop53
 90
        2
102
RTVSPost2010PropOp53
 70
     1
102
RTVSPost2010Prop54
  1
strokes_ogs.tif
102
RTVSPost2010PropOp54
 70
     1
102
RTVSPost2010Prop55
280
     0
102
RTVSPost2010PropOp55
 70
     1
102
RTVSPost2010Prop56
140
1.0
102
RTVSPost2010PropOp56
 70
     1
102
RTVSPost2010Prop57
140
1.0
102
RTVSPost2010PropOp57
 70
     1
102
RTVSPropertyOp0
 70
     1
102
RTVSPropertyOp1
 70
     1
102
RTVSPropertyOp2
 70
     1
102
RTVSPropertyOp3
 70
     1
102
RTVSPropertyOp4
 70
     1
102
RTVSPropertyOp5
 70
     1
102
RTVSPropertyOp6
 70
     1
102
RTVSPropertyOp7
 70
     1
102
RTVSPropertyOp8
 70
     1
102
RTVSPropertyOp9
 70
     1
102
RTVSPropertyOp10
 70
     1
102
RTVSPropertyOp11
 70
     1
102
RTVSPropertyOp12
 70
     1
102
RTVSPropertyOp13
 70
     1
102
RTVSPropertyOp14
 70
     1
102
RTVSPropertyOp15
 70
     1
102
RTVSPropertyOp16
 70
     1
102
RTVSPropertyOp17
 70
     1
102
RTVSPropertyOp18
 70
     1
102
RTVSPropertyOp19
 70
     1
102
RTVSPropertyOp20
 70
     1
102
RTVSPropertyOp21
 70
     1
102
RTVSPropertyOp22
 70
     1
102
RTVSPropertyOp23
 70
     1
102
RTVSPropertyOp24
 70
     1
102
RTVSPropertyOp25
 70
     1
102
RTVSPropertyOp26
 70
     1
102
RTVSPropertyOp27
 70
     1
102
RTVSPropertyOp28
 70
     1
102
RTVSPropertyOp29
 70
     1
102
RTVSPropertyOp30
 70
     1
102
RTVSPropertyOp31
 70
     1
102
RTVSPropertyOp32
 70
     1
102
RTVSPropertyOp33
 70
     1
102
RTVSPropertyOp34
 70
     1
102
RTVSPropertyOp35
 70
     1
102
RTVSPropertyOp36
 70
     1
102
RTVSPropertyOp37
 70
     1
102
RTVSPropertyOp38
 70
     1
102
RTVSPropertyOp39
 70
     1
102
RTVSPropertyOp40
 70
     1
102
RTVSPropertyOp41
 70
     1
102
RTVSPropertyOp42
 70
     1
102
RTVSPropertyOp43
 70
     1
102
RTVSPropertyOp44
 70
     1
102
RTVSPropertyOp45
 70
     1
102
RTVSPropertyOp46
 70
     1
102
RTVSPropertyOp47
 70
     1
102
RTVSPropertyOp48
 70
     1
102
RTVSPropertyOp49
 70
     1
102
RTVSPropertyOp50
 70
     1
102
RTVSPropertyOp51
 70
     0
102
RTVSPropertyOp52
 70
     0
102
RTVSPropertyOp53
 70
     1
102
RTVSPropertyOp54
 70
     1
102
RTVSPropertyOp55
 70
     1
102
RTVSPropertyOp56
 70
     1
102
RTVSPropertyOp57
 70
     1
102
RTVSPropertyOp58
 70
     1
102
RTVSPropertyOp59
 70
     1
102
RTVSPropertyOp60
 70
     1
102
RTVSPropertyOp61
 70
     1
102
RTVSPropertyOp62
 70
     1
  0
XRECORD
  5
37F
102
{ACAD_REACTORS
330
37E
102
}
330
37E
100
AcDbXrecord
280
     1
102
RTVSPost2010Prop28
280
     0
102
RTVSPost2010PropOp28
 70
     1
102
RTVSPost2010Prop29
280
     1
102
RTVSPost2010PropOp29
 70
     1
102
RTVSPost2010Prop30
280
     1
102
RTVSPost2010PropOp30
 70
     1
102
RTVSPost2010Prop31
280
     0
102
RTVSPost2010PropOp31
 70
     1
102
RTVSPost2010Prop32
280
     0
102
RTVSPost2010PropOp32
 70
     1
102
RTVSPost2010Prop33
280
     0
102
RTVSPost2010PropOp33
 70
     1
102
RTVSPost2010Prop34
280
     0
102
RTVSPost2010PropOp34
 70
     1
102
RTVSPost2010Prop35
280
     0
102
RTVSPost2010PropOp35
 70
     1
102
RTVSPost2010Prop36
280
     0
102
RTVSPost2010PropOp36
 70
     1
102
RTVSPost2010Prop37
 90
       50
102
RTVSPost2010PropOp37
 70
     1
102
RTVSPost2010Prop38
140
0.0
102
RTVSPost2010PropOp38
 70
     1
102
RTVSPost2010Prop39
140
1.0
102
RTVSPost2010PropOp39
 70
     1
102
RTVSPost2010Prop40
 90
        0
102
RTVSPost2010PropOp40
 70
     1
102
RTVSPost2010Prop41ColorIndex
 90
       18
102
RTVSPost2010Prop41ColorRGB
 90
        0
102
RTVSPost2010PropOp41
 70
     1
102
RTVSPost2010Prop42
 90
       50
102
RTVSPost2010PropOp42
 70
     1
102
RTVSPost2010Prop43
 90
        3
102
RTVSPost2010PropOp43
 70
     1
102
RTVSPost2010Prop44ColorIndex
 90
        5
102
RTVSPost2010Prop44ColorRGB
 90
      255
102
RTVSPost2010PropOp44
 70
     1
102
RTVSPost2010Prop45
280
     0
102
RTVSPost2010PropOp45
 70
     1
102
RTVSPost2010Prop46
 90
       50
102
RTVSPost2010PropOp46
 70
     1
102
RTVSPost2010Prop47
 90
       50
102
RTVSPost2010PropOp47
 70
     1
102
RTVSPost2010Prop48
 90
       50
102
RTVSPost2010PropOp48
 70
     1
102
RTVSPost2010Prop49
280
     0
102
RTVSPost2010PropOp49
 70
     1
102
RTVSPost2010Prop50
 90
       50
102
RTVSPost2010PropOp50
 70
     1
102
RTVSPost2010Prop51ColorIndex
 90
      256
102
RTVSPost2010Prop51ColorRGB
 90
-16777216
102
RTVSPost2010PropOp51
 70
     0
102
RTVSPost2010Prop52
140
1.0
102
RTVSPost2010PropOp52
 70
     0
102
RTVSPost2010Prop53
 90
        2
102
RTVSPost2010PropOp53
 70
     1
102
RTVSPost2010Prop54
  1
strokes_ogs.tif
102
RTVSPost2010PropOp54
 70
     1
102
RTVSPost2010Prop55
280
     0
102
RTVSPost2010PropOp55
 70
     1
102
RTVSPost2010Prop56
140
1.0
102
RTVSPost2010PropOp56
 70
     1
102
RTVSPost2010Prop57
140
1.0
102
RTVSPost2010PropOp57
 70
     1
102
RTVSPropertyOp0
 70
     1
102
RTVSPropertyOp1
 70
     1
102
RTVSPropertyOp2
 70
     1
102
RTVSPropertyOp3
 70
     1
102
RTVSPropertyOp4
 70
     1
102
RTVSPropertyOp5
 70
     1
102
RTVSPropertyOp6
 70
     1
102
RTVSPropertyOp7
 70
     1
102
RTVSPropertyOp8
 70
     1
102
RTVSPropertyOp9
 70
     1
102
RTVSPropertyOp10
 70
     1
102
RTVSPropertyOp11
 70
     1
102
RTVSPropertyOp12
 70
     1
102
RTVSPropertyOp13
 70
     1
102
RTVSPropertyOp14
 70
     1
102
RTVSPropertyOp15
 70
     1
102
RTVSPropertyOp16
 70
     1
102
RTVSPropertyOp17
 70
     1
102
RTVSPropertyOp18
 70
     1
102
RTVSPropertyOp19
 70
     1
102
RTVSPropertyOp20
 70
     1
102
RTVSPropertyOp21
 70
     1
102
RTVSPropertyOp22
 70
     1
102
RTVSPropertyOp23
 70
     1
102
RTVSPropertyOp24
 70
     1
102
RTVSPropertyOp25
 70
     1
102
RTVSPropertyOp26
 70
     1
102
RTVSPropertyOp27
 70
     1
102
RTVSPropertyOp28
 70
     1
102
RTVSPropertyOp29
 70
     1
102
RTVSPropertyOp30
 70
     1
102
RTVSPropertyOp31
 70
     1
102
RTVSPropertyOp32
 70
     1
102
RTVSPropertyOp33
 70
     1
102
RTVSPropertyOp34
 70
     1
102
RTVSPropertyOp35
 70
     1
102
RTVSPropertyOp36
 70
     1
102
RTVSPropertyOp37
 70
     1
102
RTVSPropertyOp38
 70
     1
102
RTVSPropertyOp39
 70
     1
102
RTVSPropertyOp40
 70
     1
102
RTVSPropertyOp41
 70
     1
102
RTVSPropertyOp42
 70
     1
102
RTVSPropertyOp43
 70
     1
102
RTVSPropertyOp44
 70
     1
102
RTVSPropertyOp45
 70
     1
102
RTVSPropertyOp46
 70
     1
102
RTVSPropertyOp47
 70
     1
102
RTVSPropertyOp48
 70
     1
102
RTVSPropertyOp49
 70
     1
102
RTVSPropertyOp50
 70
     1
102
RTVSPropertyOp51
 70
     0
102
RTVSPropertyOp52
 70
     0
102
RTVSPropertyOp53
 70
     1
102
RTVSPropertyOp54
 70
     1
102
RTVSPropertyOp55
 70
     1
102
RTVSPropertyOp56
 70
     1
102
RTVSPropertyOp57
 70
     1
102
RTVSPropertyOp58
 70
     1
102
RTVSPropertyOp59
 70
     1
102
RTVSPropertyOp60
 70
     1
102
RTVSPropertyOp61
 70
     1
102
RTVSPropertyOp62
 70
     1
  0
XRECORD
  5
36F
102
{ACAD_REACTORS
330
36E
102
}
330
36E
100
AcDbXrecord
280
     1
102
RTVSPost2010Prop28
280
     0
102
RTVSPost2010PropOp28
 70
     1
102
RTVSPost2010Prop29
280
     1
102
RTVSPost2010PropOp29
 70
     1
102
RTVSPost2010Prop30
280
     1
102
RTVSPost2010PropOp30
 70
     1
102
RTVSPost2010Prop31
280
     0
102
RTVSPost2010PropOp31
 70
     1
102
RTVSPost2010Prop32
280
     0
102
RTVSPost2010PropOp32
 70
     1
102
RTVSPost2010Prop33
280
     0
102
RTVSPost2010PropOp33
 70
     1
102
RTVSPost2010Prop34
280
     0
102
RTVSPost2010PropOp34
 70
     1
102
RTVSPost2010Prop35
280
     0
102
RTVSPost2010PropOp35
 70
     1
102
RTVSPost2010Prop36
280
     0
102
RTVSPost2010PropOp36
 70
     1
102
RTVSPost2010Prop37
 90
       50
102
RTVSPost2010PropOp37
 70
     1
102
RTVSPost2010Prop38
140
0.0
102
RTVSPost2010PropOp38
 70
     1
102
RTVSPost2010Prop39
140
1.0
102
RTVSPost2010PropOp39
 70
     1
102
RTVSPost2010Prop40
 90
        0
102
RTVSPost2010PropOp40
 70
     1
102
RTVSPost2010Prop41ColorIndex
 90
       18
102
RTVSPost2010Prop41ColorRGB
 90
        0
102
RTVSPost2010PropOp41
 70
     1
102
RTVSPost2010Prop42
 90
       50
102
RTVSPost2010PropOp42
 70
     1
102
RTVSPost2010Prop43
 90
        3
102
RTVSPost2010PropOp43
 70
     1
102
RTVSPost2010Prop44ColorIndex
 90
        5
102
RTVSPost2010Prop44ColorRGB
 90
      255
102
RTVSPost2010PropOp44
 70
     1
102
RTVSPost2010Prop45
280
     0
102
RTVSPost2010PropOp45
 70
     1
102
RTVSPost2010Prop46
 90
       50
102
RTVSPost2010PropOp46
 70
     1
102
RTVSPost2010Prop47
 90
       50
102
RTVSPost2010PropOp47
 70
     1
102
RTVSPost2010Prop48
 90
       50
102
RTVSPost2010PropOp48
 70
     1
102
RTVSPost2010Prop49
280
     0
102
RTVSPost2010PropOp49
 70
     1
102
RTVSPost2010Prop50
 90
       50
102
RTVSPost2010PropOp50
 70
     1
102
RTVSPost2010Prop51ColorIndex
 90
      256
102
RTVSPost2010Prop51ColorRGB
 90
-16777216
102
RTVSPost2010PropOp51
 70
     0
102
RTVSPost2010Prop52
140
1.0
102
RTVSPost2010PropOp52
 70
     0
102
RTVSPost2010Prop53
 90
        2
102
RTVSPost2010PropOp53
 70
     1
102
RTVSPost2010Prop54
  1
strokes_ogs.tif
102
RTVSPost2010PropOp54
 70
     1
102
RTVSPost2010Prop55
280
     0
102
RTVSPost2010PropOp55
 70
     1
102
RTVSPost2010Prop56
140
1.0
102
RTVSPost2010PropOp56
 70
     1
102
RTVSPost2010Prop57
140
1.0
102
RTVSPost2010PropOp57
 70
     1
102
RTVSPropertyOp0
 70
     1
102
RTVSPropertyOp1
 70
     1
102
RTVSPropertyOp2
 70
     1
102
RTVSPropertyOp3
 70
     1
102
RTVSPropertyOp4
 70
     1
102
RTVSPropertyOp5
 70
     1
102
RTVSPropertyOp6
 70
     1
102
RTVSPropertyOp7
 70
     1
102
RTVSPropertyOp8
 70
     1
102
RTVSPropertyOp9
 70
     1
102
RTVSPropertyOp10
 70
     1
102
RTVSPropertyOp11
 70
     1
102
RTVSPropertyOp12
 70
     1
102
RTVSPropertyOp13
 70
     1
102
RTVSPropertyOp14
 70
     1
102
RTVSPropertyOp15
 70
     1
102
RTVSPropertyOp16
 70
     1
102
RTVSPropertyOp17
 70
     1
102
RTVSPropertyOp18
 70
     1
102
RTVSPropertyOp19
 70
     1
102
RTVSPropertyOp20
 70
     1
102
RTVSPropertyOp21
 70
     1
102
RTVSPropertyOp22
 70
     1
102
RTVSPropertyOp23
 70
     1
102
RTVSPropertyOp24
 70
     1
102
RTVSPropertyOp25
 70
     1
102
RTVSPropertyOp26
 70
     1
102
RTVSPropertyOp27
 70
     1
102
RTVSPropertyOp28
 70
     1
102
RTVSPropertyOp29
 70
     1
102
RTVSPropertyOp30
 70
     1
102
RTVSPropertyOp31
 70
     1
102
RTVSPropertyOp32
 70
     1
102
RTVSPropertyOp33
 70
     1
102
RTVSPropertyOp34
 70
     1
102
RTVSPropertyOp35
 70
     1
102
RTVSPropertyOp36
 70
     1
102
RTVSPropertyOp37
 70
     1
102
RTVSPropertyOp38
 70
     1
102
RTVSPropertyOp39
 70
     1
102
RTVSPropertyOp40
 70
     1
102
RTVSPropertyOp41
 70
     1
102
RTVSPropertyOp42
 70
     1
102
RTVSPropertyOp43
 70
     1
102
RTVSPropertyOp44
 70
     1
102
RTVSPropertyOp45
 70
     1
102
RTVSPropertyOp46
 70
     1
102
RTVSPropertyOp47
 70
     1
102
RTVSPropertyOp48
 70
     1
102
RTVSPropertyOp49
 70
     1
102
RTVSPropertyOp50
 70
     1
102
RTVSPropertyOp51
 70
     0
102
RTVSPropertyOp52
 70
     0
102
RTVSPropertyOp53
 70
     1
102
RTVSPropertyOp54
 70
     1
102
RTVSPropertyOp55
 70
     1
102
RTVSPropertyOp56
 70
     1
102
RTVSPropertyOp57
 70
     1
102
RTVSPropertyOp58
 70
     1
102
RTVSPropertyOp59
 70
     1
102
RTVSPropertyOp60
 70
     1
102
RTVSPropertyOp61
 70
     1
102
RTVSPropertyOp62
 70
     1
  0
XRECORD
  5
361
102
{ACAD_REACTORS
330
360
102
}
330
360
100
AcDbXrecord
280
     1
102
RTVSPost2010Prop28
280
     0
102
RTVSPost2010PropOp28
 70
     1
102
RTVSPost2010Prop29
280
     1
102
RTVSPost2010PropOp29
 70
     1
102
RTVSPost2010Prop30
280
     1
102
RTVSPost2010PropOp30
 70
     1
102
RTVSPost2010Prop31
280
     0
102
RTVSPost2010PropOp31
 70
     1
102
RTVSPost2010Prop32
280
     0
102
RTVSPost2010PropOp32
 70
     1
102
RTVSPost2010Prop33
280
     0
102
RTVSPost2010PropOp33
 70
     1
102
RTVSPost2010Prop34
280
     0
102
RTVSPost2010PropOp34
 70
     1
102
RTVSPost2010Prop35
280
     0
102
RTVSPost2010PropOp35
 70
     1
102
RTVSPost2010Prop36
280
     0
102
RTVSPost2010PropOp36
 70
     1
102
RTVSPost2010Prop37
 90
       50
102
RTVSPost2010PropOp37
 70
     1
102
RTVSPost2010Prop38
140
0.0
102
RTVSPost2010PropOp38
 70
     1
102
RTVSPost2010Prop39
140
1.0
102
RTVSPost2010PropOp39
 70
     1
102
RTVSPost2010Prop40
 90
        0
102
RTVSPost2010PropOp40
 70
     1
102
RTVSPost2010Prop41ColorIndex
 90
       18
102
RTVSPost2010Prop41ColorRGB
 90
        0
102
RTVSPost2010PropOp41
 70
     1
102
RTVSPost2010Prop42
 90
       50
102
RTVSPost2010PropOp42
 70
     1
102
RTVSPost2010Prop43
 90
        3
102
RTVSPost2010PropOp43
 70
     1
102
RTVSPost2010Prop44ColorIndex
 90
        5
102
RTVSPost2010Prop44ColorRGB
 90
      255
102
RTVSPost2010PropOp44
 70
     1
102
RTVSPost2010Prop45
280
     0
102
RTVSPost2010PropOp45
 70
     1
102
RTVSPost2010Prop46
 90
       50
102
RTVSPost2010PropOp46
 70
     1
102
RTVSPost2010Prop47
 90
       50
102
RTVSPost2010PropOp47
 70
     1
102
RTVSPost2010Prop48
 90
       50
102
RTVSPost2010PropOp48
 70
     1
102
RTVSPost2010Prop49
280
     0
102
RTVSPost2010PropOp49
 70
     1
102
RTVSPost2010Prop50
 90
       50
102
RTVSPost2010PropOp50
 70
     1
102
RTVSPost2010Prop51ColorIndex
 90
      256
102
RTVSPost2010Prop51ColorRGB
 90
-16777216
102
RTVSPost2010PropOp51
 70
     0
102
RTVSPost2010Prop52
140
1.0
102
RTVSPost2010PropOp52
 70
     0
102
RTVSPost2010Prop53
 90
        2
102
RTVSPost2010PropOp53
 70
     1
102
RTVSPost2010Prop54
  1
strokes_ogs.tif
102
RTVSPost2010PropOp54
 70
     1
102
RTVSPost2010Prop55
280
     0
102
RTVSPost2010PropOp55
 70
     1
102
RTVSPost2010Prop56
140
1.0
102
RTVSPost2010PropOp56
 70
     1
102
RTVSPost2010Prop57
140
1.0
102
RTVSPost2010PropOp57
 70
     1
102
RTVSPropertyOp0
 70
     1
102
RTVSPropertyOp1
 70
     1
102
RTVSPropertyOp2
 70
     1
102
RTVSPropertyOp3
 70
     1
102
RTVSPropertyOp4
 70
     1
102
RTVSPropertyOp5
 70
     1
102
RTVSPropertyOp6
 70
     1
102
RTVSPropertyOp7
 70
     1
102
RTVSPropertyOp8
 70
     1
102
RTVSPropertyOp9
 70
     1
102
RTVSPropertyOp10
 70
     1
102
RTVSPropertyOp11
 70
     1
102
RTVSPropertyOp12
 70
     1
102
RTVSPropertyOp13
 70
     1
102
RTVSPropertyOp14
 70
     1
102
RTVSPropertyOp15
 70
     1
102
RTVSPropertyOp16
 70
     1
102
RTVSPropertyOp17
 70
     1
102
RTVSPropertyOp18
 70
     1
102
RTVSPropertyOp19
 70
     1
102
RTVSPropertyOp20
 70
     1
102
RTVSPropertyOp21
 70
     1
102
RTVSPropertyOp22
 70
     1
102
RTVSPropertyOp23
 70
     1
102
RTVSPropertyOp24
 70
     1
102
RTVSPropertyOp25
 70
     1
102
RTVSPropertyOp26
 70
     1
102
RTVSPropertyOp27
 70
     1
102
RTVSPropertyOp28
 70
     1
102
RTVSPropertyOp29
 70
     1
102
RTVSPropertyOp30
 70
     1
102
RTVSPropertyOp31
 70
     1
102
RTVSPropertyOp32
 70
     1
102
RTVSPropertyOp33
 70
     1
102
RTVSPropertyOp34
 70
     1
102
RTVSPropertyOp35
 70
     1
102
RTVSPropertyOp36
 70
     1
102
RTVSPropertyOp37
 70
     1
102
RTVSPropertyOp38
 70
     1
102
RTVSPropertyOp39
 70
     1
102
RTVSPropertyOp40
 70
     1
102
RTVSPropertyOp41
 70
     1
102
RTVSPropertyOp42
 70
     1
102
RTVSPropertyOp43
 70
     1
102
RTVSPropertyOp44
 70
     1
102
RTVSPropertyOp45
 70
     1
102
RTVSPropertyOp46
 70
     1
102
RTVSPropertyOp47
 70
     1
102
RTVSPropertyOp48
 70
     1
102
RTVSPropertyOp49
 70
     1
102
RTVSPropertyOp50
 70
     1
102
RTVSPropertyOp51
 70
     0
102
RTVSPropertyOp52
 70
     0
102
RTVSPropertyOp53
 70
     1
102
RTVSPropertyOp54
 70
     1
102
RTVSPropertyOp55
 70
     1
102
RTVSPropertyOp56
 70
     1
102
RTVSPropertyOp57
 70
     1
102
RTVSPropertyOp58
 70
     1
102
RTVSPropertyOp59
 70
     1
102
RTVSPropertyOp60
 70
     1
102
RTVSPropertyOp61
 70
     1
102
RTVSPropertyOp62
 70
     1
  0
XRECORD
  5
381
102
{ACAD_REACTORS
330
380
102
}
330
380
100
AcDbXrecord
280
     1
102
RTVSPost2010Prop28
280
     0
102
RTVSPost2010PropOp28
 70
     1
102
RTVSPost2010Prop29
280
     1
102
RTVSPost2010PropOp29
 70
     1
102
RTVSPost2010Prop30
280
     1
102
RTVSPost2010PropOp30
 70
     1
102
RTVSPost2010Prop31
280
     0
102
RTVSPost2010PropOp31
 70
     1
102
RTVSPost2010Prop32
280
     0
102
RTVSPost2010PropOp32
 70
     1
102
RTVSPost2010Prop33
280
     0
102
RTVSPost2010PropOp33
 70
     1
102
RTVSPost2010Prop34
280
     0
102
RTVSPost2010PropOp34
 70
     1
102
RTVSPost2010Prop35
280
     0
102
RTVSPost2010PropOp35
 70
     1
102
RTVSPost2010Prop36
280
     0
102
RTVSPost2010PropOp36
 70
     1
102
RTVSPost2010Prop37
 90
       50
102
RTVSPost2010PropOp37
 70
     1
102
RTVSPost2010Prop38
140
0.0
102
RTVSPost2010PropOp38
 70
     1
102
RTVSPost2010Prop39
140
1.0
102
RTVSPost2010PropOp39
 70
     1
102
RTVSPost2010Prop40
 90
        0
102
RTVSPost2010PropOp40
 70
     1
102
RTVSPost2010Prop41ColorIndex
 90
       18
102
RTVSPost2010Prop41ColorRGB
 90
        0
102
RTVSPost2010PropOp41
 70
     1
102
RTVSPost2010Prop42
 90
       50
102
RTVSPost2010PropOp42
 70
     1
102
RTVSPost2010Prop43
 90
        3
102
RTVSPost2010PropOp43
 70
     1
102
RTVSPost2010Prop44ColorIndex
 90
        5
102
RTVSPost2010Prop44ColorRGB
 90
      255
102
RTVSPost2010PropOp44
 70
     1
102
RTVSPost2010Prop45
280
     0
102
RTVSPost2010PropOp45
 70
     1
102
RTVSPost2010Prop46
 90
       50
102
RTVSPost2010PropOp46
 70
     1
102
RTVSPost2010Prop47
 90
       50
102
RTVSPost2010PropOp47
 70
     1
102
RTVSPost2010Prop48
 90
       50
102
RTVSPost2010PropOp48
 70
     1
102
RTVSPost2010Prop49
280
     0
102
RTVSPost2010PropOp49
 70
     1
102
RTVSPost2010Prop50
 90
       50
102
RTVSPost2010PropOp50
 70
     1
102
RTVSPost2010Prop51ColorIndex
 90
      256
102
RTVSPost2010Prop51ColorRGB
 90
-16777216
102
RTVSPost2010PropOp51
 70
     0
102
RTVSPost2010Prop52
140
1.0
102
RTVSPost2010PropOp52
 70
     0
102
RTVSPost2010Prop53
 90
        2
102
RTVSPost2010PropOp53
 70
     1
102
RTVSPost2010Prop54
  1
strokes_ogs.tif
102
RTVSPost2010PropOp54
 70
     1
102
RTVSPost2010Prop55
280
     0
102
RTVSPost2010PropOp55
 70
     1
102
RTVSPost2010Prop56
140
1.0
102
RTVSPost2010PropOp56
 70
     1
102
RTVSPost2010Prop57
140
1.0
102
RTVSPost2010PropOp57
 70
     1
102
RTVSPropertyOp0
 70
     1
102
RTVSPropertyOp1
 70
     1
102
RTVSPropertyOp2
 70
     1
102
RTVSPropertyOp3
 70
     1
102
RTVSPropertyOp4
 70
     1
102
RTVSPropertyOp5
 70
     1
102
RTVSPropertyOp6
 70
     1
102
RTVSPropertyOp7
 70
     1
102
RTVSPropertyOp8
 70
     1
102
RTVSPropertyOp9
 70
     1
102
RTVSPropertyOp10
 70
     1
102
RTVSPropertyOp11
 70
     1
102
RTVSPropertyOp12
 70
     1
102
RTVSPropertyOp13
 70
     1
102
RTVSPropertyOp14
 70
     1
102
RTVSPropertyOp15
 70
     1
102
RTVSPropertyOp16
 70
     1
102
RTVSPropertyOp17
 70
     1
102
RTVSPropertyOp18
 70
     1
102
RTVSPropertyOp19
 70
     1
102
RTVSPropertyOp20
 70
     1
102
RTVSPropertyOp21
 70
     1
102
RTVSPropertyOp22
 70
     1
102
RTVSPropertyOp23
 70
     1
102
RTVSPropertyOp24
 70
     1
102
RTVSPropertyOp25
 70
     1
102
RTVSPropertyOp26
 70
     1
102
RTVSPropertyOp27
 70
     1
102
RTVSPropertyOp28
 70
     1
102
RTVSPropertyOp29
 70
     1
102
RTVSPropertyOp30
 70
     1
102
RTVSPropertyOp31
 70
     1
102
RTVSPropertyOp32
 70
     1
102
RTVSPropertyOp33
 70
     1
102
RTVSPropertyOp34
 70
     1
102
RTVSPropertyOp35
 70
     1
102
RTVSPropertyOp36
 70
     1
102
RTVSPropertyOp37
 70
     1
102
RTVSPropertyOp38
 70
     1
102
RTVSPropertyOp39
 70
     1
102
RTVSPropertyOp40
 70
     1
102
RTVSPropertyOp41
 70
     1
102
RTVSPropertyOp42
 70
     1
102
RTVSPropertyOp43
 70
     1
102
RTVSPropertyOp44
 70
     1
102
RTVSPropertyOp45
 70
     1
102
RTVSPropertyOp46
 70
     1
102
RTVSPropertyOp47
 70
     1
102
RTVSPropertyOp48
 70
     1
102
RTVSPropertyOp49
 70
     1
102
RTVSPropertyOp50
 70
     1
102
RTVSPropertyOp51
 70
     0
102
RTVSPropertyOp52
 70
     0
102
RTVSPropertyOp53
 70
     1
102
RTVSPropertyOp54
 70
     1
102
RTVSPropertyOp55
 70
     1
102
RTVSPropertyOp56
 70
     1
102
RTVSPropertyOp57
 70
     1
102
RTVSPropertyOp58
 70
     1
102
RTVSPropertyOp59
 70
     1
102
RTVSPropertyOp60
 70
     1
102
RTVSPropertyOp61
 70
     1
102
RTVSPropertyOp62
 70
     1
  0
ENDSEC
  0
EOF
