ISO-10303-21;
HEADER;
/* Generated by software containing ST-Developer
 * from STEP Tools, Inc. (www.steptools.com) 
 */
/* OPTION: using custom schema-name function */

FILE_DESCRIPTION(
/* description */ (''),
/* implementation_level */ '2;1');

FILE_NAME(
/* name */ '2516-45-11-SIM.stp',
/* time_stamp */ '2020-02-05T07:42:42+01:00',
/* author */ (''),
/* organization */ (''),
/* preprocessor_version */ 'ST-DEVELOPER v16.7',
/* originating_system */ 'SIEMENS PLM Software NX 12.0',
/* authorisation */ '');

FILE_SCHEMA (('AUTOMOTIVE_DESIGN { 1 0 10303 214 3 1 1 1 }'));
ENDSEC;

DATA;
#10=PROPERTY_DEFINITION_REPRESENTATION(#14,#12);
#11=PROPERTY_DEFINITION_REPRESENTATION(#15,#13);
#12=REPRESENTATION('',(#16),#519);
#13=REPRESENTATION('',(#17),#519);
#14=PROPERTY_DEFINITION('pmi validation property','',#21);
#15=PROPERTY_DEFINITION('pmi validation property','',#21);
#16=VALUE_REPRESENTATION_ITEM('number of annotations',COUNT_MEASURE(0.));
#17=VALUE_REPRESENTATION_ITEM('number of views',COUNT_MEASURE(0.));
#18=SHAPE_REPRESENTATION_RELATIONSHIP('None',
'relationship between hm1532102F367omo-None and hm1532102F367omo-None',
#30,#19);
#19=ADVANCED_BREP_SHAPE_REPRESENTATION('hm1532102F367omo-None',(#57,#58),
#519);
#20=SHAPE_DEFINITION_REPRESENTATION(#21,#30);
#21=PRODUCT_DEFINITION_SHAPE('','',#22);
#22=PRODUCT_DEFINITION(' ','',#24,#23);
#23=PRODUCT_DEFINITION_CONTEXT('part definition',#29,'design');
#24=PRODUCT_DEFINITION_FORMATION_WITH_SPECIFIED_SOURCE(' ',' ',#26,
 .NOT_KNOWN.);
#25=PRODUCT_RELATED_PRODUCT_CATEGORY('part','',(#26));
#26=PRODUCT('hm1532102F367omo','hm1532102F367omo',' ',(#27));
#27=PRODUCT_CONTEXT(' ',#29,'mechanical');
#28=APPLICATION_PROTOCOL_DEFINITION('international standard',
'automotive_design',2010,#29);
#29=APPLICATION_CONTEXT(
'core data for automotive mechanical design processes');
#30=SHAPE_REPRESENTATION('hm1532102F367omo-None',(#289),#519);
#31=SURFACE_OF_REVOLUTION('',#37,#34);
#32=SURFACE_OF_REVOLUTION('',#113,#35);
#33=SURFACE_OF_REVOLUTION('',#38,#36);
#34=AXIS1_PLACEMENT('',#490,#402);
#35=AXIS1_PLACEMENT('',#494,#406);
#36=AXIS1_PLACEMENT('',#517,#407);
#37=B_SPLINE_CURVE_WITH_KNOTS('',3,(#468,#469,#470,#471,#472,#473,#474,
#475,#476,#477,#478,#479,#480,#481,#482,#483,#484,#485,#486,#487,#488,#489),
 .UNSPECIFIED.,.F.,.F.,(4,3,3,3,3,3,3,4),(0.,0.158665803244258,0.317515642480111,
0.478703219996596,0.641582887370342,0.804749201611005,0.96662938960107,
1.),.UNSPECIFIED.);
#38=B_SPLINE_CURVE_WITH_KNOTS('',3,(#495,#496,#497,#498,#499,#500,#501,
#502,#503,#504,#505,#506,#507,#508,#509,#510,#511,#512,#513,#514,#515,#516),
 .UNSPECIFIED.,.F.,.F.,(4,3,3,3,3,3,3,4),(0.,0.158665803244259,0.317515642480113,
0.478703219996602,0.64158288737035,0.804749201611015,0.966629389601069,
1.),.UNSPECIFIED.);
#39=PRESENTATION_LAYER_ASSIGNMENT('14','Layer 14',(#57));
#40=PRESENTATION_LAYER_ASSIGNMENT('96','Layer 96',(#58));
#41=STYLED_ITEM('',(#43),#57);
#42=STYLED_ITEM('',(#44),#58);
#43=PRESENTATION_STYLE_ASSIGNMENT((#45));
#44=PRESENTATION_STYLE_ASSIGNMENT((#46));
#45=SURFACE_STYLE_USAGE(.BOTH.,#47);
#46=SURFACE_STYLE_USAGE(.BOTH.,#48);
#47=SURFACE_SIDE_STYLE('',(#49));
#48=SURFACE_SIDE_STYLE('',(#50));
#49=SURFACE_STYLE_FILL_AREA(#51);
#50=SURFACE_STYLE_FILL_AREA(#52);
#51=FILL_AREA_STYLE('',(#53));
#52=FILL_AREA_STYLE('',(#54));
#53=FILL_AREA_STYLE_COLOUR('',#55);
#54=FILL_AREA_STYLE_COLOUR('',#56);
#55=COLOUR_RGB('Medium Gray',0.499992370489052,0.499992370489052,0.499992370489052);
#56=COLOUR_RGB('Light Gray',0.8,0.8,0.8);
#57=MANIFOLD_SOLID_BREP('',#59);
#58=MANIFOLD_SOLID_BREP('',#60);
#59=CLOSED_SHELL('',(#82,#83,#84,#85,#86,#87,#88,#89,#90,#91,#92,#93,#94,
#95,#96,#97));
#60=CLOSED_SHELL('',(#98,#99,#100,#101,#102));
#61=VERTEX_LOOP('',#245);
#62=TOROIDAL_SURFACE('',#309,11.75,4.);
#63=TOROIDAL_SURFACE('',#310,11.75,4.);
#64=FACE_OUTER_BOUND('',#163,.T.);
#65=FACE_OUTER_BOUND('',#168,.T.);
#66=FACE_OUTER_BOUND('',#169,.T.);
#67=FACE_OUTER_BOUND('',#170,.T.);
#68=FACE_OUTER_BOUND('',#178,.T.);
#69=FACE_OUTER_BOUND('',#179,.T.);
#70=CONICAL_SURFACE('',#303,15.,45.);
#71=CONICAL_SURFACE('',#307,5.65,44.5);
#72=CONICAL_SURFACE('',#314,7.,45.);
#73=CONICAL_SURFACE('',#316,2.,59.);
#74=CONICAL_SURFACE('',#319,2.75,45.);
#75=PLANE('',#297);
#76=PLANE('',#308);
#77=PLANE('',#311);
#78=PLANE('',#312);
#79=PLANE('',#313);
#80=PLANE('',#321);
#81=PLANE('',#323);
#82=ADVANCED_FACE('',(#119,#120,#121),#103,.T.);
#83=ADVANCED_FACE('',(#122,#123),#75,.F.);
#84=ADVANCED_FACE('',(#124,#125),#104,.T.);
#85=ADVANCED_FACE('',(#126,#127),#70,.T.);
#86=ADVANCED_FACE('',(#128,#129),#105,.T.);
#87=ADVANCED_FACE('',(#130,#131),#71,.T.);
#88=ADVANCED_FACE('',(#64),#76,.F.);
#89=ADVANCED_FACE('',(#132,#133),#62,.F.);
#90=ADVANCED_FACE('',(#134,#135),#63,.F.);
#91=ADVANCED_FACE('',(#65),#77,.T.);
#92=ADVANCED_FACE('',(#66),#78,.T.);
#93=ADVANCED_FACE('',(#67),#79,.T.);
#94=ADVANCED_FACE('',(#136,#137),#72,.T.);
#95=ADVANCED_FACE('',(#138,#139),#73,.F.);
#96=ADVANCED_FACE('',(#140,#141),#106,.F.);
#97=ADVANCED_FACE('',(#142,#143),#74,.F.);
#98=ADVANCED_FACE('',(#68),#80,.F.);
#99=ADVANCED_FACE('',(#69),#81,.T.);
#100=ADVANCED_FACE('',(#144,#145),#31,.T.);
#101=ADVANCED_FACE('',(#146,#147),#32,.T.);
#102=ADVANCED_FACE('',(#148,#149),#33,.T.);
#103=CYLINDRICAL_SURFACE('',#294,8.);
#104=CYLINDRICAL_SURFACE('',#300,7.75);
#105=CYLINDRICAL_SURFACE('',#305,15.);
#106=CYLINDRICAL_SURFACE('',#318,2.);
#107=ELLIPSE('',#292,11.3137084989848,8.);
#108=ELLIPSE('',#293,11.3137084989848,8.);
#109=LINE('',#413,#114);
#110=LINE('',#418,#115);
#111=LINE('',#446,#116);
#112=LINE('',#448,#117);
#113=LINE('',#493,#118);
#114=VECTOR('',#332,1.);
#115=VECTOR('',#335,1.);
#116=VECTOR('',#372,1.);
#117=VECTOR('',#375,1.);
#118=VECTOR('',#405,13.8365129009283);
#119=FACE_BOUND('',#150,.T.);
#120=FACE_BOUND('',#151,.T.);
#121=FACE_BOUND('',#152,.T.);
#122=FACE_BOUND('',#153,.T.);
#123=FACE_BOUND('',#154,.T.);
#124=FACE_BOUND('',#155,.T.);
#125=FACE_BOUND('',#156,.T.);
#126=FACE_BOUND('',#157,.T.);
#127=FACE_BOUND('',#158,.T.);
#128=FACE_BOUND('',#159,.T.);
#129=FACE_BOUND('',#160,.T.);
#130=FACE_BOUND('',#161,.T.);
#131=FACE_BOUND('',#162,.T.);
#132=FACE_BOUND('',#164,.T.);
#133=FACE_BOUND('',#165,.T.);
#134=FACE_BOUND('',#166,.T.);
#135=FACE_BOUND('',#167,.T.);
#136=FACE_BOUND('',#171,.T.);
#137=FACE_BOUND('',#172,.T.);
#138=FACE_BOUND('',#173,.T.);
#139=FACE_BOUND('',#61,.T.);
#140=FACE_BOUND('',#174,.T.);
#141=FACE_BOUND('',#175,.T.);
#142=FACE_BOUND('',#176,.T.);
#143=FACE_BOUND('',#177,.T.);
#144=FACE_BOUND('',#180,.T.);
#145=FACE_BOUND('',#181,.T.);
#146=FACE_BOUND('',#182,.T.);
#147=FACE_BOUND('',#183,.T.);
#148=FACE_BOUND('',#184,.T.);
#149=FACE_BOUND('',#185,.T.);
#150=EDGE_LOOP('',(#186));
#151=EDGE_LOOP('',(#187));
#152=EDGE_LOOP('',(#188,#189,#190,#191));
#153=EDGE_LOOP('',(#192));
#154=EDGE_LOOP('',(#193));
#155=EDGE_LOOP('',(#194));
#156=EDGE_LOOP('',(#195));
#157=EDGE_LOOP('',(#196));
#158=EDGE_LOOP('',(#197));
#159=EDGE_LOOP('',(#198));
#160=EDGE_LOOP('',(#199));
#161=EDGE_LOOP('',(#200));
#162=EDGE_LOOP('',(#201));
#163=EDGE_LOOP('',(#202));
#164=EDGE_LOOP('',(#203));
#165=EDGE_LOOP('',(#204));
#166=EDGE_LOOP('',(#205));
#167=EDGE_LOOP('',(#206));
#168=EDGE_LOOP('',(#207,#208));
#169=EDGE_LOOP('',(#209,#210));
#170=EDGE_LOOP('',(#211,#212,#213,#214));
#171=EDGE_LOOP('',(#215));
#172=EDGE_LOOP('',(#216));
#173=EDGE_LOOP('',(#217));
#174=EDGE_LOOP('',(#218));
#175=EDGE_LOOP('',(#219));
#176=EDGE_LOOP('',(#220));
#177=EDGE_LOOP('',(#221));
#178=EDGE_LOOP('',(#222));
#179=EDGE_LOOP('',(#223));
#180=EDGE_LOOP('',(#224));
#181=EDGE_LOOP('',(#225));
#182=EDGE_LOOP('',(#226));
#183=EDGE_LOOP('',(#227));
#184=EDGE_LOOP('',(#228));
#185=EDGE_LOOP('',(#229));
#186=ORIENTED_EDGE('',*,*,#251,.T.);
#187=ORIENTED_EDGE('',*,*,#252,.T.);
#188=ORIENTED_EDGE('',*,*,#253,.F.);
#189=ORIENTED_EDGE('',*,*,#254,.F.);
#190=ORIENTED_EDGE('',*,*,#255,.F.);
#191=ORIENTED_EDGE('',*,*,#256,.F.);
#192=ORIENTED_EDGE('',*,*,#257,.T.);
#193=ORIENTED_EDGE('',*,*,#258,.T.);
#194=ORIENTED_EDGE('',*,*,#259,.T.);
#195=ORIENTED_EDGE('',*,*,#260,.F.);
#196=ORIENTED_EDGE('',*,*,#261,.T.);
#197=ORIENTED_EDGE('',*,*,#262,.T.);
#198=ORIENTED_EDGE('',*,*,#262,.F.);
#199=ORIENTED_EDGE('',*,*,#263,.T.);
#200=ORIENTED_EDGE('',*,*,#263,.F.);
#201=ORIENTED_EDGE('',*,*,#264,.T.);
#202=ORIENTED_EDGE('',*,*,#264,.F.);
#203=ORIENTED_EDGE('',*,*,#260,.T.);
#204=ORIENTED_EDGE('',*,*,#252,.F.);
#205=ORIENTED_EDGE('',*,*,#261,.F.);
#206=ORIENTED_EDGE('',*,*,#259,.F.);
#207=ORIENTED_EDGE('',*,*,#254,.T.);
#208=ORIENTED_EDGE('',*,*,#265,.F.);
#209=ORIENTED_EDGE('',*,*,#256,.T.);
#210=ORIENTED_EDGE('',*,*,#266,.F.);
#211=ORIENTED_EDGE('',*,*,#253,.T.);
#212=ORIENTED_EDGE('',*,*,#266,.T.);
#213=ORIENTED_EDGE('',*,*,#255,.T.);
#214=ORIENTED_EDGE('',*,*,#265,.T.);
#215=ORIENTED_EDGE('',*,*,#251,.F.);
#216=ORIENTED_EDGE('',*,*,#258,.F.);
#217=ORIENTED_EDGE('',*,*,#267,.F.);
#218=ORIENTED_EDGE('',*,*,#267,.T.);
#219=ORIENTED_EDGE('',*,*,#268,.F.);
#220=ORIENTED_EDGE('',*,*,#268,.T.);
#221=ORIENTED_EDGE('',*,*,#257,.F.);
#222=ORIENTED_EDGE('',*,*,#269,.F.);
#223=ORIENTED_EDGE('',*,*,#270,.T.);
#224=ORIENTED_EDGE('',*,*,#270,.F.);
#225=ORIENTED_EDGE('',*,*,#271,.T.);
#226=ORIENTED_EDGE('',*,*,#271,.F.);
#227=ORIENTED_EDGE('',*,*,#272,.T.);
#228=ORIENTED_EDGE('',*,*,#272,.F.);
#229=ORIENTED_EDGE('',*,*,#269,.T.);
#230=VERTEX_POINT('',#410);
#231=VERTEX_POINT('',#412);
#232=VERTEX_POINT('',#414);
#233=VERTEX_POINT('',#415);
#234=VERTEX_POINT('',#417);
#235=VERTEX_POINT('',#419);
#236=VERTEX_POINT('',#423);
#237=VERTEX_POINT('',#425);
#238=VERTEX_POINT('',#428);
#239=VERTEX_POINT('',#430);
#240=VERTEX_POINT('',#433);
#241=VERTEX_POINT('',#435);
#242=VERTEX_POINT('',#438);
#243=VERTEX_POINT('',#441);
#244=VERTEX_POINT('',#453);
#245=VERTEX_POINT('',#454);
#246=VERTEX_POINT('',#457);
#247=VERTEX_POINT('',#461);
#248=VERTEX_POINT('',#464);
#249=VERTEX_POINT('',#467);
#250=VERTEX_POINT('',#492);
#251=EDGE_CURVE('',#230,#230,#273,.T.);
#252=EDGE_CURVE('',#231,#231,#274,.T.);
#253=EDGE_CURVE('',#232,#233,#109,.T.);
#254=EDGE_CURVE('',#234,#232,#107,.T.);
#255=EDGE_CURVE('',#235,#234,#110,.T.);
#256=EDGE_CURVE('',#233,#235,#108,.T.);
#257=EDGE_CURVE('',#236,#236,#275,.T.);
#258=EDGE_CURVE('',#237,#237,#276,.T.);
#259=EDGE_CURVE('',#238,#238,#277,.T.);
#260=EDGE_CURVE('',#239,#239,#278,.T.);
#261=EDGE_CURVE('',#240,#240,#279,.T.);
#262=EDGE_CURVE('',#241,#241,#280,.T.);
#263=EDGE_CURVE('',#242,#242,#281,.T.);
#264=EDGE_CURVE('',#243,#243,#282,.T.);
#265=EDGE_CURVE('',#234,#232,#111,.T.);
#266=EDGE_CURVE('',#233,#235,#112,.T.);
#267=EDGE_CURVE('',#244,#244,#283,.T.);
#268=EDGE_CURVE('',#246,#246,#284,.T.);
#269=EDGE_CURVE('',#247,#247,#285,.T.);
#270=EDGE_CURVE('',#248,#248,#286,.T.);
#271=EDGE_CURVE('',#249,#249,#287,.T.);
#272=EDGE_CURVE('',#250,#250,#288,.T.);
#273=CIRCLE('',#290,8.);
#274=CIRCLE('',#291,8.);
#275=CIRCLE('',#295,2.75);
#276=CIRCLE('',#296,7.);
#277=CIRCLE('',#298,7.75);
#278=CIRCLE('',#299,7.75);
#279=CIRCLE('',#301,8.92157287525381);
#280=CIRCLE('',#302,15.);
#281=CIRCLE('',#304,15.);
#282=CIRCLE('',#306,5.65);
#283=CIRCLE('',#315,2.);
#284=CIRCLE('',#317,2.);
#285=CIRCLE('',#320,4.47754645067214);
#286=CIRCLE('',#322,15.0380757030651);
#287=CIRCLE('',#324,15.3713848204271);
#288=CIRCLE('',#325,5.68524926297528);
#289=AXIS2_PLACEMENT_3D('',#408,#326,#327);
#290=AXIS2_PLACEMENT_3D('',#409,#328,#329);
#291=AXIS2_PLACEMENT_3D('',#411,#330,#331);
#292=AXIS2_PLACEMENT_3D('',#416,#333,#334);
#293=AXIS2_PLACEMENT_3D('',#420,#336,#337);
#294=AXIS2_PLACEMENT_3D('',#421,#338,#339);
#295=AXIS2_PLACEMENT_3D('',#422,#340,#341);
#296=AXIS2_PLACEMENT_3D('',#424,#342,#343);
#297=AXIS2_PLACEMENT_3D('',#426,#344,#345);
#298=AXIS2_PLACEMENT_3D('',#427,#346,#347);
#299=AXIS2_PLACEMENT_3D('',#429,#348,#349);
#300=AXIS2_PLACEMENT_3D('',#431,#350,#351);
#301=AXIS2_PLACEMENT_3D('',#432,#352,#353);
#302=AXIS2_PLACEMENT_3D('',#434,#354,#355);
#303=AXIS2_PLACEMENT_3D('',#436,#356,#357);
#304=AXIS2_PLACEMENT_3D('',#437,#358,#359);
#305=AXIS2_PLACEMENT_3D('',#439,#360,#361);
#306=AXIS2_PLACEMENT_3D('',#440,#362,#363);
#307=AXIS2_PLACEMENT_3D('',#442,#364,#365);
#308=AXIS2_PLACEMENT_3D('',#443,#366,#367);
#309=AXIS2_PLACEMENT_3D('',#444,#368,#369);
#310=AXIS2_PLACEMENT_3D('',#445,#370,#371);
#311=AXIS2_PLACEMENT_3D('',#447,#373,#374);
#312=AXIS2_PLACEMENT_3D('',#449,#376,#377);
#313=AXIS2_PLACEMENT_3D('',#450,#378,#379);
#314=AXIS2_PLACEMENT_3D('',#451,#380,#381);
#315=AXIS2_PLACEMENT_3D('',#452,#382,#383);
#316=AXIS2_PLACEMENT_3D('',#455,#384,#385);
#317=AXIS2_PLACEMENT_3D('',#456,#386,#387);
#318=AXIS2_PLACEMENT_3D('',#458,#388,#389);
#319=AXIS2_PLACEMENT_3D('',#459,#390,#391);
#320=AXIS2_PLACEMENT_3D('',#460,#392,#393);
#321=AXIS2_PLACEMENT_3D('',#462,#394,#395);
#322=AXIS2_PLACEMENT_3D('',#463,#396,#397);
#323=AXIS2_PLACEMENT_3D('',#465,#398,#399);
#324=AXIS2_PLACEMENT_3D('',#466,#400,#401);
#325=AXIS2_PLACEMENT_3D('',#491,#403,#404);
#326=DIRECTION('',(0.,0.,1.));
#327=DIRECTION('',(1.,0.,0.));
#328=DIRECTION('',(-1.,0.,0.));
#329=DIRECTION('',(0.,0.,1.));
#330=DIRECTION('',(1.,0.,0.));
#331=DIRECTION('',(0.,0.,-1.));
#332=DIRECTION('',(1.,0.,0.));
#333=DIRECTION('',(0.707106781186548,0.,0.707106781186547));
#334=DIRECTION('',(0.707106781186547,0.,-0.707106781186548));
#335=DIRECTION('',(-1.,0.,0.));
#336=DIRECTION('',(-0.707106781186548,0.,0.707106781186547));
#337=DIRECTION('',(0.707106781186547,0.,0.707106781186548));
#338=DIRECTION('',(1.,0.,0.));
#339=DIRECTION('',(0.,0.,-1.));
#340=DIRECTION('',(-1.,0.,0.));
#341=DIRECTION('',(0.,0.,1.));
#342=DIRECTION('',(1.,0.,0.));
#343=DIRECTION('',(0.,0.,1.));
#344=DIRECTION('',(-1.,0.,0.));
#345=DIRECTION('',(0.,0.,1.));
#346=DIRECTION('',(1.,0.,0.));
#347=DIRECTION('',(0.,0.,-1.));
#348=DIRECTION('',(1.,0.,0.));
#349=DIRECTION('',(0.,0.,-1.));
#350=DIRECTION('',(1.,0.,0.));
#351=DIRECTION('',(0.,0.,-1.));
#352=DIRECTION('',(-1.,0.,0.));
#353=DIRECTION('',(0.,0.,1.));
#354=DIRECTION('',(1.,0.,0.));
#355=DIRECTION('',(0.,0.,-1.));
#356=DIRECTION('',(-1.,0.,0.));
#357=DIRECTION('',(3.75999177059012E-17,0.,1.));
#358=DIRECTION('',(1.,0.,0.));
#359=DIRECTION('',(0.,0.,-1.));
#360=DIRECTION('',(1.,0.,0.));
#361=DIRECTION('',(0.,0.,-1.));
#362=DIRECTION('',(1.,0.,0.));
#363=DIRECTION('',(0.,0.,-1.));
#364=DIRECTION('',(1.,0.,0.));
#365=DIRECTION('',(-8.91848846175777E-17,0.,-1.));
#366=DIRECTION('',(1.,0.,0.));
#367=DIRECTION('',(0.,0.,-1.));
#368=DIRECTION('',(1.,0.,0.));
#369=DIRECTION('',(0.,0.,-1.));
#370=DIRECTION('',(1.,0.,0.));
#371=DIRECTION('',(0.,0.,-1.));
#372=DIRECTION('',(0.,-1.,0.));
#373=DIRECTION('',(0.707106781186548,0.,0.707106781186547));
#374=DIRECTION('',(0.707106781186547,0.,-0.707106781186548));
#375=DIRECTION('',(0.,1.,0.));
#376=DIRECTION('',(-0.707106781186548,0.,0.707106781186547));
#377=DIRECTION('',(0.707106781186547,0.,0.707106781186548));
#378=DIRECTION('',(0.,0.,1.));
#379=DIRECTION('',(1.,0.,0.));
#380=DIRECTION('',(-1.,0.,0.));
#381=DIRECTION('',(-2.75626371555402E-17,0.,1.));
#382=DIRECTION('',(-1.,0.,0.));
#383=DIRECTION('',(0.,0.,1.));
#384=DIRECTION('',(1.,0.,0.));
#385=DIRECTION('',(1.45750631397179E-17,0.,-1.));
#386=DIRECTION('',(-1.,0.,0.));
#387=DIRECTION('',(0.,0.,1.));
#388=DIRECTION('',(-1.,0.,0.));
#389=DIRECTION('',(0.,0.,1.));
#390=DIRECTION('',(1.,0.,0.));
#391=DIRECTION('',(8.3038371325741E-17,0.,-1.));
#392=DIRECTION('',(1.,0.,0.));
#393=DIRECTION('',(0.,0.,-1.));
#394=DIRECTION('',(1.,0.,0.));
#395=DIRECTION('',(0.,0.,-1.));
#396=DIRECTION('',(1.,0.,0.));
#397=DIRECTION('',(0.,0.,-1.));
#398=DIRECTION('',(1.,0.,0.));
#399=DIRECTION('',(0.,0.,-1.));
#400=DIRECTION('',(1.,0.,0.));
#401=DIRECTION('',(0.,0.,-1.));
#402=DIRECTION('',(1.,0.,0.));
#403=DIRECTION('',(1.,0.,0.));
#404=DIRECTION('',(0.,0.,-1.));
#405=DIRECTION('',(0.702153052995162,-0.712026045990997,0.));
#406=DIRECTION('',(1.,0.,0.));
#407=DIRECTION('',(1.,0.,0.));
#408=CARTESIAN_POINT('',(0.,0.,0.));
#409=CARTESIAN_POINT('',(99.,0.,0.));
#410=CARTESIAN_POINT('',(99.,0.,8.));
#411=CARTESIAN_POINT('',(30.,0.,0.));
#412=CARTESIAN_POINT('',(30.,0.,-8.));
#413=CARTESIAN_POINT('',(0.,-5.05568986390581,6.2));
#414=CARTESIAN_POINT('',(71.5,-5.05568986390581,6.2));
#415=CARTESIAN_POINT('',(81.5,-5.05568986390581,6.2));
#416=CARTESIAN_POINT('',(77.7,0.,0.));
#417=CARTESIAN_POINT('',(71.5,5.05568986390581,6.2));
#418=CARTESIAN_POINT('',(0.,5.05568986390581,6.2));
#419=CARTESIAN_POINT('',(81.5,5.05568986390581,6.2));
#420=CARTESIAN_POINT('',(75.3,0.,0.));
#421=CARTESIAN_POINT('',(0.,0.,0.));
#422=CARTESIAN_POINT('',(100.,-2.16840434497101E-16,4.33680868994202E-16));
#423=CARTESIAN_POINT('',(100.,-2.16840434497101E-16,2.75));
#424=CARTESIAN_POINT('',(100.,0.,0.));
#425=CARTESIAN_POINT('',(100.,0.,7.));
#426=CARTESIAN_POINT('',(100.,-8.,0.));
#427=CARTESIAN_POINT('',(27.7068542494924,0.,0.));
#428=CARTESIAN_POINT('',(27.7068542494924,0.,-7.75));
#429=CARTESIAN_POINT('',(28.6080589092925,0.,0.));
#430=CARTESIAN_POINT('',(28.6080589092925,0.,-7.75));
#431=CARTESIAN_POINT('',(0.,0.,0.));
#432=CARTESIAN_POINT('',(24.8784271247462,0.,0.));
#433=CARTESIAN_POINT('',(24.8784271247462,0.,8.92157287525381));
#434=CARTESIAN_POINT('',(18.8,0.,0.));
#435=CARTESIAN_POINT('',(18.8,0.,-15.));
#436=CARTESIAN_POINT('',(18.8,0.,0.));
#437=CARTESIAN_POINT('',(10.3146291242894,0.,0.));
#438=CARTESIAN_POINT('',(10.3146291242894,0.,-15.));
#439=CARTESIAN_POINT('',(0.,0.,0.));
#440=CARTESIAN_POINT('',(0.8,0.,0.));
#441=CARTESIAN_POINT('',(0.8,0.,-5.65));
#442=CARTESIAN_POINT('',(0.8,0.,0.));
#443=CARTESIAN_POINT('',(0.8,0.,0.));
#444=CARTESIAN_POINT('',(28.6080589092925,0.,0.));
#445=CARTESIAN_POINT('',(27.7068542494924,0.,0.));
#446=CARTESIAN_POINT('',(71.5,0.,6.2));
#447=CARTESIAN_POINT('',(71.5,0.,6.2));
#448=CARTESIAN_POINT('',(81.5,0.,6.2));
#449=CARTESIAN_POINT('',(81.5,0.,6.2));
#450=CARTESIAN_POINT('',(71.5,-7.57459651971441,6.2));
#451=CARTESIAN_POINT('',(100.,0.,0.));
#452=CARTESIAN_POINT('',(28.,-2.16840434497101E-16,4.33680868994202E-16));
#453=CARTESIAN_POINT('',(28.,-2.16840434497101E-16,2.));
#454=CARTESIAN_POINT('',(26.7982787619449,-2.16840434497101E-16,4.33680868994202E-16));
#455=CARTESIAN_POINT('',(28.,-2.16840434497101E-16,4.33680868994202E-16));
#456=CARTESIAN_POINT('',(99.25,-2.16840434497101E-16,4.33680868994202E-16));
#457=CARTESIAN_POINT('',(99.25,-2.16840434497101E-16,2.));
#458=CARTESIAN_POINT('',(28.,-2.16840434497101E-16,4.33680868994202E-16));
#459=CARTESIAN_POINT('',(100.,-2.16840434497101E-16,4.33680868994202E-16));
#460=CARTESIAN_POINT('',(0.545115549062263,0.,0.));
#461=CARTESIAN_POINT('',(0.545115549062263,0.,-4.47754645067214));
#462=CARTESIAN_POINT('',(0.545115549062263,0.,0.));
#463=CARTESIAN_POINT('',(11.1947751184569,0.,0.));
#464=CARTESIAN_POINT('',(11.1947751184569,0.,-15.0380757030651));
#465=CARTESIAN_POINT('',(11.1947751184569,0.,0.));
#466=CARTESIAN_POINT('',(9.90710692262006,0.,0.));
#467=CARTESIAN_POINT('',(9.90710692262006,0.,-15.3713848204271));
#468=CARTESIAN_POINT('',(9.90710692262006,-15.2770897522289,1.7));
#469=CARTESIAN_POINT('',(9.9664520471864,-15.3372693301906,1.7));
#470=CARTESIAN_POINT('',(10.0370435490929,-15.3879650869164,1.7));
#471=CARTESIAN_POINT('',(10.1129400077091,-15.4251558516701,1.7));
#472=CARTESIAN_POINT('',(10.1889424998157,-15.4623985749299,1.7));
#473=CARTESIAN_POINT('',(10.2723206659817,-15.4871319674649,1.7));
#474=CARTESIAN_POINT('',(10.3563156237536,-15.4975361162092,1.7));
#475=CARTESIAN_POINT('',(10.4415283121476,-15.5080911007996,1.7));
#476=CARTESIAN_POINT('',(10.5296935647785,-15.5041910892483,1.70000000000046));
#477=CARTESIAN_POINT('',(10.6136594024387,-15.4862370348579,1.70000000000046));
#478=CARTESIAN_POINT('',(10.6984840753494,-15.4680993394149,1.70000000000046));
#479=CARTESIAN_POINT('',(10.7813584753177,-15.4351131669135,1.7));
#480=CARTESIAN_POINT('',(10.8554185232599,-15.3899544420735,1.7));
#481=CARTESIAN_POINT('',(10.9295935481246,-15.3447256091071,1.7));
#482=CARTESIAN_POINT('',(10.9969892363617,-15.2860102423834,1.7));
#483=CARTESIAN_POINT('',(11.0518191650131,-15.2186213666749,1.7));
#484=CARTESIAN_POINT('',(11.1062143228631,-15.1517668472244,1.7));
#485=CARTESIAN_POINT('',(11.1497581288299,-15.0744824826589,1.7));
#486=CARTESIAN_POINT('',(11.1785544634887,-14.9932474466295,1.7));
#487=CARTESIAN_POINT('',(11.1845752514002,-14.9762626835091,1.7));
#488=CARTESIAN_POINT('',(11.189989711266,-14.9590506217376,1.7));
#489=CARTESIAN_POINT('',(11.1947751184569,-14.9416773105002,1.7));
#490=CARTESIAN_POINT('',(0.,0.,0.));
#491=CARTESIAN_POINT('',(0.191757146426206,0.,0.));
#492=CARTESIAN_POINT('',(0.191757146426206,0.,-5.68524926297528));
#493=CARTESIAN_POINT('',(0.191757146426302,-5.42513218107743,1.7));
#494=CARTESIAN_POINT('',(0.,0.,0.));
#495=CARTESIAN_POINT('',(0.545115549062263,-4.14227259097306,1.7));
#496=CARTESIAN_POINT('',(0.463325943475173,-4.16357718745739,1.7));
#497=CARTESIAN_POINT('',(0.384126379333289,-4.19936334303686,1.7));
#498=CARTESIAN_POINT('',(0.313970002962251,-4.24649622187888,1.7));
#499=CARTESIAN_POINT('',(0.243715612459994,-4.29369494916421,1.7));
#500=CARTESIAN_POINT('',(0.180606783119881,-4.35353586291751,1.7));
#501=CARTESIAN_POINT('',(0.129599047116564,-4.42107555576559,1.7));
#502=CARTESIAN_POINT('',(0.0778518181276908,-4.48959441634431,1.7));
#503=CARTESIAN_POINT('',(0.0371467008908013,-4.56789777062944,1.70000000000046));
#504=CARTESIAN_POINT('',(0.0107124492637496,-4.64959134628844,1.70000000000046));
#505=CARTESIAN_POINT('',(-0.0159921821719457,-4.73212051561828,1.70000000000046));
#506=CARTESIAN_POINT('',(-0.0288625187962523,-4.82038493756484,1.7));
#507=CARTESIAN_POINT('',(-0.0267839398533951,-4.90710218290837,1.7));
#508=CARTESIAN_POINT('',(-0.0247021339532729,-4.99395405525072,1.7));
#509=CARTESIAN_POINT('',(-0.00755097889659595,-5.0816781167314,1.7));
#510=CARTESIAN_POINT('',(0.0233945350737272,-5.16285666568549,1.7));
#511=CARTESIAN_POINT('',(0.0540946683506611,-5.24339151395166,1.7));
#512=CARTESIAN_POINT('',(0.0992529883962661,-5.31974373837914,1.7));
#513=CARTESIAN_POINT('',(0.155206425945675,-5.38529961374422,1.7));
#514=CARTESIAN_POINT('',(0.166905268329479,-5.3990061505866,1.7));
#515=CARTESIAN_POINT('',(0.179104121142224,-5.41230124126393,1.7));
#516=CARTESIAN_POINT('',(0.191757146426206,-5.42513218107734,1.7));
#517=CARTESIAN_POINT('',(0.,0.,0.));
#518=MECHANICAL_DESIGN_GEOMETRIC_PRESENTATION_REPRESENTATION('',(#41,#42),
#519);
#519=(
GEOMETRIC_REPRESENTATION_CONTEXT(3)
GLOBAL_UNCERTAINTY_ASSIGNED_CONTEXT((#520))
GLOBAL_UNIT_ASSIGNED_CONTEXT((#526,#522,#521))
REPRESENTATION_CONTEXT('2516-45-11-SIM','TOP_LEVEL_ASSEMBLY_PART')
);
#520=UNCERTAINTY_MEASURE_WITH_UNIT(LENGTH_MEASURE(2.E-5),#526,
'DISTANCE_ACCURACY_VALUE','Maximum Tolerance applied to model');
#521=(
NAMED_UNIT(*)
SI_UNIT($,.STERADIAN.)
SOLID_ANGLE_UNIT()
);
#522=(
CONVERSION_BASED_UNIT('DEGREE',#524)
NAMED_UNIT(#523)
PLANE_ANGLE_UNIT()
);
#523=DIMENSIONAL_EXPONENTS(0.,0.,0.,0.,0.,0.,0.);
#524=PLANE_ANGLE_MEASURE_WITH_UNIT(PLANE_ANGLE_MEASURE(0.0174532925),#525);
#525=(
NAMED_UNIT(*)
PLANE_ANGLE_UNIT()
SI_UNIT($,.RADIAN.)
);
#526=(
LENGTH_UNIT()
NAMED_UNIT(*)
SI_UNIT(.MILLI.,.METRE.)
);
ENDSEC;
END-ISO-10303-21;
