ISO-10303-21;
HEADER;
/* Generated by software containing ST-Developer
 * from STEP Tools, Inc. (www.steptools.com) 
 */
/* OPTION: using custom schema-name function */

FILE_DESCRIPTION(
/* description */ (''),
/* implementation_level */ '2;1');

FILE_NAME(
/* name */ '20N1R040B20_STC_000887_202362892ndi000_04_SIM.stp',
/* time_stamp */ '2023-05-23T13:51:22+02:00',
/* author */ (''),
/* organization */ (''),
/* preprocessor_version */ 'ST-DEVELOPER v16.7',
/* originating_system */ 'SIEMENS PLM Software NX 12.0',
/* authorisation */ '');

FILE_SCHEMA (('AUTOMOTIVE_DESIGN { 1 0 10303 214 3 1 1 1 }'));
ENDSEC;

DATA;
#10=PROPERTY_DEFINITION_REPRESENTATION(#14,#12);
#11=PROPERTY_DEFINITION_REPRESENTATION(#15,#13);
#12=REPRESENTATION('',(#16),#514);
#13=REPRESENTATION('',(#17),#514);
#14=PROPERTY_DEFINITION('pmi validation property','',#21);
#15=PROPERTY_DEFINITION('pmi validation property','',#21);
#16=VALUE_REPRESENTATION_ITEM('number of annotations',COUNT_MEASURE(0.));
#17=VALUE_REPRESENTATION_ITEM('number of views',COUNT_MEASURE(0.));
#18=SHAPE_REPRESENTATION_RELATIONSHIP('None',
'relationship between fo3415040CF43jfa-None and fo3415040CF43jfa-None',
#30,#19);
#19=ADVANCED_BREP_SHAPE_REPRESENTATION('fo3415040CF43jfa-None',(#65,#66),
#514);
#20=SHAPE_DEFINITION_REPRESENTATION(#21,#30);
#21=PRODUCT_DEFINITION_SHAPE('','',#22);
#22=PRODUCT_DEFINITION(' ','',#24,#23);
#23=PRODUCT_DEFINITION_CONTEXT('part definition',#29,'design');
#24=PRODUCT_DEFINITION_FORMATION_WITH_SPECIFIED_SOURCE(' ',' ',#26,
 .NOT_KNOWN.);
#25=PRODUCT_RELATED_PRODUCT_CATEGORY('part','',(#26));
#26=PRODUCT('fo3415040CF43jfa','fo3415040CF43jfa',' ',(#27));
#27=PRODUCT_CONTEXT(' ',#29,'mechanical');
#28=APPLICATION_PROTOCOL_DEFINITION('international standard',
'automotive_design',2010,#29);
#29=APPLICATION_CONTEXT(
'core data for automotive mechanical design processes');
#30=SHAPE_REPRESENTATION('fo3415040CF43jfa-None',(#308),#514);
#31=(
BOUNDED_CURVE()
B_SPLINE_CURVE(3,(#496,#497,#498,#499),.UNSPECIFIED.,.F.,.F.)
B_SPLINE_CURVE_WITH_KNOTS((4,4),(0.,1.),.UNSPECIFIED.)
CURVE()
GEOMETRIC_REPRESENTATION_ITEM()
RATIONAL_B_SPLINE_CURVE((1.,0.910683602522952,0.910683602522952,1.))
REPRESENTATION_ITEM('')
);
#32=(
BOUNDED_CURVE()
B_SPLINE_CURVE(3,(#503,#504,#505,#506,#507,#508,#509),.UNSPECIFIED.,.F.,
 .F.)
B_SPLINE_CURVE_WITH_KNOTS((4,3,4),(0.,0.5,1.),.UNSPECIFIED.)
CURVE()
GEOMETRIC_REPRESENTATION_ITEM()
RATIONAL_B_SPLINE_CURVE((1.,0.448249421646533,0.448249421646533,1.,0.448249421646533,
0.448249421646533,1.))
REPRESENTATION_ITEM('')
);
#33=SURFACE_OF_REVOLUTION('',#301,#40);
#34=SURFACE_OF_REVOLUTION('',#113,#41);
#35=SURFACE_OF_REVOLUTION('',#304,#42);
#36=SURFACE_OF_REVOLUTION('',#114,#43);
#37=SURFACE_OF_REVOLUTION('',#31,#44);
#38=SURFACE_OF_REVOLUTION('',#32,#45);
#39=SURFACE_OF_REVOLUTION('',#115,#46);
#40=AXIS1_PLACEMENT('',#481,#408);
#41=AXIS1_PLACEMENT('',#485,#412);
#42=AXIS1_PLACEMENT('',#489,#417);
#43=AXIS1_PLACEMENT('',#493,#421);
#44=AXIS1_PLACEMENT('',#500,#424);
#45=AXIS1_PLACEMENT('',#510,#427);
#46=AXIS1_PLACEMENT('',#512,#429);
#47=PRESENTATION_LAYER_ASSIGNMENT('2','Layer 2',(#65));
#48=PRESENTATION_LAYER_ASSIGNMENT('256','Layer 256',(#66));
#49=STYLED_ITEM('',(#51),#65);
#50=STYLED_ITEM('',(#52),#66);
#51=PRESENTATION_STYLE_ASSIGNMENT((#53));
#52=PRESENTATION_STYLE_ASSIGNMENT((#54));
#53=SURFACE_STYLE_USAGE(.BOTH.,#55);
#54=SURFACE_STYLE_USAGE(.BOTH.,#56);
#55=SURFACE_SIDE_STYLE('',(#57));
#56=SURFACE_SIDE_STYLE('',(#58));
#57=SURFACE_STYLE_FILL_AREA(#59);
#58=SURFACE_STYLE_FILL_AREA(#60);
#59=FILL_AREA_STYLE('',(#61));
#60=FILL_AREA_STYLE('',(#62));
#61=FILL_AREA_STYLE_COLOUR('',#63);
#62=FILL_AREA_STYLE_COLOUR('',#64);
#63=COLOUR_RGB('Granite Gray',0.4,0.4,0.4);
#64=COLOUR_RGB('Pale Sky',0.882337682154574,0.960769054703594,1.);
#65=MANIFOLD_SOLID_BREP('',#67);
#66=MANIFOLD_SOLID_BREP('',#68);
#67=CLOSED_SHELL('',(#85,#86,#87,#88,#89,#90,#91,#92,#93,#94,#95,#96,#97,
#98));
#68=CLOSED_SHELL('',(#99,#100,#101,#102,#103,#104,#105));
#69=VERTEX_LOOP('',#258);
#70=TOROIDAL_SURFACE('',#329,1.8255251837904,1.);
#71=TOROIDAL_SURFACE('',#330,10.5,1.);
#72=TOROIDAL_SURFACE('',#331,8.5,1.);
#73=FACE_OUTER_BOUND('',#167,.T.);
#74=FACE_OUTER_BOUND('',#168,.T.);
#75=FACE_OUTER_BOUND('',#169,.T.);
#76=FACE_OUTER_BOUND('',#170,.T.);
#77=CONICAL_SURFACE('',#317,9.,45.0000000000001);
#78=CONICAL_SURFACE('',#328,2.25,44.);
#79=CONICAL_SURFACE('',#333,2.5,59.);
#80=PLANE('',#316);
#81=PLANE('',#318);
#82=PLANE('',#319);
#83=PLANE('',#320);
#84=PLANE('',#322);
#85=ADVANCED_FACE('',(#125,#126,#127),#106,.T.);
#86=ADVANCED_FACE('',(#128,#129),#80,.T.);
#87=ADVANCED_FACE('',(#130,#131),#77,.T.);
#88=ADVANCED_FACE('',(#73),#81,.T.);
#89=ADVANCED_FACE('',(#74),#82,.T.);
#90=ADVANCED_FACE('',(#75),#83,.T.);
#91=ADVANCED_FACE('',(#76),#84,.F.);
#92=ADVANCED_FACE('',(#132,#133),#107,.T.);
#93=ADVANCED_FACE('',(#134,#135),#78,.T.);
#94=ADVANCED_FACE('',(#136,#137),#70,.T.);
#95=ADVANCED_FACE('',(#138,#139),#71,.F.);
#96=ADVANCED_FACE('',(#140,#141),#72,.T.);
#97=ADVANCED_FACE('',(#142,#143),#79,.F.);
#98=ADVANCED_FACE('',(#144,#145),#108,.F.);
#99=ADVANCED_FACE('',(#146,#147),#33,.F.);
#100=ADVANCED_FACE('',(#148,#149),#34,.F.);
#101=ADVANCED_FACE('',(#150,#151),#35,.F.);
#102=ADVANCED_FACE('',(#152,#153),#36,.F.);
#103=ADVANCED_FACE('',(#154,#155),#37,.F.);
#104=ADVANCED_FACE('',(#156,#157),#38,.F.);
#105=ADVANCED_FACE('',(#158,#159),#39,.F.);
#106=CYLINDRICAL_SURFACE('',#313,10.);
#107=CYLINDRICAL_SURFACE('',#325,9.5);
#108=CYLINDRICAL_SURFACE('',#334,2.5);
#109=LINE('',#438,#116);
#110=LINE('',#442,#117);
#111=LINE('',#450,#118);
#112=LINE('',#452,#119);
#113=LINE('',#484,#120);
#114=LINE('',#492,#121);
#115=LINE('',#511,#122);
#116=VECTOR('',#352,1.);
#117=VECTOR('',#355,1.);
#118=VECTOR('',#366,1.);
#119=VECTOR('',#369,1.);
#120=VECTOR('',#411,1.49999999999999);
#121=VECTOR('',#420,1.49999999999999);
#122=VECTOR('',#428,3.);
#123=ELLIPSE('',#311,14.1421356237309,10.);
#124=ELLIPSE('',#312,14.1421356237309,10.);
#125=FACE_BOUND('',#160,.T.);
#126=FACE_BOUND('',#161,.T.);
#127=FACE_BOUND('',#162,.T.);
#128=FACE_BOUND('',#163,.T.);
#129=FACE_BOUND('',#164,.T.);
#130=FACE_BOUND('',#165,.T.);
#131=FACE_BOUND('',#166,.T.);
#132=FACE_BOUND('',#171,.T.);
#133=FACE_BOUND('',#172,.T.);
#134=FACE_BOUND('',#173,.T.);
#135=FACE_BOUND('',#174,.T.);
#136=FACE_BOUND('',#175,.T.);
#137=FACE_BOUND('',#176,.T.);
#138=FACE_BOUND('',#177,.T.);
#139=FACE_BOUND('',#178,.T.);
#140=FACE_BOUND('',#179,.T.);
#141=FACE_BOUND('',#180,.T.);
#142=FACE_BOUND('',#181,.T.);
#143=FACE_BOUND('',#69,.T.);
#144=FACE_BOUND('',#182,.T.);
#145=FACE_BOUND('',#183,.T.);
#146=FACE_BOUND('',#184,.T.);
#147=FACE_BOUND('',#185,.T.);
#148=FACE_BOUND('',#186,.T.);
#149=FACE_BOUND('',#187,.T.);
#150=FACE_BOUND('',#188,.T.);
#151=FACE_BOUND('',#189,.T.);
#152=FACE_BOUND('',#190,.T.);
#153=FACE_BOUND('',#191,.T.);
#154=FACE_BOUND('',#192,.T.);
#155=FACE_BOUND('',#193,.T.);
#156=FACE_BOUND('',#194,.T.);
#157=FACE_BOUND('',#195,.T.);
#158=FACE_BOUND('',#196,.T.);
#159=FACE_BOUND('',#197,.T.);
#160=EDGE_LOOP('',(#198));
#161=EDGE_LOOP('',(#199));
#162=EDGE_LOOP('',(#200,#201,#202,#203));
#163=EDGE_LOOP('',(#204));
#164=EDGE_LOOP('',(#205));
#165=EDGE_LOOP('',(#206));
#166=EDGE_LOOP('',(#207));
#167=EDGE_LOOP('',(#208,#209));
#168=EDGE_LOOP('',(#210,#211));
#169=EDGE_LOOP('',(#212,#213,#214,#215));
#170=EDGE_LOOP('',(#216));
#171=EDGE_LOOP('',(#217));
#172=EDGE_LOOP('',(#218));
#173=EDGE_LOOP('',(#219));
#174=EDGE_LOOP('',(#220));
#175=EDGE_LOOP('',(#221));
#176=EDGE_LOOP('',(#222));
#177=EDGE_LOOP('',(#223));
#178=EDGE_LOOP('',(#224));
#179=EDGE_LOOP('',(#225));
#180=EDGE_LOOP('',(#226));
#181=EDGE_LOOP('',(#227));
#182=EDGE_LOOP('',(#228));
#183=EDGE_LOOP('',(#229));
#184=EDGE_LOOP('',(#230));
#185=EDGE_LOOP('',(#231));
#186=EDGE_LOOP('',(#232));
#187=EDGE_LOOP('',(#233));
#188=EDGE_LOOP('',(#234));
#189=EDGE_LOOP('',(#235));
#190=EDGE_LOOP('',(#236));
#191=EDGE_LOOP('',(#237));
#192=EDGE_LOOP('',(#238));
#193=EDGE_LOOP('',(#239));
#194=EDGE_LOOP('',(#240));
#195=EDGE_LOOP('',(#241));
#196=EDGE_LOOP('',(#242));
#197=EDGE_LOOP('',(#243));
#198=ORIENTED_EDGE('',*,*,#266,.F.);
#199=ORIENTED_EDGE('',*,*,#267,.T.);
#200=ORIENTED_EDGE('',*,*,#268,.T.);
#201=ORIENTED_EDGE('',*,*,#269,.T.);
#202=ORIENTED_EDGE('',*,*,#270,.T.);
#203=ORIENTED_EDGE('',*,*,#271,.T.);
#204=ORIENTED_EDGE('',*,*,#272,.T.);
#205=ORIENTED_EDGE('',*,*,#273,.T.);
#206=ORIENTED_EDGE('',*,*,#266,.T.);
#207=ORIENTED_EDGE('',*,*,#273,.F.);
#208=ORIENTED_EDGE('',*,*,#268,.F.);
#209=ORIENTED_EDGE('',*,*,#274,.T.);
#210=ORIENTED_EDGE('',*,*,#275,.F.);
#211=ORIENTED_EDGE('',*,*,#270,.F.);
#212=ORIENTED_EDGE('',*,*,#274,.F.);
#213=ORIENTED_EDGE('',*,*,#271,.F.);
#214=ORIENTED_EDGE('',*,*,#275,.T.);
#215=ORIENTED_EDGE('',*,*,#269,.F.);
#216=ORIENTED_EDGE('',*,*,#276,.T.);
#217=ORIENTED_EDGE('',*,*,#277,.T.);
#218=ORIENTED_EDGE('',*,*,#278,.T.);
#219=ORIENTED_EDGE('',*,*,#279,.T.);
#220=ORIENTED_EDGE('',*,*,#280,.T.);
#221=ORIENTED_EDGE('',*,*,#276,.F.);
#222=ORIENTED_EDGE('',*,*,#279,.F.);
#223=ORIENTED_EDGE('',*,*,#277,.F.);
#224=ORIENTED_EDGE('',*,*,#267,.F.);
#225=ORIENTED_EDGE('',*,*,#280,.F.);
#226=ORIENTED_EDGE('',*,*,#278,.F.);
#227=ORIENTED_EDGE('',*,*,#281,.T.);
#228=ORIENTED_EDGE('',*,*,#281,.F.);
#229=ORIENTED_EDGE('',*,*,#272,.F.);
#230=ORIENTED_EDGE('',*,*,#282,.T.);
#231=ORIENTED_EDGE('',*,*,#283,.F.);
#232=ORIENTED_EDGE('',*,*,#284,.T.);
#233=ORIENTED_EDGE('',*,*,#282,.F.);
#234=ORIENTED_EDGE('',*,*,#285,.T.);
#235=ORIENTED_EDGE('',*,*,#284,.F.);
#236=ORIENTED_EDGE('',*,*,#286,.T.);
#237=ORIENTED_EDGE('',*,*,#285,.F.);
#238=ORIENTED_EDGE('',*,*,#287,.T.);
#239=ORIENTED_EDGE('',*,*,#286,.F.);
#240=ORIENTED_EDGE('',*,*,#288,.T.);
#241=ORIENTED_EDGE('',*,*,#287,.F.);
#242=ORIENTED_EDGE('',*,*,#283,.T.);
#243=ORIENTED_EDGE('',*,*,#288,.F.);
#244=VERTEX_POINT('',#432);
#245=VERTEX_POINT('',#434);
#246=VERTEX_POINT('',#436);
#247=VERTEX_POINT('',#437);
#248=VERTEX_POINT('',#439);
#249=VERTEX_POINT('',#441);
#250=VERTEX_POINT('',#445);
#251=VERTEX_POINT('',#447);
#252=VERTEX_POINT('',#456);
#253=VERTEX_POINT('',#459);
#254=VERTEX_POINT('',#461);
#255=VERTEX_POINT('',#464);
#256=VERTEX_POINT('',#466);
#257=VERTEX_POINT('',#472);
#258=VERTEX_POINT('',#473);
#259=VERTEX_POINT('',#477);
#260=VERTEX_POINT('',#479);
#261=VERTEX_POINT('',#483);
#262=VERTEX_POINT('',#487);
#263=VERTEX_POINT('',#491);
#264=VERTEX_POINT('',#495);
#265=VERTEX_POINT('',#502);
#266=EDGE_CURVE('',#244,#244,#289,.T.);
#267=EDGE_CURVE('',#245,#245,#290,.T.);
#268=EDGE_CURVE('',#246,#247,#123,.T.);
#269=EDGE_CURVE('',#247,#248,#109,.T.);
#270=EDGE_CURVE('',#248,#249,#124,.T.);
#271=EDGE_CURVE('',#249,#246,#110,.T.);
#272=EDGE_CURVE('',#250,#250,#291,.T.);
#273=EDGE_CURVE('',#251,#251,#292,.T.);
#274=EDGE_CURVE('',#246,#247,#111,.T.);
#275=EDGE_CURVE('',#249,#248,#112,.T.);
#276=EDGE_CURVE('',#252,#252,#293,.T.);
#277=EDGE_CURVE('',#253,#253,#294,.T.);
#278=EDGE_CURVE('',#254,#254,#295,.T.);
#279=EDGE_CURVE('',#255,#255,#296,.T.);
#280=EDGE_CURVE('',#256,#256,#297,.T.);
#281=EDGE_CURVE('',#257,#257,#298,.T.);
#282=EDGE_CURVE('',#259,#259,#299,.T.);
#283=EDGE_CURVE('',#260,#260,#300,.T.);
#284=EDGE_CURVE('',#261,#261,#302,.T.);
#285=EDGE_CURVE('',#262,#262,#303,.T.);
#286=EDGE_CURVE('',#263,#263,#305,.T.);
#287=EDGE_CURVE('',#264,#264,#306,.T.);
#288=EDGE_CURVE('',#265,#265,#307,.T.);
#289=CIRCLE('',#309,10.);
#290=CIRCLE('',#310,10.);
#291=CIRCLE('',#314,2.5);
#292=CIRCLE('',#315,9.);
#293=CIRCLE('',#321,1.8255251837904);
#294=CIRCLE('',#323,9.5);
#295=CIRCLE('',#324,9.5);
#296=CIRCLE('',#326,2.54486498412905);
#297=CIRCLE('',#327,9.21933980033865);
#298=CIRCLE('',#332,2.5);
#299=CIRCLE('',#335,11.2299627571952);
#300=CIRCLE('',#336,11.3756653360275);
#301=CIRCLE('',#337,0.396999999999999);
#302=CIRCLE('',#338,5.77370994638532);
#303=CIRCLE('',#339,6.01685252344164);
#304=CIRCLE('',#340,0.396999999999999);
#305=CIRCLE('',#341,0.201765601067186);
#306=CIRCLE('',#342,0.3135480198357);
#307=CIRCLE('',#343,0.683827407480425);
#308=AXIS2_PLACEMENT_3D('',#430,#344,#345);
#309=AXIS2_PLACEMENT_3D('',#431,#346,#347);
#310=AXIS2_PLACEMENT_3D('',#433,#348,#349);
#311=AXIS2_PLACEMENT_3D('',#435,#350,#351);
#312=AXIS2_PLACEMENT_3D('',#440,#353,#354);
#313=AXIS2_PLACEMENT_3D('',#443,#356,#357);
#314=AXIS2_PLACEMENT_3D('',#444,#358,#359);
#315=AXIS2_PLACEMENT_3D('',#446,#360,#361);
#316=AXIS2_PLACEMENT_3D('',#448,#362,#363);
#317=AXIS2_PLACEMENT_3D('',#449,#364,#365);
#318=AXIS2_PLACEMENT_3D('',#451,#367,#368);
#319=AXIS2_PLACEMENT_3D('',#453,#370,#371);
#320=AXIS2_PLACEMENT_3D('',#454,#372,#373);
#321=AXIS2_PLACEMENT_3D('',#455,#374,#375);
#322=AXIS2_PLACEMENT_3D('',#457,#376,#377);
#323=AXIS2_PLACEMENT_3D('',#458,#378,#379);
#324=AXIS2_PLACEMENT_3D('',#460,#380,#381);
#325=AXIS2_PLACEMENT_3D('',#462,#382,#383);
#326=AXIS2_PLACEMENT_3D('',#463,#384,#385);
#327=AXIS2_PLACEMENT_3D('',#465,#386,#387);
#328=AXIS2_PLACEMENT_3D('',#467,#388,#389);
#329=AXIS2_PLACEMENT_3D('',#468,#390,#391);
#330=AXIS2_PLACEMENT_3D('',#469,#392,#393);
#331=AXIS2_PLACEMENT_3D('',#470,#394,#395);
#332=AXIS2_PLACEMENT_3D('',#471,#396,#397);
#333=AXIS2_PLACEMENT_3D('',#474,#398,#399);
#334=AXIS2_PLACEMENT_3D('',#475,#400,#401);
#335=AXIS2_PLACEMENT_3D('',#476,#402,#403);
#336=AXIS2_PLACEMENT_3D('',#478,#404,#405);
#337=AXIS2_PLACEMENT_3D('',#480,#406,#407);
#338=AXIS2_PLACEMENT_3D('',#482,#409,#410);
#339=AXIS2_PLACEMENT_3D('',#486,#413,#414);
#340=AXIS2_PLACEMENT_3D('',#488,#415,#416);
#341=AXIS2_PLACEMENT_3D('',#490,#418,#419);
#342=AXIS2_PLACEMENT_3D('',#494,#422,#423);
#343=AXIS2_PLACEMENT_3D('',#501,#425,#426);
#344=DIRECTION('',(0.,0.,1.));
#345=DIRECTION('',(1.,0.,0.));
#346=DIRECTION('',(0.,0.,1.));
#347=DIRECTION('',(0.,1.,0.));
#348=DIRECTION('',(0.,0.,1.));
#349=DIRECTION('',(0.,1.,0.));
#350=DIRECTION('',(-6.86915450674151E-16,0.707106781186547,0.707106781186548));
#351=DIRECTION('',(6.86915450674152E-16,-0.707106781186548,0.707106781186547));
#352=DIRECTION('',(0.,0.,-1.));
#353=DIRECTION('',(-6.86915450674151E-16,0.707106781186547,-0.707106781186548));
#354=DIRECTION('',(-6.86915450674152E-16,0.707106781186548,0.707106781186547));
#355=DIRECTION('',(0.,0.,1.));
#356=DIRECTION('',(0.,0.,1.));
#357=DIRECTION('',(0.,1.,0.));
#358=DIRECTION('',(0.,0.,-1.));
#359=DIRECTION('',(-1.,0.,0.));
#360=DIRECTION('',(0.,0.,1.));
#361=DIRECTION('',(0.,1.,0.));
#362=DIRECTION('',(0.,0.,1.));
#363=DIRECTION('',(0.,1.,0.));
#364=DIRECTION('',(0.,0.,-1.));
#365=DIRECTION('',(0.,-1.,5.50160071667569E-17));
#366=DIRECTION('',(1.,9.71445146547012E-16,0.));
#367=DIRECTION('',(6.86915450674151E-16,-0.707106781186547,-0.707106781186548));
#368=DIRECTION('',(-6.86950496486816E-16,0.707106781186548,-0.707106781186547));
#369=DIRECTION('',(1.,9.71445146547012E-16,0.));
#370=DIRECTION('',(6.86915450674151E-16,-0.707106781186547,0.707106781186548));
#371=DIRECTION('',(6.86950496486816E-16,-0.707106781186548,-0.707106781186547));
#372=DIRECTION('',(9.71445146547012E-16,-1.,0.));
#373=DIRECTION('',(0.,0.,-1.));
#374=DIRECTION('',(0.,0.,-1.));
#375=DIRECTION('',(1.,0.,0.));
#376=DIRECTION('',(0.,0.,1.));
#377=DIRECTION('',(1.,0.,0.));
#378=DIRECTION('',(0.,0.,-1.));
#379=DIRECTION('',(1.,0.,0.));
#380=DIRECTION('',(0.,0.,1.));
#381=DIRECTION('',(-1.,0.,0.));
#382=DIRECTION('',(0.,0.,1.));
#383=DIRECTION('',(1.,0.,0.));
#384=DIRECTION('',(0.,0.,1.));
#385=DIRECTION('',(-1.,0.,0.));
#386=DIRECTION('',(0.,0.,-1.));
#387=DIRECTION('',(-1.,0.,0.));
#388=DIRECTION('',(0.,0.,1.));
#389=DIRECTION('',(1.,0.,-1.43374644853757E-17));
#390=DIRECTION('',(0.,0.,1.));
#391=DIRECTION('',(1.,0.,0.));
#392=DIRECTION('',(0.,0.,1.));
#393=DIRECTION('',(1.,0.,0.));
#394=DIRECTION('',(0.,0.,-1.));
#395=DIRECTION('',(-1.,0.,0.));
#396=DIRECTION('',(0.,0.,1.));
#397=DIRECTION('',(-1.,0.,0.));
#398=DIRECTION('',(0.,0.,1.));
#399=DIRECTION('',(1.,0.,0.));
#400=DIRECTION('',(0.,0.,-1.));
#401=DIRECTION('',(-1.,0.,0.));
#402=DIRECTION('',(0.,0.,-1.));
#403=DIRECTION('',(-1.,0.,0.));
#404=DIRECTION('',(0.,0.,-1.));
#405=DIRECTION('',(-1.,0.,0.));
#406=DIRECTION('',(0.134204291136213,-0.954913149764639,-0.264820853875223));
#407=DIRECTION('',(0.257084701511893,0.291639092365408,-0.921332782469408));
#408=DIRECTION('',(0.,0.,-1.));
#409=DIRECTION('',(0.,0.,-1.));
#410=DIRECTION('',(-1.,0.,0.));
#411=DIRECTION('',(-0.957350228594274,-0.193940613898858,0.214167173233961));
#412=DIRECTION('',(0.,0.,-1.));
#413=DIRECTION('',(0.,0.,-1.));
#414=DIRECTION('',(-1.,0.,0.));
#415=DIRECTION('',(0.134204291136211,-0.954913149764639,-0.264820853875224));
#416=DIRECTION('',(0.700265527082384,-0.0976984784665538,0.707165609235455));
#417=DIRECTION('',(0.,0.,-1.));
#418=DIRECTION('',(0.,0.,-1.));
#419=DIRECTION('',(-1.,0.,0.));
#420=DIRECTION('',(0.257084701511886,0.29163909236541,-0.92133278246941));
#421=DIRECTION('',(0.,0.,-1.));
#422=DIRECTION('',(0.,0.,-1.));
#423=DIRECTION('',(-1.,0.,0.));
#424=DIRECTION('',(0.,0.,-1.));
#425=DIRECTION('',(0.,0.,-1.));
#426=DIRECTION('',(-1.,0.,0.));
#427=DIRECTION('',(0.,0.,-1.));
#428=DIRECTION('',(0.700265527082389,-0.0976984784665496,0.70716560923545));
#429=DIRECTION('',(0.,0.,-1.));
#430=CARTESIAN_POINT('',(0.,0.,0.));
#431=CARTESIAN_POINT('',(0.,0.,73.));
#432=CARTESIAN_POINT('',(0.,10.,73.));
#433=CARTESIAN_POINT('',(0.,0.,1.38777878078145E-14));
#434=CARTESIAN_POINT('',(0.,10.,1.38777878078145E-14));
#435=CARTESIAN_POINT('',(0.,0.,46.8125));
#436=CARTESIAN_POINT('',(-5.72363520850167,-8.2,55.0125));
#437=CARTESIAN_POINT('',(5.72363520850169,-8.19999999999999,55.0125));
#438=CARTESIAN_POINT('',(5.72363520850169,-8.19999999999999,74.));
#439=CARTESIAN_POINT('',(5.72363520850169,-8.19999999999999,43.9875));
#440=CARTESIAN_POINT('',(0.,0.,52.1875));
#441=CARTESIAN_POINT('',(-5.72363520850167,-8.2,43.9875));
#442=CARTESIAN_POINT('',(-5.72363520850167,-8.2,74.));
#443=CARTESIAN_POINT('',(0.,0.,51.));
#444=CARTESIAN_POINT('',(0.,0.,74.));
#445=CARTESIAN_POINT('',(-2.5,0.,74.));
#446=CARTESIAN_POINT('',(0.,0.,74.));
#447=CARTESIAN_POINT('',(0.,9.,74.));
#448=CARTESIAN_POINT('',(0.,0.,74.));
#449=CARTESIAN_POINT('',(0.,0.,74.));
#450=CARTESIAN_POINT('',(10.,-8.19999999999999,55.0125));
#451=CARTESIAN_POINT('',(10.,-8.19999999999999,55.0125));
#452=CARTESIAN_POINT('',(10.,-8.19999999999999,43.9875));
#453=CARTESIAN_POINT('',(10.,-9.99999999999999,42.1875));
#454=CARTESIAN_POINT('',(10.,-8.19999999999999,43.9875));
#455=CARTESIAN_POINT('',(0.,0.,-36.814));
#456=CARTESIAN_POINT('',(1.8255251837904,0.,-36.814));
#457=CARTESIAN_POINT('',(0.,0.,-36.814));
#458=CARTESIAN_POINT('',(0.,0.,-0.866025403784424));
#459=CARTESIAN_POINT('',(9.5,0.,-0.866025403784424));
#460=CARTESIAN_POINT('',(0.,0.,-28.9023789991832));
#461=CARTESIAN_POINT('',(-9.5,0.,-28.9023789991832));
#462=CARTESIAN_POINT('',(0.,0.,0.));
#463=CARTESIAN_POINT('',(0.,0.,-36.508658370459));
#464=CARTESIAN_POINT('',(-2.54486498412905,0.,-36.508658370459));
#465=CARTESIAN_POINT('',(0.,0.,-29.5970373696422));
#466=CARTESIAN_POINT('',(-9.21933980033865,0.,-29.5970373696422));
#467=CARTESIAN_POINT('',(0.,0.,-36.814));
#468=CARTESIAN_POINT('',(0.,0.,-35.814));
#469=CARTESIAN_POINT('',(0.,0.,-0.866025403784424));
#470=CARTESIAN_POINT('',(0.,0.,-28.9023789991832));
#471=CARTESIAN_POINT('',(0.,0.,-1.));
#472=CARTESIAN_POINT('',(-2.5,0.,-1.));
#473=CARTESIAN_POINT('',(0.,0.,-2.5021515475689));
#474=CARTESIAN_POINT('',(0.,0.,-1.));
#475=CARTESIAN_POINT('',(0.,0.,74.));
#476=CARTESIAN_POINT('',(0.,0.,-28.5500680426887));
#477=CARTESIAN_POINT('',(-11.2299627571952,0.,-28.5500680426887));
#478=CARTESIAN_POINT('',(0.,0.,-29.1835987330853));
#479=CARTESIAN_POINT('',(-11.3756653360275,0.,-29.1835987330853));
#480=CARTESIAN_POINT('',(10.9919515951156,-1.65592733491503,-28.9233329946645));
#481=CARTESIAN_POINT('',(0.,0.,73.));
#482=CARTESIAN_POINT('',(0.,0.,-25.3113173409175));
#483=CARTESIAN_POINT('',(-5.77370994638532,0.,-25.3113173409175));
#484=CARTESIAN_POINT('',(-1.9480053605539,-4.38712956028569,-25.6325681007685));
#485=CARTESIAN_POINT('',(0.,0.,73.));
#486=CARTESIAN_POINT('',(0.,0.,-25.7975815064484));
#487=CARTESIAN_POINT('',(-6.01685252344164,0.,-25.7975815064484));
#488=CARTESIAN_POINT('',(-3.48561131931563,-4.58880117305775,-25.6845822928934));
#489=CARTESIAN_POINT('',(0.,0.,73.));
#490=CARTESIAN_POINT('',(0.,0.,-39.7304693096034));
#491=CARTESIAN_POINT('',(-0.201765601067186,0.,-39.7304693096034));
#492=CARTESIAN_POINT('',(-0.363404706920198,-0.637996727551806,-38.3484701358993));
#493=CARTESIAN_POINT('',(0.,0.,73.));
#494=CARTESIAN_POINT('',(0.,0.,-39.9907350480242));
#495=CARTESIAN_POINT('',(-0.3135480198357,0.,-39.9907350480242));
#496=CARTESIAN_POINT('',(0.0222223453476937,-0.200538089003693,-39.7304693096034));
#497=CARTESIAN_POINT('',(0.059579859423736,-0.158159404336368,-39.8643500974815));
#498=CARTESIAN_POINT('',(0.161466057788514,-0.117421223106661,-39.9596139694783));
#499=CARTESIAN_POINT('',(0.300580615870305,-0.0892393080761852,-39.9907350480242));
#500=CARTESIAN_POINT('',(0.,0.,73.));
#501=CARTESIAN_POINT('',(0.,0.,-39.8777358344692));
#502=CARTESIAN_POINT('',(-0.683827407480425,0.,-39.8777358344692));
#503=CARTESIAN_POINT('',(0.0274184237447929,-0.195092222149208,-39.7474732342844));
#504=CARTESIAN_POINT('',(0.202841180421736,-0.0241456237937068,-40.2749870834544));
#505=CARTESIAN_POINT('',(0.773861981345164,0.0292958484517893,-40.1783123811139));
#506=CARTESIAN_POINT('',(0.795297655030993,-0.12322689507126,-39.6174700960484));
#507=CARTESIAN_POINT('',(0.816733328716821,-0.275749638594308,-39.0566278109829));
#508=CARTESIAN_POINT('',(0.253102439104394,-0.381773062033203,-38.9599531086424));
#509=CARTESIAN_POINT('',(0.0373559941583188,-0.26580170978367,-39.4874669578124));
#510=CARTESIAN_POINT('',(0.,0.,73.));
#511=CARTESIAN_POINT('',(9.16951328439111,-1.25153311858786,-31.3050955607917));
#512=CARTESIAN_POINT('',(0.,0.,73.));
#513=MECHANICAL_DESIGN_GEOMETRIC_PRESENTATION_REPRESENTATION('',(#49,#50),
#514);
#514=(
GEOMETRIC_REPRESENTATION_CONTEXT(3)
GLOBAL_UNCERTAINTY_ASSIGNED_CONTEXT((#515))
GLOBAL_UNIT_ASSIGNED_CONTEXT((#521,#517,#516))
REPRESENTATION_CONTEXT('20N1R040B20_STC_000887_202362892ndi000_04_SIM',
'TOP_LEVEL_ASSEMBLY_PART')
);
#515=UNCERTAINTY_MEASURE_WITH_UNIT(LENGTH_MEASURE(2.E-5),#521,
'DISTANCE_ACCURACY_VALUE','Maximum Tolerance applied to model');
#516=(
NAMED_UNIT(*)
SI_UNIT($,.STERADIAN.)
SOLID_ANGLE_UNIT()
);
#517=(
CONVERSION_BASED_UNIT('DEGREE',#519)
NAMED_UNIT(#518)
PLANE_ANGLE_UNIT()
);
#518=DIMENSIONAL_EXPONENTS(0.,0.,0.,0.,0.,0.,0.);
#519=PLANE_ANGLE_MEASURE_WITH_UNIT(PLANE_ANGLE_MEASURE(0.0174532925),#520);
#520=(
NAMED_UNIT(*)
PLANE_ANGLE_UNIT()
SI_UNIT($,.RADIAN.)
);
#521=(
LENGTH_UNIT()
NAMED_UNIT(*)
SI_UNIT(.MILLI.,.METRE.)
);
ENDSEC;
END-ISO-10303-21;
