ISO-10303-21;
HEADER;
/* Generated by software containing ST-Developer
 * from STEP Tools, Inc. (www.steptools.com) 
 */
/* OPTION: using custom schema-name function */

FILE_DESCRIPTION(
/* description */ (''),
/* implementation_level */ '2;1');

FILE_NAME(
/* name */ 'ax_step_export_ax_temp_1.stp',
/* time_stamp */ '2019-12-13T10:23:55+01:00',
/* author */ (''),
/* organization */ (''),
/* preprocessor_version */ 'ST-DEVELOPER v16.7',
/* originating_system */ 'SIEMENS PLM Software NX 12.0',
/* authorisation */ '');

FILE_SCHEMA (('AUTOMOTIVE_DESIGN { 1 0 10303 214 3 1 1 1 }'));
ENDSEC;

DATA;
#10=SHAPE_REPRESENTATION_RELATIONSHIP('None',
'relationship between ax_temp_1-None and ax_temp_1-None',#22,#11);
#11=ADVANCED_BREP_SHAPE_REPRESENTATION('ax_temp_1-None',(#185,#186),#640);
#12=SHAPE_DEFINITION_REPRESENTATION(#13,#22);
#13=PRODUCT_DEFINITION_SHAPE('','',#14);
#14=PRODUCT_DEFINITION(' ','',#16,#15);
#15=PRODUCT_DEFINITION_CONTEXT('part definition',#21,'design');
#16=PRODUCT_DEFINITION_FORMATION_WITH_SPECIFIED_SOURCE(' ',' ',#18,
 .NOT_KNOWN.);
#17=PRODUCT_RELATED_PRODUCT_CATEGORY('part','',(#18));
#18=PRODUCT('ax_temp_1','ax_temp_1',' ',(#19));
#19=PRODUCT_CONTEXT(' ',#21,'mechanical');
#20=APPLICATION_PROTOCOL_DEFINITION('international standard',
'automotive_design',2010,#21);
#21=APPLICATION_CONTEXT(
'core data for automotive mechanical design processes');
#22=SHAPE_REPRESENTATION('ax_temp_1-None',(#420),#640);
#23=SURFACE_OF_REVOLUTION('',#25,#24);
#24=AXIS1_PLACEMENT('',#638,#538);
#25=(
BOUNDED_CURVE()
B_SPLINE_CURVE(3,(#631,#632,#633,#634,#635,#636,#637),.UNSPECIFIED.,.T.,
 .F.)
B_SPLINE_CURVE_WITH_KNOTS((4,3,4),(0.,0.5,1.),.UNSPECIFIED.)
CURVE()
GEOMETRIC_REPRESENTATION_ITEM()
RATIONAL_B_SPLINE_CURVE((1.,0.333333333333333,0.333333333333333,1.,0.333333333333333,
0.333333333333333,1.))
REPRESENTATION_ITEM('')
);
#26=OVER_RIDING_STYLED_ITEM('',(#52),#211,#49);
#27=OVER_RIDING_STYLED_ITEM('',(#53),#212,#49);
#28=OVER_RIDING_STYLED_ITEM('',(#54),#213,#49);
#29=OVER_RIDING_STYLED_ITEM('',(#55),#214,#49);
#30=OVER_RIDING_STYLED_ITEM('',(#56),#215,#49);
#31=OVER_RIDING_STYLED_ITEM('',(#57),#216,#49);
#32=OVER_RIDING_STYLED_ITEM('',(#58),#217,#49);
#33=OVER_RIDING_STYLED_ITEM('',(#59),#218,#49);
#34=OVER_RIDING_STYLED_ITEM('',(#60),#219,#49);
#35=OVER_RIDING_STYLED_ITEM('',(#61),#220,#49);
#36=OVER_RIDING_STYLED_ITEM('',(#62),#221,#49);
#37=OVER_RIDING_STYLED_ITEM('',(#63),#222,#49);
#38=OVER_RIDING_STYLED_ITEM('',(#64),#223,#49);
#39=OVER_RIDING_STYLED_ITEM('',(#65),#224,#49);
#40=OVER_RIDING_STYLED_ITEM('',(#66),#225,#49);
#41=OVER_RIDING_STYLED_ITEM('',(#67),#226,#49);
#42=OVER_RIDING_STYLED_ITEM('',(#68),#227,#49);
#43=OVER_RIDING_STYLED_ITEM('',(#69),#228,#49);
#44=OVER_RIDING_STYLED_ITEM('',(#70),#229,#49);
#45=OVER_RIDING_STYLED_ITEM('',(#71),#230,#49);
#46=INVISIBILITY((#47,#48));
#47=PRESENTATION_LAYER_ASSIGNMENT('14','Layer 14',(#185));
#48=PRESENTATION_LAYER_ASSIGNMENT('96','Layer 96',(#186));
#49=STYLED_ITEM('',(#51),#185);
#50=STYLED_ITEM('',(#72),#186);
#51=PRESENTATION_STYLE_ASSIGNMENT((#73));
#52=PRESENTATION_STYLE_ASSIGNMENT((#74));
#53=PRESENTATION_STYLE_ASSIGNMENT((#75));
#54=PRESENTATION_STYLE_ASSIGNMENT((#76));
#55=PRESENTATION_STYLE_ASSIGNMENT((#77));
#56=PRESENTATION_STYLE_ASSIGNMENT((#78));
#57=PRESENTATION_STYLE_ASSIGNMENT((#79));
#58=PRESENTATION_STYLE_ASSIGNMENT((#80));
#59=PRESENTATION_STYLE_ASSIGNMENT((#81));
#60=PRESENTATION_STYLE_ASSIGNMENT((#82));
#61=PRESENTATION_STYLE_ASSIGNMENT((#83));
#62=PRESENTATION_STYLE_ASSIGNMENT((#84));
#63=PRESENTATION_STYLE_ASSIGNMENT((#85));
#64=PRESENTATION_STYLE_ASSIGNMENT((#86));
#65=PRESENTATION_STYLE_ASSIGNMENT((#87));
#66=PRESENTATION_STYLE_ASSIGNMENT((#88));
#67=PRESENTATION_STYLE_ASSIGNMENT((#89));
#68=PRESENTATION_STYLE_ASSIGNMENT((#90));
#69=PRESENTATION_STYLE_ASSIGNMENT((#91));
#70=PRESENTATION_STYLE_ASSIGNMENT((#92));
#71=PRESENTATION_STYLE_ASSIGNMENT((#93));
#72=PRESENTATION_STYLE_ASSIGNMENT((#94));
#73=SURFACE_STYLE_USAGE(.BOTH.,#95);
#74=SURFACE_STYLE_USAGE(.BOTH.,#96);
#75=SURFACE_STYLE_USAGE(.BOTH.,#97);
#76=SURFACE_STYLE_USAGE(.BOTH.,#98);
#77=SURFACE_STYLE_USAGE(.BOTH.,#99);
#78=SURFACE_STYLE_USAGE(.BOTH.,#100);
#79=SURFACE_STYLE_USAGE(.BOTH.,#101);
#80=SURFACE_STYLE_USAGE(.BOTH.,#102);
#81=SURFACE_STYLE_USAGE(.BOTH.,#103);
#82=SURFACE_STYLE_USAGE(.BOTH.,#104);
#83=SURFACE_STYLE_USAGE(.BOTH.,#105);
#84=SURFACE_STYLE_USAGE(.BOTH.,#106);
#85=SURFACE_STYLE_USAGE(.BOTH.,#107);
#86=SURFACE_STYLE_USAGE(.BOTH.,#108);
#87=SURFACE_STYLE_USAGE(.BOTH.,#109);
#88=SURFACE_STYLE_USAGE(.BOTH.,#110);
#89=SURFACE_STYLE_USAGE(.BOTH.,#111);
#90=SURFACE_STYLE_USAGE(.BOTH.,#112);
#91=SURFACE_STYLE_USAGE(.BOTH.,#113);
#92=SURFACE_STYLE_USAGE(.BOTH.,#114);
#93=SURFACE_STYLE_USAGE(.BOTH.,#115);
#94=SURFACE_STYLE_USAGE(.BOTH.,#116);
#95=SURFACE_SIDE_STYLE('',(#117));
#96=SURFACE_SIDE_STYLE('',(#118));
#97=SURFACE_SIDE_STYLE('',(#119));
#98=SURFACE_SIDE_STYLE('',(#120));
#99=SURFACE_SIDE_STYLE('',(#121));
#100=SURFACE_SIDE_STYLE('',(#122));
#101=SURFACE_SIDE_STYLE('',(#123));
#102=SURFACE_SIDE_STYLE('',(#124));
#103=SURFACE_SIDE_STYLE('',(#125));
#104=SURFACE_SIDE_STYLE('',(#126));
#105=SURFACE_SIDE_STYLE('',(#127));
#106=SURFACE_SIDE_STYLE('',(#128));
#107=SURFACE_SIDE_STYLE('',(#129));
#108=SURFACE_SIDE_STYLE('',(#130));
#109=SURFACE_SIDE_STYLE('',(#131));
#110=SURFACE_SIDE_STYLE('',(#132));
#111=SURFACE_SIDE_STYLE('',(#133));
#112=SURFACE_SIDE_STYLE('',(#134));
#113=SURFACE_SIDE_STYLE('',(#135));
#114=SURFACE_SIDE_STYLE('',(#136));
#115=SURFACE_SIDE_STYLE('',(#137));
#116=SURFACE_SIDE_STYLE('',(#138));
#117=SURFACE_STYLE_FILL_AREA(#139);
#118=SURFACE_STYLE_FILL_AREA(#140);
#119=SURFACE_STYLE_FILL_AREA(#141);
#120=SURFACE_STYLE_FILL_AREA(#142);
#121=SURFACE_STYLE_FILL_AREA(#143);
#122=SURFACE_STYLE_FILL_AREA(#144);
#123=SURFACE_STYLE_FILL_AREA(#145);
#124=SURFACE_STYLE_FILL_AREA(#146);
#125=SURFACE_STYLE_FILL_AREA(#147);
#126=SURFACE_STYLE_FILL_AREA(#148);
#127=SURFACE_STYLE_FILL_AREA(#149);
#128=SURFACE_STYLE_FILL_AREA(#150);
#129=SURFACE_STYLE_FILL_AREA(#151);
#130=SURFACE_STYLE_FILL_AREA(#152);
#131=SURFACE_STYLE_FILL_AREA(#153);
#132=SURFACE_STYLE_FILL_AREA(#154);
#133=SURFACE_STYLE_FILL_AREA(#155);
#134=SURFACE_STYLE_FILL_AREA(#156);
#135=SURFACE_STYLE_FILL_AREA(#157);
#136=SURFACE_STYLE_FILL_AREA(#158);
#137=SURFACE_STYLE_FILL_AREA(#159);
#138=SURFACE_STYLE_FILL_AREA(#160);
#139=FILL_AREA_STYLE('',(#161));
#140=FILL_AREA_STYLE('',(#162));
#141=FILL_AREA_STYLE('',(#163));
#142=FILL_AREA_STYLE('',(#164));
#143=FILL_AREA_STYLE('',(#165));
#144=FILL_AREA_STYLE('',(#166));
#145=FILL_AREA_STYLE('',(#167));
#146=FILL_AREA_STYLE('',(#168));
#147=FILL_AREA_STYLE('',(#169));
#148=FILL_AREA_STYLE('',(#170));
#149=FILL_AREA_STYLE('',(#171));
#150=FILL_AREA_STYLE('',(#172));
#151=FILL_AREA_STYLE('',(#173));
#152=FILL_AREA_STYLE('',(#174));
#153=FILL_AREA_STYLE('',(#175));
#154=FILL_AREA_STYLE('',(#176));
#155=FILL_AREA_STYLE('',(#177));
#156=FILL_AREA_STYLE('',(#178));
#157=FILL_AREA_STYLE('',(#179));
#158=FILL_AREA_STYLE('',(#180));
#159=FILL_AREA_STYLE('',(#181));
#160=FILL_AREA_STYLE('',(#182));
#161=FILL_AREA_STYLE_COLOUR('',#183);
#162=FILL_AREA_STYLE_COLOUR('',#184);
#163=FILL_AREA_STYLE_COLOUR('',#184);
#164=FILL_AREA_STYLE_COLOUR('',#184);
#165=FILL_AREA_STYLE_COLOUR('',#184);
#166=FILL_AREA_STYLE_COLOUR('',#184);
#167=FILL_AREA_STYLE_COLOUR('',#184);
#168=FILL_AREA_STYLE_COLOUR('',#184);
#169=FILL_AREA_STYLE_COLOUR('',#184);
#170=FILL_AREA_STYLE_COLOUR('',#184);
#171=FILL_AREA_STYLE_COLOUR('',#184);
#172=FILL_AREA_STYLE_COLOUR('',#184);
#173=FILL_AREA_STYLE_COLOUR('',#184);
#174=FILL_AREA_STYLE_COLOUR('',#184);
#175=FILL_AREA_STYLE_COLOUR('',#184);
#176=FILL_AREA_STYLE_COLOUR('',#184);
#177=FILL_AREA_STYLE_COLOUR('',#184);
#178=FILL_AREA_STYLE_COLOUR('',#184);
#179=FILL_AREA_STYLE_COLOUR('',#184);
#180=FILL_AREA_STYLE_COLOUR('',#184);
#181=FILL_AREA_STYLE_COLOUR('',#184);
#182=FILL_AREA_STYLE_COLOUR('',#183);
#183=COLOUR_RGB('Light grey',0.8,0.8,0.8);
#184=COLOUR_RGB('Medium grey',0.6,0.6,0.6);
#185=MANIFOLD_SOLID_BREP('',#187);
#186=MANIFOLD_SOLID_BREP('',#188);
#187=CLOSED_SHELL('',(#211,#212,#213,#214,#215,#216,#217,#218,#219,#220,
#221,#222,#223,#224,#225,#226,#227,#228,#229,#230));
#188=CLOSED_SHELL('',(#231));
#189=VERTEX_LOOP('',#379);
#190=VERTEX_LOOP('',#381);
#191=(
BOUNDED_SURFACE()
B_SPLINE_SURFACE(3,3,((#579,#580,#581,#582,#583,#584,#585),(#586,#587,#588,
#589,#590,#591,#592),(#593,#594,#595,#596,#597,#598,#599),(#600,#601,#602,
#603,#604,#605,#606)),.UNSPECIFIED.,.F.,.T.,.F.)
B_SPLINE_SURFACE_WITH_KNOTS((4,4),(1,3,3,3,1),(0.,1.),(-0.5,0.,0.5,1.,1.5),
 .UNSPECIFIED.)
GEOMETRIC_REPRESENTATION_ITEM()
RATIONAL_B_SPLINE_SURFACE(((1.,0.333333333333333,0.333333333333333,1.,0.333333333333333,
0.333333333333333,1.),(0.967371010863436,0.322457003621145,0.322457003621145,
0.967371010863436,0.322457003621145,0.322457003621145,0.967371010863436),
(0.967371010863436,0.322457003621145,0.322457003621145,0.967371010863436,
0.322457003621145,0.322457003621145,0.967371010863436),(1.,0.333333333333333,
0.333333333333333,1.,0.333333333333333,0.333333333333333,1.)))
REPRESENTATION_ITEM('')
SURFACE()
);
#192=PLANE('',#432);
#193=PLANE('',#447);
#194=PLANE('',#448);
#195=PLANE('',#449);
#196=PLANE('',#450);
#197=FACE_OUTER_BOUND('',#287,.T.);
#198=FACE_OUTER_BOUND('',#304,.T.);
#199=FACE_OUTER_BOUND('',#305,.T.);
#200=FACE_OUTER_BOUND('',#306,.T.);
#201=CONICAL_SURFACE('',#430,3.22744222663507,54.0000000000001);
#202=CONICAL_SURFACE('',#438,9.49999999999999,1.73570458892838);
#203=CONICAL_SURFACE('',#452,9.,45.);
#204=CONICAL_SURFACE('',#454,3.,60.);
#205=CONICAL_SURFACE('',#457,4.1545,30.);
#206=TOROIDAL_SURFACE('',#428,5.54919397319033,3.95);
#207=TOROIDAL_SURFACE('',#442,6.49999999999999,3.);
#208=TOROIDAL_SURFACE('',#443,11.5,3.);
#209=TOROIDAL_SURFACE('',#444,11.5,3.);
#210=TOROIDAL_SURFACE('',#451,9.99999999999999,0.5);
#211=ADVANCED_FACE('',(#246,#247,#248),#232,.T.);
#212=ADVANCED_FACE('',(#249,#250),#206,.T.);
#213=ADVANCED_FACE('',(#251,#252),#201,.F.);
#214=ADVANCED_FACE('',(#197),#192,.T.);
#215=ADVANCED_FACE('',(#253,#254),#233,.T.);
#216=ADVANCED_FACE('',(#255,#256),#202,.T.);
#217=ADVANCED_FACE('',(#257,#258),#234,.T.);
#218=ADVANCED_FACE('',(#259,#260),#191,.T.);
#219=ADVANCED_FACE('',(#261,#262),#207,.T.);
#220=ADVANCED_FACE('',(#263,#264),#208,.F.);
#221=ADVANCED_FACE('',(#265,#266),#209,.F.);
#222=ADVANCED_FACE('',(#267,#268),#193,.T.);
#223=ADVANCED_FACE('',(#198),#194,.T.);
#224=ADVANCED_FACE('',(#199),#195,.T.);
#225=ADVANCED_FACE('',(#200),#196,.T.);
#226=ADVANCED_FACE('',(#269,#270),#210,.F.);
#227=ADVANCED_FACE('',(#271,#272),#203,.T.);
#228=ADVANCED_FACE('',(#273,#274),#204,.F.);
#229=ADVANCED_FACE('',(#275,#276),#235,.F.);
#230=ADVANCED_FACE('',(#277,#278),#205,.F.);
#231=ADVANCED_FACE('',(#279),#23,.F.);
#232=CYLINDRICAL_SURFACE('',#425,10.);
#233=CYLINDRICAL_SURFACE('',#435,9.49999999999999);
#234=CYLINDRICAL_SURFACE('',#441,8.5);
#235=CYLINDRICAL_SURFACE('',#456,3.);
#236=ELLIPSE('',#423,14.0203206487408,10.);
#237=ELLIPSE('',#424,14.0203206487408,10.);
#238=LINE('',#544,#242);
#239=LINE('',#549,#243);
#240=LINE('',#615,#244);
#241=LINE('',#616,#245);
#242=VECTOR('',#464,1.);
#243=VECTOR('',#467,1.);
#244=VECTOR('',#516,1.);
#245=VECTOR('',#517,1.);
#246=FACE_BOUND('',#280,.T.);
#247=FACE_BOUND('',#281,.T.);
#248=FACE_BOUND('',#282,.T.);
#249=FACE_BOUND('',#283,.T.);
#250=FACE_BOUND('',#284,.T.);
#251=FACE_BOUND('',#285,.T.);
#252=FACE_BOUND('',#286,.T.);
#253=FACE_BOUND('',#288,.T.);
#254=FACE_BOUND('',#289,.T.);
#255=FACE_BOUND('',#290,.T.);
#256=FACE_BOUND('',#291,.T.);
#257=FACE_BOUND('',#292,.T.);
#258=FACE_BOUND('',#293,.T.);
#259=FACE_BOUND('',#294,.T.);
#260=FACE_BOUND('',#295,.T.);
#261=FACE_BOUND('',#296,.T.);
#262=FACE_BOUND('',#297,.T.);
#263=FACE_BOUND('',#298,.T.);
#264=FACE_BOUND('',#299,.T.);
#265=FACE_BOUND('',#300,.T.);
#266=FACE_BOUND('',#301,.T.);
#267=FACE_BOUND('',#302,.T.);
#268=FACE_BOUND('',#303,.T.);
#269=FACE_BOUND('',#307,.T.);
#270=FACE_BOUND('',#308,.T.);
#271=FACE_BOUND('',#309,.T.);
#272=FACE_BOUND('',#310,.T.);
#273=FACE_BOUND('',#311,.T.);
#274=FACE_BOUND('',#189,.T.);
#275=FACE_BOUND('',#312,.T.);
#276=FACE_BOUND('',#313,.T.);
#277=FACE_BOUND('',#314,.T.);
#278=FACE_BOUND('',#315,.T.);
#279=FACE_BOUND('',#190,.T.);
#280=EDGE_LOOP('',(#316));
#281=EDGE_LOOP('',(#317));
#282=EDGE_LOOP('',(#318,#319,#320,#321));
#283=EDGE_LOOP('',(#322));
#284=EDGE_LOOP('',(#323));
#285=EDGE_LOOP('',(#324));
#286=EDGE_LOOP('',(#325));
#287=EDGE_LOOP('',(#326));
#288=EDGE_LOOP('',(#327));
#289=EDGE_LOOP('',(#328));
#290=EDGE_LOOP('',(#329));
#291=EDGE_LOOP('',(#330));
#292=EDGE_LOOP('',(#331));
#293=EDGE_LOOP('',(#332));
#294=EDGE_LOOP('',(#333));
#295=EDGE_LOOP('',(#334));
#296=EDGE_LOOP('',(#335));
#297=EDGE_LOOP('',(#336));
#298=EDGE_LOOP('',(#337));
#299=EDGE_LOOP('',(#338));
#300=EDGE_LOOP('',(#339));
#301=EDGE_LOOP('',(#340));
#302=EDGE_LOOP('',(#341));
#303=EDGE_LOOP('',(#342));
#304=EDGE_LOOP('',(#343,#344,#345,#346));
#305=EDGE_LOOP('',(#347,#348));
#306=EDGE_LOOP('',(#349,#350));
#307=EDGE_LOOP('',(#351));
#308=EDGE_LOOP('',(#352));
#309=EDGE_LOOP('',(#353));
#310=EDGE_LOOP('',(#354));
#311=EDGE_LOOP('',(#355));
#312=EDGE_LOOP('',(#356));
#313=EDGE_LOOP('',(#357));
#314=EDGE_LOOP('',(#358));
#315=EDGE_LOOP('',(#359));
#316=ORIENTED_EDGE('',*,*,#382,.T.);
#317=ORIENTED_EDGE('',*,*,#383,.T.);
#318=ORIENTED_EDGE('',*,*,#384,.T.);
#319=ORIENTED_EDGE('',*,*,#385,.T.);
#320=ORIENTED_EDGE('',*,*,#386,.T.);
#321=ORIENTED_EDGE('',*,*,#387,.T.);
#322=ORIENTED_EDGE('',*,*,#388,.T.);
#323=ORIENTED_EDGE('',*,*,#389,.T.);
#324=ORIENTED_EDGE('',*,*,#390,.T.);
#325=ORIENTED_EDGE('',*,*,#389,.F.);
#326=ORIENTED_EDGE('',*,*,#391,.T.);
#327=ORIENTED_EDGE('',*,*,#392,.T.);
#328=ORIENTED_EDGE('',*,*,#393,.T.);
#329=ORIENTED_EDGE('',*,*,#394,.T.);
#330=ORIENTED_EDGE('',*,*,#395,.T.);
#331=ORIENTED_EDGE('',*,*,#396,.T.);
#332=ORIENTED_EDGE('',*,*,#397,.T.);
#333=ORIENTED_EDGE('',*,*,#391,.F.);
#334=ORIENTED_EDGE('',*,*,#390,.F.);
#335=ORIENTED_EDGE('',*,*,#394,.F.);
#336=ORIENTED_EDGE('',*,*,#393,.F.);
#337=ORIENTED_EDGE('',*,*,#396,.F.);
#338=ORIENTED_EDGE('',*,*,#395,.F.);
#339=ORIENTED_EDGE('',*,*,#388,.F.);
#340=ORIENTED_EDGE('',*,*,#397,.F.);
#341=ORIENTED_EDGE('',*,*,#398,.T.);
#342=ORIENTED_EDGE('',*,*,#399,.T.);
#343=ORIENTED_EDGE('',*,*,#400,.T.);
#344=ORIENTED_EDGE('',*,*,#386,.F.);
#345=ORIENTED_EDGE('',*,*,#401,.F.);
#346=ORIENTED_EDGE('',*,*,#384,.F.);
#347=ORIENTED_EDGE('',*,*,#401,.T.);
#348=ORIENTED_EDGE('',*,*,#385,.F.);
#349=ORIENTED_EDGE('',*,*,#387,.F.);
#350=ORIENTED_EDGE('',*,*,#400,.F.);
#351=ORIENTED_EDGE('',*,*,#392,.F.);
#352=ORIENTED_EDGE('',*,*,#383,.F.);
#353=ORIENTED_EDGE('',*,*,#382,.F.);
#354=ORIENTED_EDGE('',*,*,#399,.F.);
#355=ORIENTED_EDGE('',*,*,#402,.T.);
#356=ORIENTED_EDGE('',*,*,#402,.F.);
#357=ORIENTED_EDGE('',*,*,#403,.T.);
#358=ORIENTED_EDGE('',*,*,#403,.F.);
#359=ORIENTED_EDGE('',*,*,#398,.F.);
#360=VERTEX_POINT('',#541);
#361=VERTEX_POINT('',#543);
#362=VERTEX_POINT('',#545);
#363=VERTEX_POINT('',#546);
#364=VERTEX_POINT('',#548);
#365=VERTEX_POINT('',#550);
#366=VERTEX_POINT('',#554);
#367=VERTEX_POINT('',#556);
#368=VERTEX_POINT('',#559);
#369=VERTEX_POINT('',#562);
#370=VERTEX_POINT('',#565);
#371=VERTEX_POINT('',#567);
#372=VERTEX_POINT('',#570);
#373=VERTEX_POINT('',#572);
#374=VERTEX_POINT('',#575);
#375=VERTEX_POINT('',#577);
#376=VERTEX_POINT('',#611);
#377=VERTEX_POINT('',#613);
#378=VERTEX_POINT('',#623);
#379=VERTEX_POINT('',#624);
#380=VERTEX_POINT('',#627);
#381=VERTEX_POINT('',#630);
#382=EDGE_CURVE('',#360,#360,#404,.T.);
#383=EDGE_CURVE('',#361,#361,#405,.T.);
#384=EDGE_CURVE('',#362,#363,#238,.T.);
#385=EDGE_CURVE('',#363,#364,#236,.T.);
#386=EDGE_CURVE('',#364,#365,#239,.T.);
#387=EDGE_CURVE('',#365,#362,#237,.T.);
#388=EDGE_CURVE('',#366,#366,#406,.T.);
#389=EDGE_CURVE('',#367,#367,#407,.T.);
#390=EDGE_CURVE('',#368,#368,#408,.T.);
#391=EDGE_CURVE('',#369,#369,#409,.T.);
#392=EDGE_CURVE('',#370,#370,#410,.T.);
#393=EDGE_CURVE('',#371,#371,#411,.T.);
#394=EDGE_CURVE('',#372,#372,#412,.T.);
#395=EDGE_CURVE('',#373,#373,#413,.T.);
#396=EDGE_CURVE('',#374,#374,#414,.T.);
#397=EDGE_CURVE('',#375,#375,#415,.T.);
#398=EDGE_CURVE('',#376,#376,#416,.T.);
#399=EDGE_CURVE('',#377,#377,#417,.T.);
#400=EDGE_CURVE('',#362,#365,#240,.T.);
#401=EDGE_CURVE('',#363,#364,#241,.T.);
#402=EDGE_CURVE('',#378,#378,#418,.T.);
#403=EDGE_CURVE('',#380,#380,#419,.T.);
#404=CIRCLE('',#421,10.);
#405=CIRCLE('',#422,10.);
#406=CIRCLE('',#426,8.93130675101741);
#407=CIRCLE('',#427,3.22744222663507);
#408=CIRCLE('',#429,1.2205848896953);
#409=CIRCLE('',#431,0.280128486027349);
#410=CIRCLE('',#433,9.49999999999999);
#411=CIRCLE('',#434,9.49999999999999);
#412=CIRCLE('',#436,9.49862353743614);
#413=CIRCLE('',#437,8.50137646256385);
#414=CIRCLE('',#439,8.5);
#415=CIRCLE('',#440,8.5);
#416=CIRCLE('',#445,4.1545);
#417=CIRCLE('',#446,9.);
#418=CIRCLE('',#453,3.);
#419=CIRCLE('',#455,3.);
#420=AXIS2_PLACEMENT_3D('',#539,#458,#459);
#421=AXIS2_PLACEMENT_3D('',#540,#460,#461);
#422=AXIS2_PLACEMENT_3D('',#542,#462,#463);
#423=AXIS2_PLACEMENT_3D('',#547,#465,#466);
#424=AXIS2_PLACEMENT_3D('',#551,#468,#469);
#425=AXIS2_PLACEMENT_3D('',#552,#470,#471);
#426=AXIS2_PLACEMENT_3D('',#553,#472,#473);
#427=AXIS2_PLACEMENT_3D('',#555,#474,#475);
#428=AXIS2_PLACEMENT_3D('',#557,#476,#477);
#429=AXIS2_PLACEMENT_3D('',#558,#478,#479);
#430=AXIS2_PLACEMENT_3D('',#560,#480,#481);
#431=AXIS2_PLACEMENT_3D('',#561,#482,#483);
#432=AXIS2_PLACEMENT_3D('',#563,#484,#485);
#433=AXIS2_PLACEMENT_3D('',#564,#486,#487);
#434=AXIS2_PLACEMENT_3D('',#566,#488,#489);
#435=AXIS2_PLACEMENT_3D('',#568,#490,#491);
#436=AXIS2_PLACEMENT_3D('',#569,#492,#493);
#437=AXIS2_PLACEMENT_3D('',#571,#494,#495);
#438=AXIS2_PLACEMENT_3D('',#573,#496,#497);
#439=AXIS2_PLACEMENT_3D('',#574,#498,#499);
#440=AXIS2_PLACEMENT_3D('',#576,#500,#501);
#441=AXIS2_PLACEMENT_3D('',#578,#502,#503);
#442=AXIS2_PLACEMENT_3D('',#607,#504,#505);
#443=AXIS2_PLACEMENT_3D('',#608,#506,#507);
#444=AXIS2_PLACEMENT_3D('',#609,#508,#509);
#445=AXIS2_PLACEMENT_3D('',#610,#510,#511);
#446=AXIS2_PLACEMENT_3D('',#612,#512,#513);
#447=AXIS2_PLACEMENT_3D('',#614,#514,#515);
#448=AXIS2_PLACEMENT_3D('',#617,#518,#519);
#449=AXIS2_PLACEMENT_3D('',#618,#520,#521);
#450=AXIS2_PLACEMENT_3D('',#619,#522,#523);
#451=AXIS2_PLACEMENT_3D('',#620,#524,#525);
#452=AXIS2_PLACEMENT_3D('',#621,#526,#527);
#453=AXIS2_PLACEMENT_3D('',#622,#528,#529);
#454=AXIS2_PLACEMENT_3D('',#625,#530,#531);
#455=AXIS2_PLACEMENT_3D('',#626,#532,#533);
#456=AXIS2_PLACEMENT_3D('',#628,#534,#535);
#457=AXIS2_PLACEMENT_3D('',#629,#536,#537);
#458=DIRECTION('',(0.,0.,1.));
#459=DIRECTION('',(1.,0.,0.));
#460=DIRECTION('',(0.,0.,-1.));
#461=DIRECTION('',(1.,0.,0.));
#462=DIRECTION('',(0.,0.,1.));
#463=DIRECTION('',(1.,0.,0.));
#464=DIRECTION('',(0.,0.,-1.));
#465=DIRECTION('',(-0.4956176937829,0.495617693782899,-0.713250449154181));
#466=DIRECTION('',(-0.504344229281272,0.504344229281272,0.700909264299852));
#467=DIRECTION('',(0.,0.,1.));
#468=DIRECTION('',(-0.4956176937829,0.495617693782899,0.713250449154181));
#469=DIRECTION('',(0.504344229281272,-0.504344229281272,0.700909264299852));
#470=DIRECTION('',(0.,0.,1.));
#471=DIRECTION('',(1.,0.,0.));
#472=DIRECTION('',(0.,0.,-1.));
#473=DIRECTION('',(-1.,0.,0.));
#474=DIRECTION('',(0.,0.,1.));
#475=DIRECTION('',(1.,0.,0.));
#476=DIRECTION('',(0.,0.,1.));
#477=DIRECTION('',(1.,0.,0.));
#478=DIRECTION('',(0.,0.,1.));
#479=DIRECTION('',(-1.,0.,0.));
#480=DIRECTION('',(0.,0.,-1.));
#481=DIRECTION('',(-1.,0.,7.04145081073789E-17));
#482=DIRECTION('',(0.,0.,-1.));
#483=DIRECTION('',(-1.,0.,0.));
#484=DIRECTION('',(0.,0.,-1.));
#485=DIRECTION('',(-1.,0.,0.));
#486=DIRECTION('',(0.,0.,-1.));
#487=DIRECTION('',(-1.,0.,0.));
#488=DIRECTION('',(0.,0.,1.));
#489=DIRECTION('',(-1.,0.,0.));
#490=DIRECTION('',(0.,0.,1.));
#491=DIRECTION('',(1.,0.,0.));
#492=DIRECTION('',(0.,0.,-1.));
#493=DIRECTION('',(-1.,0.,0.));
#494=DIRECTION('',(0.,0.,1.));
#495=DIRECTION('',(1.,0.,0.));
#496=DIRECTION('',(0.,0.,1.));
#497=DIRECTION('',(1.,0.,-1.08956746682975E-16));
#498=DIRECTION('',(0.,0.,-1.));
#499=DIRECTION('',(1.,0.,0.));
#500=DIRECTION('',(0.,0.,1.));
#501=DIRECTION('',(1.,0.,0.));
#502=DIRECTION('',(0.,0.,1.));
#503=DIRECTION('',(1.,0.,0.));
#504=DIRECTION('',(0.,0.,-1.));
#505=DIRECTION('',(-1.,0.,0.));
#506=DIRECTION('',(0.,0.,1.));
#507=DIRECTION('',(1.,0.,0.));
#508=DIRECTION('',(0.,0.,1.));
#509=DIRECTION('',(1.,0.,0.));
#510=DIRECTION('',(0.,0.,-1.));
#511=DIRECTION('',(-1.,0.,0.));
#512=DIRECTION('',(0.,0.,1.));
#513=DIRECTION('',(1.,0.,0.));
#514=DIRECTION('',(0.,0.,1.));
#515=DIRECTION('',(1.,0.,0.));
#516=DIRECTION('',(-0.707106781186547,-0.707106781186548,0.));
#517=DIRECTION('',(-0.707106781186547,-0.707106781186548,0.));
#518=DIRECTION('',(0.707106781186548,-0.707106781186547,0.));
#519=DIRECTION('',(0.,0.,-1.));
#520=DIRECTION('',(0.4956176937829,-0.495617693782899,0.71325044915418));
#521=DIRECTION('',(0.504344229281272,-0.504344229281271,-0.700909264299852));
#522=DIRECTION('',(0.4956176937829,-0.495617693782899,-0.713250449154181));
#523=DIRECTION('',(-0.504344229281272,0.504344229281272,-0.700909264299852));
#524=DIRECTION('',(0.,0.,-1.));
#525=DIRECTION('',(-1.,0.,0.));
#526=DIRECTION('',(0.,0.,-1.));
#527=DIRECTION('',(-1.,0.,4.12620053750678E-17));
#528=DIRECTION('',(0.,0.,1.));
#529=DIRECTION('',(-1.,0.,0.));
#530=DIRECTION('',(0.,0.,1.));
#531=DIRECTION('',(1.,0.,-1.59969814685251E-17));
#532=DIRECTION('',(0.,0.,1.));
#533=DIRECTION('',(-1.,0.,0.));
#534=DIRECTION('',(0.,0.,-1.));
#535=DIRECTION('',(-1.,0.,0.));
#536=DIRECTION('',(0.,0.,1.));
#537=DIRECTION('',(1.,0.,7.15959105227337E-17));
#538=DIRECTION('',(0.,0.,-1.));
#539=CARTESIAN_POINT('',(0.,0.,0.));
#540=CARTESIAN_POINT('',(0.,0.,49.));
#541=CARTESIAN_POINT('',(10.,0.,49.));
#542=CARTESIAN_POINT('',(0.,0.,6.93889390390723E-15));
#543=CARTESIAN_POINT('',(10.,0.,6.93889390390723E-15));
#544=CARTESIAN_POINT('',(9.84549687469931,-1.75105433676007,-60.));
#545=CARTESIAN_POINT('',(9.8454968746993,-1.75105433676008,31.));
#546=CARTESIAN_POINT('',(9.84549687469931,-1.75105433676007,20.));
#547=CARTESIAN_POINT('',(0.,0.,28.0581175575487));
#548=CARTESIAN_POINT('',(1.75105433676007,-9.84549687469931,20.));
#549=CARTESIAN_POINT('',(1.75105433676008,-9.8454968746993,-60.));
#550=CARTESIAN_POINT('',(1.75105433676009,-9.8454968746993,31.));
#551=CARTESIAN_POINT('',(0.,0.,22.9418824424513));
#552=CARTESIAN_POINT('',(0.,0.,-60.));
#553=CARTESIAN_POINT('',(0.,0.,-53.0274805155436));
#554=CARTESIAN_POINT('',(-8.93130675101741,0.,-53.0274805155436));
#555=CARTESIAN_POINT('',(0.,0.,-58.2636400119264));
#556=CARTESIAN_POINT('',(3.22744222663507,0.,-58.2636400119264));
#557=CARTESIAN_POINT('',(0.,0.,-55.0680228841454));
#558=CARTESIAN_POINT('',(0.,0.,-56.8055728090001));
#559=CARTESIAN_POINT('',(-1.2205848896953,0.,-56.8055728090001));
#560=CARTESIAN_POINT('',(0.,0.,-58.2636400119264));
#561=CARTESIAN_POINT('',(0.,0.,-56.5));
#562=CARTESIAN_POINT('',(-0.280128486027349,0.,-56.5));
#563=CARTESIAN_POINT('',(0.8,0.,-56.5));
#564=CARTESIAN_POINT('',(0.,0.,-0.499999999999997));
#565=CARTESIAN_POINT('',(-9.49999999999999,0.,-0.499999999999997));
#566=CARTESIAN_POINT('',(0.,0.,-4.95455588468496));
#567=CARTESIAN_POINT('',(-9.49999999999999,0.,-4.95455588468496));
#568=CARTESIAN_POINT('',(0.,0.,0.));
#569=CARTESIAN_POINT('',(0.,0.,-5.04542326460727));
#570=CARTESIAN_POINT('',(-9.49862353743614,0.,-5.04542326460727));
#571=CARTESIAN_POINT('',(0.,0.,-37.9545767353928));
#572=CARTESIAN_POINT('',(8.50137646256385,0.,-37.9545767353928));
#573=CARTESIAN_POINT('',(0.,0.,-5.));
#574=CARTESIAN_POINT('',(0.,0.,-38.0454441153151));
#575=CARTESIAN_POINT('',(8.5,0.,-38.0454441153151));
#576=CARTESIAN_POINT('',(0.,0.,-51.4777015014157));
#577=CARTESIAN_POINT('',(8.5,0.,-51.4777015014157));
#578=CARTESIAN_POINT('',(0.,0.,0.));
#579=CARTESIAN_POINT('',(-0.280128486027349,0.,-56.5));
#580=CARTESIAN_POINT('',(-0.280128486027349,0.560256972054698,-56.5));
#581=CARTESIAN_POINT('',(0.280128486027349,0.560256972054698,-56.5));
#582=CARTESIAN_POINT('',(0.280128486027349,0.,-56.5));
#583=CARTESIAN_POINT('',(0.280128486027349,-0.560256972054698,-56.5));
#584=CARTESIAN_POINT('',(-0.280128486027349,-0.560256972054698,-56.5));
#585=CARTESIAN_POINT('',(-0.280128486027349,0.,-56.5));
#586=CARTESIAN_POINT('',(-0.620864484555021,0.,-56.5));
#587=CARTESIAN_POINT('',(-0.620864484555021,1.24172896911004,-56.5));
#588=CARTESIAN_POINT('',(0.620864484555021,1.24172896911004,-56.5));
#589=CARTESIAN_POINT('',(0.620864484555021,0.,-56.5));
#590=CARTESIAN_POINT('',(0.620864484555021,-1.24172896911004,-56.5));
#591=CARTESIAN_POINT('',(-0.620864484555021,-1.24172896911004,-56.5));
#592=CARTESIAN_POINT('',(-0.620864484555021,0.,-56.5));
#593=CARTESIAN_POINT('',(-0.944923676291099,0.,-56.6052932141404));
#594=CARTESIAN_POINT('',(-0.944923676291099,1.8898473525822,-56.6052932141404));
#595=CARTESIAN_POINT('',(0.944923676291099,1.8898473525822,-56.6052932141404));
#596=CARTESIAN_POINT('',(0.944923676291099,0.,-56.6052932141404));
#597=CARTESIAN_POINT('',(0.944923676291099,-1.8898473525822,-56.6052932141404));
#598=CARTESIAN_POINT('',(-0.944923676291099,-1.8898473525822,-56.6052932141404));
#599=CARTESIAN_POINT('',(-0.944923676291099,0.,-56.6052932141404));
#600=CARTESIAN_POINT('',(-1.2205848896953,0.,-56.8055728090001));
#601=CARTESIAN_POINT('',(-1.2205848896953,2.44116977939061,-56.8055728090001));
#602=CARTESIAN_POINT('',(1.2205848896953,2.44116977939061,-56.8055728090001));
#603=CARTESIAN_POINT('',(1.2205848896953,0.,-56.8055728090001));
#604=CARTESIAN_POINT('',(1.2205848896953,-2.44116977939061,-56.8055728090001));
#605=CARTESIAN_POINT('',(-1.2205848896953,-2.44116977939061,-56.8055728090001));
#606=CARTESIAN_POINT('',(-1.2205848896953,0.,-56.8055728090001));
#607=CARTESIAN_POINT('',(0.,0.,-4.95455588468496));
#608=CARTESIAN_POINT('',(0.,0.,-38.0454441153151));
#609=CARTESIAN_POINT('',(0.,0.,-51.4777015014157));
#610=CARTESIAN_POINT('',(0.,0.,50.));
#611=CARTESIAN_POINT('',(-4.1545,0.,50.));
#612=CARTESIAN_POINT('',(0.,0.,50.));
#613=CARTESIAN_POINT('',(9.,0.,50.));
#614=CARTESIAN_POINT('',(0.,0.,50.));
#615=CARTESIAN_POINT('',(-4.80832611206851,-16.4048773235279,31.));
#616=CARTESIAN_POINT('',(-4.80832611206851,-16.4048773235279,20.));
#617=CARTESIAN_POINT('',(-4.80832611206851,-16.4048773235279,31.));
#618=CARTESIAN_POINT('',(-4.80832611206851,-16.4048773235279,20.));
#619=CARTESIAN_POINT('',(-3.53553390593273,-17.6776695296637,32.7688550736083));
#620=CARTESIAN_POINT('',(0.,0.,-0.499999999999997));
#621=CARTESIAN_POINT('',(0.,0.,50.));
#622=CARTESIAN_POINT('',(0.,0.,-36.));
#623=CARTESIAN_POINT('',(-3.,0.,-36.));
#624=CARTESIAN_POINT('',(0.,0.,-37.7320508075689));
#625=CARTESIAN_POINT('',(0.,0.,-36.));
#626=CARTESIAN_POINT('',(0.,0.,48.0003473426617));
#627=CARTESIAN_POINT('',(-3.,0.,48.0003473426617));
#628=CARTESIAN_POINT('',(0.,0.,-36.));
#629=CARTESIAN_POINT('',(0.,0.,50.));
#630=CARTESIAN_POINT('',(9.97500000000002,1.0842021724855E-15,-55.));
#631=CARTESIAN_POINT('',(9.97500000000002,1.0842021724855E-15,-55.));
#632=CARTESIAN_POINT('',(9.97500000000002,1.17711287311634E-15,-45.));
#633=CARTESIAN_POINT('',(-0.0189082701909324,-0.348994967025007,-45.));
#634=CARTESIAN_POINT('',(-0.0189082701909336,-0.348994967025007,-55.));
#635=CARTESIAN_POINT('',(-0.0189082701909349,-0.348994967025007,-65.));
#636=CARTESIAN_POINT('',(9.97500000000002,9.91291471854668E-16,-65.));
#637=CARTESIAN_POINT('',(9.97500000000002,1.0842021724855E-15,-55.));
#638=CARTESIAN_POINT('',(0.,0.,0.));
#639=MECHANICAL_DESIGN_GEOMETRIC_PRESENTATION_REPRESENTATION('',(#49,#26,
#27,#28,#29,#30,#31,#32,#33,#34,#35,#36,#37,#38,#39,#40,#41,#42,#43,#44,
#45,#50),#640);
#640=(
GEOMETRIC_REPRESENTATION_CONTEXT(3)
GLOBAL_UNCERTAINTY_ASSIGNED_CONTEXT((#641))
GLOBAL_UNIT_ASSIGNED_CONTEXT((#647,#643,#642))
REPRESENTATION_CONTEXT('ax_step_export_ax_temp_1',
'TOP_LEVEL_ASSEMBLY_PART')
);
#641=UNCERTAINTY_MEASURE_WITH_UNIT(LENGTH_MEASURE(0.0254),#647,
'DISTANCE_ACCURACY_VALUE','Maximum Tolerance applied to model');
#642=(
NAMED_UNIT(*)
SI_UNIT($,.STERADIAN.)
SOLID_ANGLE_UNIT()
);
#643=(
CONVERSION_BASED_UNIT('DEGREE',#645)
NAMED_UNIT(#644)
PLANE_ANGLE_UNIT()
);
#644=DIMENSIONAL_EXPONENTS(0.,0.,0.,0.,0.,0.,0.);
#645=PLANE_ANGLE_MEASURE_WITH_UNIT(PLANE_ANGLE_MEASURE(0.0174532925),#646);
#646=(
NAMED_UNIT(*)
PLANE_ANGLE_UNIT()
SI_UNIT($,.RADIAN.)
);
#647=(
LENGTH_UNIT()
NAMED_UNIT(*)
SI_UNIT(.MILLI.,.METRE.)
);
ENDSEC;
END-ISO-10303-21;
