ISO-10303-21;
HEADER;
/* Generated by software containing ST-Developer
 * from STEP Tools, Inc. (www.steptools.com) 
 */
/* OPTION: using custom schema-name function */

FILE_DESCRIPTION(
/* description */ (''),
/* implementation_level */ '2;1');

FILE_NAME(
/* name */ '2080.50-MTS.2.060.stp',
/* time_stamp */ '2024-06-23T17:18:52+02:00',
/* author */ (''),
/* organization */ (''),
/* preprocessor_version */ 'ST-DEVELOPER v16.7',
/* originating_system */ 'SIEMENS PLM Software NX 12.0',
/* authorisation */ '');

FILE_SCHEMA (('AUTOMOTIVE_DESIGN { 1 0 10303 214 3 1 1 1 }'));
ENDSEC;

DATA;
#10=CONSTRUCTIVE_GEOMETRY_REPRESENTATION_RELATIONSHIP(
'supplemental geometry','',#32,#11);
#11=CONSTRUCTIVE_GEOMETRY_REPRESENTATION('supplemental geometry',(#228,
#229,#230),#384);
#12=PROPERTY_DEFINITION_REPRESENTATION(#16,#14);
#13=PROPERTY_DEFINITION_REPRESENTATION(#17,#15);
#14=REPRESENTATION('',(#18),#384);
#15=REPRESENTATION('',(#19),#384);
#16=PROPERTY_DEFINITION('pmi validation property','',#23);
#17=PROPERTY_DEFINITION('pmi validation property','',#23);
#18=VALUE_REPRESENTATION_ITEM('number of annotations',COUNT_MEASURE(0.));
#19=VALUE_REPRESENTATION_ITEM('number of views',COUNT_MEASURE(0.));
#20=SHAPE_REPRESENTATION_RELATIONSHIP('None',
'relationship between pf660F5CA0AEj8a0-None and pf660F5CA0AEj8a0-None',
#32,#21);
#21=ADVANCED_BREP_SHAPE_REPRESENTATION('pf660F5CA0AEj8a0-None',(#38),#384);
#22=SHAPE_DEFINITION_REPRESENTATION(#23,#32);
#23=PRODUCT_DEFINITION_SHAPE('','',#24);
#24=PRODUCT_DEFINITION(' ','',#26,#25);
#25=PRODUCT_DEFINITION_CONTEXT('part definition',#31,'design');
#26=PRODUCT_DEFINITION_FORMATION_WITH_SPECIFIED_SOURCE(' ',' ',#28,
 .NOT_KNOWN.);
#27=PRODUCT_RELATED_PRODUCT_CATEGORY('part','',(#28));
#28=PRODUCT('pf660F5CA0AEj8a0','pf660F5CA0AEj8a0',' ',(#29));
#29=PRODUCT_CONTEXT(' ',#31,'mechanical');
#30=APPLICATION_PROTOCOL_DEFINITION('international standard',
'automotive_design',2010,#31);
#31=APPLICATION_CONTEXT(
'core data for automotive mechanical design processes');
#32=SHAPE_REPRESENTATION('pf660F5CA0AEj8a0-None',(#227),#384);
#33=SURFACE_STYLE_USAGE(.BOTH.,#34);
#34=SURFACE_SIDE_STYLE('',(#35));
#35=SURFACE_STYLE_FILL_AREA(#36);
#36=FILL_AREA_STYLE('',(#37));
#37=FILL_AREA_STYLE_COLOUR('',#223);
#38=MANIFOLD_SOLID_BREP('',#39);
#39=CLOSED_SHELL('',(#68,#69,#70,#71,#72,#73,#74,#75,#76,#77,#78,#79));
#40=CONICAL_SURFACE('',#253,27.64991320209,8.2971);
#41=TOROIDAL_SURFACE('',#245,21.,5.);
#42=TOROIDAL_SURFACE('',#247,21.,5.);
#43=CYLINDRICAL_SURFACE('',#239,16.);
#44=CYLINDRICAL_SURFACE('',#241,16.);
#45=CYLINDRICAL_SURFACE('',#250,48.75);
#46=CYLINDRICAL_SURFACE('',#257,19.65);
#47=CYLINDRICAL_SURFACE('',#258,19.65);
#48=LINE('',#345,#54);
#49=LINE('',#349,#55);
#50=LINE('',#369,#56);
#51=LINE('',#371,#57);
#52=LINE('',#379,#58);
#53=LINE('',#380,#59);
#54=VECTOR('',#281,1.);
#55=VECTOR('',#284,1.);
#56=VECTOR('',#313,1.);
#57=VECTOR('',#314,1.);
#58=VECTOR('',#323,1.);
#59=VECTOR('',#324,1.);
#60=FACE_OUTER_BOUND('',#94,.T.);
#61=FACE_OUTER_BOUND('',#95,.T.);
#62=FACE_OUTER_BOUND('',#96,.T.);
#63=FACE_OUTER_BOUND('',#97,.T.);
#64=FACE_OUTER_BOUND('',#98,.T.);
#65=FACE_OUTER_BOUND('',#105,.T.);
#66=FACE_OUTER_BOUND('',#106,.T.);
#67=FACE_OUTER_BOUND('',#107,.T.);
#68=ADVANCED_FACE('',(#84,#85),#80,.F.);
#69=ADVANCED_FACE('',(#60),#81,.T.);
#70=ADVANCED_FACE('',(#61),#43,.T.);
#71=ADVANCED_FACE('',(#62),#44,.T.);
#72=ADVANCED_FACE('',(#63),#41,.F.);
#73=ADVANCED_FACE('',(#64),#42,.F.);
#74=ADVANCED_FACE('',(#86,#87),#82,.T.);
#75=ADVANCED_FACE('',(#88,#89),#45,.T.);
#76=ADVANCED_FACE('',(#90,#91),#40,.T.);
#77=ADVANCED_FACE('',(#65),#83,.F.);
#78=ADVANCED_FACE('',(#66),#46,.T.);
#79=ADVANCED_FACE('',(#67),#47,.T.);
#80=PLANE('',#234);
#81=PLANE('',#237);
#82=PLANE('',#249);
#83=PLANE('',#256);
#84=FACE_BOUND('',#92,.T.);
#85=FACE_BOUND('',#93,.T.);
#86=FACE_BOUND('',#99,.T.);
#87=FACE_BOUND('',#100,.T.);
#88=FACE_BOUND('',#101,.T.);
#89=FACE_BOUND('',#102,.T.);
#90=FACE_BOUND('',#103,.T.);
#91=FACE_BOUND('',#104,.T.);
#92=EDGE_LOOP('',(#108));
#93=EDGE_LOOP('',(#109,#110));
#94=EDGE_LOOP('',(#111,#112));
#95=EDGE_LOOP('',(#113,#114,#115,#116));
#96=EDGE_LOOP('',(#117,#118,#119,#120));
#97=EDGE_LOOP('',(#121,#122,#123,#124));
#98=EDGE_LOOP('',(#125,#126,#127,#128));
#99=EDGE_LOOP('',(#129));
#100=EDGE_LOOP('',(#130,#131));
#101=EDGE_LOOP('',(#132));
#102=EDGE_LOOP('',(#133));
#103=EDGE_LOOP('',(#134,#135));
#104=EDGE_LOOP('',(#136,#137,#138,#139,#140,#141));
#105=EDGE_LOOP('',(#142,#143));
#106=EDGE_LOOP('',(#144,#145,#146,#147));
#107=EDGE_LOOP('',(#148,#149,#150,#151));
#108=ORIENTED_EDGE('',*,*,#168,.T.);
#109=ORIENTED_EDGE('',*,*,#169,.T.);
#110=ORIENTED_EDGE('',*,*,#170,.T.);
#111=ORIENTED_EDGE('',*,*,#171,.F.);
#112=ORIENTED_EDGE('',*,*,#172,.F.);
#113=ORIENTED_EDGE('',*,*,#173,.T.);
#114=ORIENTED_EDGE('',*,*,#174,.T.);
#115=ORIENTED_EDGE('',*,*,#175,.F.);
#116=ORIENTED_EDGE('',*,*,#171,.T.);
#117=ORIENTED_EDGE('',*,*,#175,.T.);
#118=ORIENTED_EDGE('',*,*,#176,.F.);
#119=ORIENTED_EDGE('',*,*,#173,.F.);
#120=ORIENTED_EDGE('',*,*,#172,.T.);
#121=ORIENTED_EDGE('',*,*,#177,.F.);
#122=ORIENTED_EDGE('',*,*,#174,.F.);
#123=ORIENTED_EDGE('',*,*,#178,.T.);
#124=ORIENTED_EDGE('',*,*,#179,.T.);
#125=ORIENTED_EDGE('',*,*,#178,.F.);
#126=ORIENTED_EDGE('',*,*,#176,.T.);
#127=ORIENTED_EDGE('',*,*,#177,.T.);
#128=ORIENTED_EDGE('',*,*,#180,.T.);
#129=ORIENTED_EDGE('',*,*,#181,.F.);
#130=ORIENTED_EDGE('',*,*,#180,.F.);
#131=ORIENTED_EDGE('',*,*,#179,.F.);
#132=ORIENTED_EDGE('',*,*,#181,.T.);
#133=ORIENTED_EDGE('',*,*,#168,.F.);
#134=ORIENTED_EDGE('',*,*,#182,.F.);
#135=ORIENTED_EDGE('',*,*,#183,.F.);
#136=ORIENTED_EDGE('',*,*,#184,.F.);
#137=ORIENTED_EDGE('',*,*,#170,.F.);
#138=ORIENTED_EDGE('',*,*,#185,.T.);
#139=ORIENTED_EDGE('',*,*,#185,.F.);
#140=ORIENTED_EDGE('',*,*,#169,.F.);
#141=ORIENTED_EDGE('',*,*,#184,.T.);
#142=ORIENTED_EDGE('',*,*,#186,.T.);
#143=ORIENTED_EDGE('',*,*,#187,.T.);
#144=ORIENTED_EDGE('',*,*,#188,.F.);
#145=ORIENTED_EDGE('',*,*,#182,.T.);
#146=ORIENTED_EDGE('',*,*,#189,.T.);
#147=ORIENTED_EDGE('',*,*,#187,.F.);
#148=ORIENTED_EDGE('',*,*,#189,.F.);
#149=ORIENTED_EDGE('',*,*,#183,.T.);
#150=ORIENTED_EDGE('',*,*,#188,.T.);
#151=ORIENTED_EDGE('',*,*,#186,.F.);
#152=VERTEX_POINT('',#334);
#153=VERTEX_POINT('',#336);
#154=VERTEX_POINT('',#337);
#155=VERTEX_POINT('',#341);
#156=VERTEX_POINT('',#342);
#157=VERTEX_POINT('',#346);
#158=VERTEX_POINT('',#348);
#159=VERTEX_POINT('',#354);
#160=VERTEX_POINT('',#356);
#161=VERTEX_POINT('',#362);
#162=VERTEX_POINT('',#366);
#163=VERTEX_POINT('',#367);
#164=VERTEX_POINT('',#370);
#165=VERTEX_POINT('',#372);
#166=VERTEX_POINT('',#375);
#167=VERTEX_POINT('',#376);
#168=EDGE_CURVE('',#152,#152,#190,.T.);
#169=EDGE_CURVE('',#153,#154,#191,.T.);
#170=EDGE_CURVE('',#154,#153,#192,.T.);
#171=EDGE_CURVE('',#155,#156,#193,.T.);
#172=EDGE_CURVE('',#156,#155,#194,.T.);
#173=EDGE_CURVE('',#156,#157,#48,.T.);
#174=EDGE_CURVE('',#157,#158,#195,.T.);
#175=EDGE_CURVE('',#155,#158,#49,.T.);
#176=EDGE_CURVE('',#157,#158,#196,.T.);
#177=EDGE_CURVE('',#158,#159,#197,.T.);
#178=EDGE_CURVE('',#157,#160,#198,.T.);
#179=EDGE_CURVE('',#160,#159,#199,.T.);
#180=EDGE_CURVE('',#159,#160,#200,.T.);
#181=EDGE_CURVE('',#161,#161,#201,.T.);
#182=EDGE_CURVE('',#162,#163,#202,.T.);
#183=EDGE_CURVE('',#163,#162,#203,.T.);
#184=EDGE_CURVE('',#153,#164,#50,.T.);
#185=EDGE_CURVE('',#154,#165,#51,.T.);
#186=EDGE_CURVE('',#166,#167,#204,.T.);
#187=EDGE_CURVE('',#167,#166,#205,.T.);
#188=EDGE_CURVE('',#162,#167,#52,.T.);
#189=EDGE_CURVE('',#163,#166,#53,.T.);
#190=CIRCLE('',#231,48.75);
#191=CIRCLE('',#232,35.3916641016607);
#192=CIRCLE('',#233,35.3916641016607);
#193=CIRCLE('',#235,16.);
#194=CIRCLE('',#236,16.);
#195=CIRCLE('',#238,16.);
#196=CIRCLE('',#240,16.);
#197=CIRCLE('',#242,5.);
#198=CIRCLE('',#243,5.);
#199=CIRCLE('',#244,21.);
#200=CIRCLE('',#246,21.);
#201=CIRCLE('',#248,48.75);
#202=CIRCLE('',#251,19.65);
#203=CIRCLE('',#252,19.65);
#204=CIRCLE('',#254,19.65);
#205=CIRCLE('',#255,19.65);
#206=INVISIBILITY((#207,#208,#209));
#207=PRESENTATION_LAYER_ASSIGNMENT('100','Layer 100',(#228));
#208=PRESENTATION_LAYER_ASSIGNMENT('101','Layer 101',(#229));
#209=PRESENTATION_LAYER_ASSIGNMENT('102','Layer 102',(#230));
#210=PRESENTATION_LAYER_ASSIGNMENT('98','Layer 98',(#38));
#211=STYLED_ITEM('',(#215),#228);
#212=STYLED_ITEM('',(#216),#229);
#213=STYLED_ITEM('',(#217),#230);
#214=STYLED_ITEM('',(#218),#38);
#215=PRESENTATION_STYLE_ASSIGNMENT((#219));
#216=PRESENTATION_STYLE_ASSIGNMENT((#220));
#217=PRESENTATION_STYLE_ASSIGNMENT((#221));
#218=PRESENTATION_STYLE_ASSIGNMENT((#33));
#219=CURVE_STYLE('',#224,POSITIVE_LENGTH_MEASURE(0.7),#222);
#220=CURVE_STYLE('',#225,POSITIVE_LENGTH_MEASURE(0.7),#222);
#221=CURVE_STYLE('',#226,POSITIVE_LENGTH_MEASURE(0.7),#222);
#222=COLOUR_RGB('Medium Maroon',0.6,0.4,0.4);
#223=COLOUR_RGB('Medium Gray',0.490196078431373,0.490196078431373,0.490196078431373);
#224=DRAUGHTING_PRE_DEFINED_CURVE_FONT('continuous');
#225=DRAUGHTING_PRE_DEFINED_CURVE_FONT('continuous');
#226=DRAUGHTING_PRE_DEFINED_CURVE_FONT('continuous');
#227=AXIS2_PLACEMENT_3D('',#329,#259,#260);
#228=AXIS2_PLACEMENT_3D('PCS',#330,#261,#262);
#229=AXIS2_PLACEMENT_3D('CSW',#331,#263,#264);
#230=AXIS2_PLACEMENT_3D('MCS',#332,#265,#266);
#231=AXIS2_PLACEMENT_3D('',#333,#267,#268);
#232=AXIS2_PLACEMENT_3D('',#335,#269,#270);
#233=AXIS2_PLACEMENT_3D('',#338,#271,#272);
#234=AXIS2_PLACEMENT_3D('',#339,#273,#274);
#235=AXIS2_PLACEMENT_3D('',#340,#275,#276);
#236=AXIS2_PLACEMENT_3D('',#343,#277,#278);
#237=AXIS2_PLACEMENT_3D('',#344,#279,#280);
#238=AXIS2_PLACEMENT_3D('',#347,#282,#283);
#239=AXIS2_PLACEMENT_3D('',#350,#285,#286);
#240=AXIS2_PLACEMENT_3D('',#351,#287,#288);
#241=AXIS2_PLACEMENT_3D('',#352,#289,#290);
#242=AXIS2_PLACEMENT_3D('',#353,#291,#292);
#243=AXIS2_PLACEMENT_3D('',#355,#293,#294);
#244=AXIS2_PLACEMENT_3D('',#357,#295,#296);
#245=AXIS2_PLACEMENT_3D('',#358,#297,#298);
#246=AXIS2_PLACEMENT_3D('',#359,#299,#300);
#247=AXIS2_PLACEMENT_3D('',#360,#301,#302);
#248=AXIS2_PLACEMENT_3D('',#361,#303,#304);
#249=AXIS2_PLACEMENT_3D('',#363,#305,#306);
#250=AXIS2_PLACEMENT_3D('',#364,#307,#308);
#251=AXIS2_PLACEMENT_3D('',#365,#309,#310);
#252=AXIS2_PLACEMENT_3D('',#368,#311,#312);
#253=AXIS2_PLACEMENT_3D('',#373,#315,#316);
#254=AXIS2_PLACEMENT_3D('',#374,#317,#318);
#255=AXIS2_PLACEMENT_3D('',#377,#319,#320);
#256=AXIS2_PLACEMENT_3D('',#378,#321,#322);
#257=AXIS2_PLACEMENT_3D('',#381,#325,#326);
#258=AXIS2_PLACEMENT_3D('',#382,#327,#328);
#259=DIRECTION('',(0.,0.,1.));
#260=DIRECTION('',(1.,0.,0.));
#261=DIRECTION('',(0.,0.,1.));
#262=DIRECTION('',(1.,0.,0.));
#263=DIRECTION('',(0.,0.,1.));
#264=DIRECTION('',(1.,0.,0.));
#265=DIRECTION('',(0.,0.,1.));
#266=DIRECTION('',(1.,0.,0.));
#267=DIRECTION('',(0.,0.,1.));
#268=DIRECTION('',(-1.,0.,0.));
#269=DIRECTION('',(0.,0.,-1.));
#270=DIRECTION('',(-1.,0.,0.));
#271=DIRECTION('',(0.,0.,-1.));
#272=DIRECTION('',(-1.,0.,0.));
#273=DIRECTION('',(0.,0.,-1.));
#274=DIRECTION('',(0.,1.,0.));
#275=DIRECTION('',(0.,0.,1.));
#276=DIRECTION('',(-1.,0.,0.));
#277=DIRECTION('',(0.,0.,1.));
#278=DIRECTION('',(-1.,0.,0.));
#279=DIRECTION('',(0.,0.,-1.));
#280=DIRECTION('',(0.,1.,0.));
#281=DIRECTION('',(2.821563385695E-14,0.,1.));
#282=DIRECTION('',(0.,0.,-1.));
#283=DIRECTION('',(0.,1.,0.));
#284=DIRECTION('',(-2.820267463157E-14,0.,1.));
#285=DIRECTION('',(0.,0.,-1.));
#286=DIRECTION('',(0.,1.,0.));
#287=DIRECTION('',(0.,0.,1.));
#288=DIRECTION('',(0.,1.,0.));
#289=DIRECTION('',(0.,0.,-1.));
#290=DIRECTION('',(0.,1.,0.));
#291=DIRECTION('',(1.,0.,0.));
#292=DIRECTION('',(0.,1.,0.));
#293=DIRECTION('',(-1.,0.,0.));
#294=DIRECTION('',(0.,-1.,0.));
#295=DIRECTION('',(0.,0.,-1.));
#296=DIRECTION('',(0.,1.,0.));
#297=DIRECTION('',(0.,0.,-1.));
#298=DIRECTION('',(0.,1.,0.));
#299=DIRECTION('',(0.,0.,-1.));
#300=DIRECTION('',(0.,-1.,0.));
#301=DIRECTION('',(0.,0.,-1.));
#302=DIRECTION('',(0.,1.,0.));
#303=DIRECTION('',(0.,0.,1.));
#304=DIRECTION('',(-1.,0.,0.));
#305=DIRECTION('',(0.,0.,-1.));
#306=DIRECTION('',(0.,1.,0.));
#307=DIRECTION('',(0.,0.,-1.));
#308=DIRECTION('',(0.,1.,0.));
#309=DIRECTION('',(0.,0.,1.));
#310=DIRECTION('',(-1.,0.,0.));
#311=DIRECTION('',(0.,0.,1.));
#312=DIRECTION('',(-1.,0.,0.));
#313=DIRECTION('',(0.,-0.144306116415197,0.989533094325381));
#314=DIRECTION('',(0.,0.144306116415197,0.989533094325381));
#315=DIRECTION('',(0.,0.,-1.));
#316=DIRECTION('',(0.,1.,0.));
#317=DIRECTION('',(0.,0.,1.));
#318=DIRECTION('',(-1.,0.,0.));
#319=DIRECTION('',(0.,0.,1.));
#320=DIRECTION('',(-1.,0.,0.));
#321=DIRECTION('',(0.,0.,-1.));
#322=DIRECTION('',(0.,1.,0.));
#323=DIRECTION('',(5.267432007154E-13,0.,1.));
#324=DIRECTION('',(-5.26857917983E-13,0.,1.));
#325=DIRECTION('',(0.,0.,-1.));
#326=DIRECTION('',(0.,1.,0.));
#327=DIRECTION('',(0.,0.,-1.));
#328=DIRECTION('',(0.,1.,0.));
#329=CARTESIAN_POINT('',(0.,0.,0.));
#330=CARTESIAN_POINT('',(0.,0.,0.));
#331=CARTESIAN_POINT('',(0.,0.,-60.));
#332=CARTESIAN_POINT('',(0.,0.,0.));
#333=CARTESIAN_POINT('',(0.,0.,-3.20000000000001));
#334=CARTESIAN_POINT('',(-48.75,0.,-3.20000000000001));
#335=CARTESIAN_POINT('',(0.,0.,-3.2));
#336=CARTESIAN_POINT('',(0.,35.3916641016607,-3.2));
#337=CARTESIAN_POINT('',(4.3342288158597E-15,-35.3916641016607,-3.2));
#338=CARTESIAN_POINT('',(0.,0.,-3.2));
#339=CARTESIAN_POINT('',(0.,0.,-3.2));
#340=CARTESIAN_POINT('',(0.,0.,-60.));
#341=CARTESIAN_POINT('',(1.12050702545814E-12,-16.,-60.));
#342=CARTESIAN_POINT('',(-1.1210227826279E-12,16.,-60.));
#343=CARTESIAN_POINT('',(0.,0.,-60.));
#344=CARTESIAN_POINT('',(0.,0.,-60.));
#345=CARTESIAN_POINT('',(-1.064591514914E-12,16.,-58.));
#346=CARTESIAN_POINT('',(0.,16.,-20.2));
#347=CARTESIAN_POINT('',(0.,0.,-20.2));
#348=CARTESIAN_POINT('',(0.,-16.,-20.2));
#349=CARTESIAN_POINT('',(1.064101676195E-12,-16.,-58.));
#350=CARTESIAN_POINT('',(0.,0.,-12.96));
#351=CARTESIAN_POINT('',(0.,0.,-20.2));
#352=CARTESIAN_POINT('',(0.,0.,-12.96));
#353=CARTESIAN_POINT('',(0.,-21.,-20.2));
#354=CARTESIAN_POINT('',(0.,-21.,-15.2));
#355=CARTESIAN_POINT('',(0.,21.,-20.2));
#356=CARTESIAN_POINT('',(0.,21.,-15.2));
#357=CARTESIAN_POINT('',(0.,0.,-15.2));
#358=CARTESIAN_POINT('',(0.,0.,-20.2));
#359=CARTESIAN_POINT('',(0.,0.,-15.2));
#360=CARTESIAN_POINT('',(0.,0.,-20.2));
#361=CARTESIAN_POINT('',(0.,0.,-15.2));
#362=CARTESIAN_POINT('',(-48.75,0.,-15.2));
#363=CARTESIAN_POINT('',(0.,0.,-15.2));
#364=CARTESIAN_POINT('',(0.,0.,133.9));
#365=CARTESIAN_POINT('',(0.,0.,104.743432858557));
#366=CARTESIAN_POINT('',(0.,19.65,104.743432858557));
#367=CARTESIAN_POINT('',(-1.34265514244711E-12,-19.65,104.743432858557));
#368=CARTESIAN_POINT('',(0.,0.,104.743432858557));
#369=CARTESIAN_POINT('',(0.,35.09999903812,-1.2));
#370=CARTESIAN_POINT('',(0.,20.19982736606,100.9731673397));
#371=CARTESIAN_POINT('',(0.,-35.09999903812,-1.2));
#372=CARTESIAN_POINT('',(0.,-20.19982736606,100.9731673397));
#373=CARTESIAN_POINT('',(0.,0.,49.88658366985));
#374=CARTESIAN_POINT('',(0.,0.,126.8));
#375=CARTESIAN_POINT('',(-5.378230881917E-12,-19.65,126.8));
#376=CARTESIAN_POINT('',(5.37705983384078E-12,19.65,126.8));
#377=CARTESIAN_POINT('',(0.,0.,126.8));
#378=CARTESIAN_POINT('',(0.,0.,126.8));
#379=CARTESIAN_POINT('',(0.,19.65,116.5918761428));
#380=CARTESIAN_POINT('',(0.,-19.65,116.5918761428));
#381=CARTESIAN_POINT('',(0.,0.,133.9));
#382=CARTESIAN_POINT('',(0.,0.,133.9));
#383=MECHANICAL_DESIGN_GEOMETRIC_PRESENTATION_REPRESENTATION('',(#211,#212,
#213,#214),#384);
#384=(
GEOMETRIC_REPRESENTATION_CONTEXT(3)
GLOBAL_UNCERTAINTY_ASSIGNED_CONTEXT((#385))
GLOBAL_UNIT_ASSIGNED_CONTEXT((#391,#387,#386))
REPRESENTATION_CONTEXT('2080.50-MTS.2','TOP_LEVEL_ASSEMBLY_PART')
);
#385=UNCERTAINTY_MEASURE_WITH_UNIT(LENGTH_MEASURE(2.E-5),#391,
'DISTANCE_ACCURACY_VALUE','Maximum Tolerance applied to model');
#386=(
NAMED_UNIT(*)
SI_UNIT($,.STERADIAN.)
SOLID_ANGLE_UNIT()
);
#387=(
CONVERSION_BASED_UNIT('DEGREE',#389)
NAMED_UNIT(#388)
PLANE_ANGLE_UNIT()
);
#388=DIMENSIONAL_EXPONENTS(0.,0.,0.,0.,0.,0.,0.);
#389=PLANE_ANGLE_MEASURE_WITH_UNIT(PLANE_ANGLE_MEASURE(0.0174532925),#390);
#390=(
NAMED_UNIT(*)
PLANE_ANGLE_UNIT()
SI_UNIT($,.RADIAN.)
);
#391=(
LENGTH_UNIT()
NAMED_UNIT(*)
SI_UNIT(.MILLI.,.METRE.)
);
ENDSEC;
END-ISO-10303-21;
