ISO-10303-21;
HEADER;
/* Generated by software containing ST-Developer
 * from STEP Tools, Inc. (www.steptools.com) 
 */
/* OPTION: using custom schema-name function */

FILE_DESCRIPTION(
/* description */ (''),
/* implementation_level */ '2;1');

FILE_NAME(
/* name */ '2080.50-FMH1.40.033.stp',
/* time_stamp */ '2024-06-23T16:51:13+02:00',
/* author */ (''),
/* organization */ (''),
/* preprocessor_version */ 'ST-DEVELOPER v16.7',
/* originating_system */ 'SIEMENS PLM Software NX 12.0',
/* authorisation */ '');

FILE_SCHEMA (('AUTOMOTIVE_DESIGN { 1 0 10303 214 3 1 1 1 }'));
ENDSEC;

DATA;
#10=CONSTRUCTIVE_GEOMETRY_REPRESENTATION_RELATIONSHIP(
'supplemental geometry','',#32,#11);
#11=CONSTRUCTIVE_GEOMETRY_REPRESENTATION('supplemental geometry',(#461,
#462,#463),#752);
#12=PROPERTY_DEFINITION_REPRESENTATION(#16,#14);
#13=PROPERTY_DEFINITION_REPRESENTATION(#17,#15);
#14=REPRESENTATION('',(#18),#752);
#15=REPRESENTATION('',(#19),#752);
#16=PROPERTY_DEFINITION('pmi validation property','',#23);
#17=PROPERTY_DEFINITION('pmi validation property','',#23);
#18=VALUE_REPRESENTATION_ITEM('number of annotations',COUNT_MEASURE(0.));
#19=VALUE_REPRESENTATION_ITEM('number of views',COUNT_MEASURE(0.));
#20=SHAPE_REPRESENTATION_RELATIONSHIP('None',
'relationship between pf660F5CA0AEj86x-None and pf660F5CA0AEj86x-None',
#32,#21);
#21=ADVANCED_BREP_SHAPE_REPRESENTATION('pf660F5CA0AEj86x-None',(#38),#752);
#22=SHAPE_DEFINITION_REPRESENTATION(#23,#32);
#23=PRODUCT_DEFINITION_SHAPE('','',#24);
#24=PRODUCT_DEFINITION(' ','',#26,#25);
#25=PRODUCT_DEFINITION_CONTEXT('part definition',#31,'design');
#26=PRODUCT_DEFINITION_FORMATION_WITH_SPECIFIED_SOURCE(' ',' ',#28,
 .NOT_KNOWN.);
#27=PRODUCT_RELATED_PRODUCT_CATEGORY('part','',(#28));
#28=PRODUCT('pf660F5CA0AEj86x','pf660F5CA0AEj86x',' ',(#29));
#29=PRODUCT_CONTEXT(' ',#31,'mechanical');
#30=APPLICATION_PROTOCOL_DEFINITION('international standard',
'automotive_design',2010,#31);
#31=APPLICATION_CONTEXT(
'core data for automotive mechanical design processes');
#32=SHAPE_REPRESENTATION('pf660F5CA0AEj86x-None',(#460),#752);
#33=SURFACE_STYLE_USAGE(.BOTH.,#34);
#34=SURFACE_SIDE_STYLE('',(#35));
#35=SURFACE_STYLE_FILL_AREA(#36);
#36=FILL_AREA_STYLE('',(#37));
#37=FILL_AREA_STYLE_COLOUR('',#456);
#38=MANIFOLD_SOLID_BREP('',#39);
#39=CLOSED_SHELL('',(#86,#87,#88,#89,#90,#91,#92,#93,#94,#95,#96,#97,#98,
#99,#100,#101,#102,#103,#104,#105,#106,#107,#108,#109,#110));
#40=CONICAL_SURFACE('',#498,27.64991320209,8.2971);
#41=TOROIDAL_SURFACE('',#486,44.8,0.8);
#42=CYLINDRICAL_SURFACE('',#472,26.);
#43=CYLINDRICAL_SURFACE('',#487,44.);
#44=CYLINDRICAL_SURFACE('',#489,48.75);
#45=CYLINDRICAL_SURFACE('',#499,20.);
#46=CYLINDRICAL_SURFACE('',#500,20.);
#47=CYLINDRICAL_SURFACE('',#504,19.65);
#48=CYLINDRICAL_SURFACE('',#505,19.65);
#49=FACE_BOUND('',#145,.T.);
#50=FACE_BOUND('',#146,.T.);
#51=FACE_BOUND('',#148,.T.);
#52=FACE_BOUND('',#149,.T.);
#53=FACE_BOUND('',#150,.T.);
#54=FACE_BOUND('',#151,.T.);
#55=FACE_BOUND('',#153,.T.);
#56=FACE_BOUND('',#154,.T.);
#57=FACE_BOUND('',#155,.T.);
#58=FACE_BOUND('',#156,.T.);
#59=FACE_BOUND('',#157,.T.);
#60=FACE_BOUND('',#158,.T.);
#61=FACE_BOUND('',#159,.T.);
#62=FACE_BOUND('',#160,.T.);
#63=FACE_BOUND('',#161,.T.);
#64=FACE_BOUND('',#162,.T.);
#65=FACE_BOUND('',#164,.T.);
#66=FACE_BOUND('',#165,.T.);
#67=FACE_BOUND('',#172,.T.);
#68=FACE_BOUND('',#173,.T.);
#69=CIRCLE('',#466,26.);
#70=CIRCLE('',#467,20.);
#71=CIRCLE('',#468,20.);
#72=CIRCLE('',#470,26.);
#73=CIRCLE('',#473,48.75);
#74=CIRCLE('',#474,35.3916641016607);
#75=CIRCLE('',#475,35.3916641016607);
#76=CIRCLE('',#478,20.);
#77=CIRCLE('',#479,20.);
#78=CIRCLE('',#480,44.);
#79=CIRCLE('',#482,48.75);
#80=CIRCLE('',#483,44.8);
#81=CIRCLE('',#485,44.);
#82=CIRCLE('',#496,19.65);
#83=CIRCLE('',#497,19.65);
#84=CIRCLE('',#501,19.65);
#85=CIRCLE('',#502,19.65);
#86=ADVANCED_FACE('',(#127),#111,.F.);
#87=ADVANCED_FACE('',(#128),#112,.T.);
#88=ADVANCED_FACE('',(#49,#50),#113,.F.);
#89=ADVANCED_FACE('',(#129),#114,.T.);
#90=ADVANCED_FACE('',(#51,#52),#42,.T.);
#91=ADVANCED_FACE('',(#53,#54),#115,.F.);
#92=ADVANCED_FACE('',(#130),#116,.T.);
#93=ADVANCED_FACE('',(#55,#56,#57,#58),#117,.T.);
#94=ADVANCED_FACE('',(#59,#60),#118,.T.);
#95=ADVANCED_FACE('',(#61,#62),#41,.F.);
#96=ADVANCED_FACE('',(#63,#64),#43,.T.);
#97=ADVANCED_FACE('',(#131),#119,.T.);
#98=ADVANCED_FACE('',(#65,#66),#44,.T.);
#99=ADVANCED_FACE('',(#132),#120,.F.);
#100=ADVANCED_FACE('',(#133),#121,.F.);
#101=ADVANCED_FACE('',(#134),#122,.F.);
#102=ADVANCED_FACE('',(#135),#123,.F.);
#103=ADVANCED_FACE('',(#136),#124,.T.);
#104=ADVANCED_FACE('',(#137),#125,.T.);
#105=ADVANCED_FACE('',(#67,#68),#40,.T.);
#106=ADVANCED_FACE('',(#138),#45,.T.);
#107=ADVANCED_FACE('',(#139),#46,.T.);
#108=ADVANCED_FACE('',(#140),#126,.F.);
#109=ADVANCED_FACE('',(#141),#47,.T.);
#110=ADVANCED_FACE('',(#142),#48,.T.);
#111=PLANE('',#464);
#112=PLANE('',#465);
#113=PLANE('',#469);
#114=PLANE('',#471);
#115=PLANE('',#476);
#116=PLANE('',#477);
#117=PLANE('',#481);
#118=PLANE('',#484);
#119=PLANE('',#488);
#120=PLANE('',#490);
#121=PLANE('',#491);
#122=PLANE('',#492);
#123=PLANE('',#493);
#124=PLANE('',#494);
#125=PLANE('',#495);
#126=PLANE('',#503);
#127=FACE_OUTER_BOUND('',#143,.T.);
#128=FACE_OUTER_BOUND('',#144,.T.);
#129=FACE_OUTER_BOUND('',#147,.T.);
#130=FACE_OUTER_BOUND('',#152,.T.);
#131=FACE_OUTER_BOUND('',#163,.T.);
#132=FACE_OUTER_BOUND('',#166,.T.);
#133=FACE_OUTER_BOUND('',#167,.T.);
#134=FACE_OUTER_BOUND('',#168,.T.);
#135=FACE_OUTER_BOUND('',#169,.T.);
#136=FACE_OUTER_BOUND('',#170,.T.);
#137=FACE_OUTER_BOUND('',#171,.T.);
#138=FACE_OUTER_BOUND('',#174,.T.);
#139=FACE_OUTER_BOUND('',#175,.T.);
#140=FACE_OUTER_BOUND('',#176,.T.);
#141=FACE_OUTER_BOUND('',#177,.T.);
#142=FACE_OUTER_BOUND('',#178,.T.);
#143=EDGE_LOOP('',(#179,#180,#181,#182));
#144=EDGE_LOOP('',(#183,#184,#185,#186));
#145=EDGE_LOOP('',(#187));
#146=EDGE_LOOP('',(#188,#189));
#147=EDGE_LOOP('',(#190));
#148=EDGE_LOOP('',(#191));
#149=EDGE_LOOP('',(#192));
#150=EDGE_LOOP('',(#193));
#151=EDGE_LOOP('',(#194,#195));
#152=EDGE_LOOP('',(#196,#197,#198,#199));
#153=EDGE_LOOP('',(#200,#201,#202,#203,#204,#205));
#154=EDGE_LOOP('',(#206,#207,#208,#209,#210,#211));
#155=EDGE_LOOP('',(#212,#213));
#156=EDGE_LOOP('',(#214));
#157=EDGE_LOOP('',(#215));
#158=EDGE_LOOP('',(#216));
#159=EDGE_LOOP('',(#217));
#160=EDGE_LOOP('',(#218));
#161=EDGE_LOOP('',(#219));
#162=EDGE_LOOP('',(#220));
#163=EDGE_LOOP('',(#221,#222,#223,#224,#225));
#164=EDGE_LOOP('',(#226));
#165=EDGE_LOOP('',(#227));
#166=EDGE_LOOP('',(#228,#229,#230,#231,#232));
#167=EDGE_LOOP('',(#233,#234,#235,#236));
#168=EDGE_LOOP('',(#237,#238,#239,#240,#241));
#169=EDGE_LOOP('',(#242,#243,#244,#245));
#170=EDGE_LOOP('',(#246,#247,#248,#249));
#171=EDGE_LOOP('',(#250,#251,#252,#253,#254));
#172=EDGE_LOOP('',(#255,#256));
#173=EDGE_LOOP('',(#257,#258,#259,#260,#261,#262));
#174=EDGE_LOOP('',(#263,#264,#265,#266));
#175=EDGE_LOOP('',(#267,#268,#269,#270));
#176=EDGE_LOOP('',(#271,#272));
#177=EDGE_LOOP('',(#273,#274,#275,#276));
#178=EDGE_LOOP('',(#277,#278,#279,#280));
#179=ORIENTED_EDGE('',*,*,#320,.T.);
#180=ORIENTED_EDGE('',*,*,#321,.T.);
#181=ORIENTED_EDGE('',*,*,#322,.T.);
#182=ORIENTED_EDGE('',*,*,#323,.T.);
#183=ORIENTED_EDGE('',*,*,#324,.T.);
#184=ORIENTED_EDGE('',*,*,#325,.T.);
#185=ORIENTED_EDGE('',*,*,#326,.T.);
#186=ORIENTED_EDGE('',*,*,#327,.T.);
#187=ORIENTED_EDGE('',*,*,#328,.T.);
#188=ORIENTED_EDGE('',*,*,#329,.T.);
#189=ORIENTED_EDGE('',*,*,#330,.T.);
#190=ORIENTED_EDGE('',*,*,#331,.T.);
#191=ORIENTED_EDGE('',*,*,#328,.F.);
#192=ORIENTED_EDGE('',*,*,#331,.F.);
#193=ORIENTED_EDGE('',*,*,#332,.F.);
#194=ORIENTED_EDGE('',*,*,#333,.T.);
#195=ORIENTED_EDGE('',*,*,#334,.T.);
#196=ORIENTED_EDGE('',*,*,#327,.F.);
#197=ORIENTED_EDGE('',*,*,#335,.F.);
#198=ORIENTED_EDGE('',*,*,#336,.T.);
#199=ORIENTED_EDGE('',*,*,#337,.T.);
#200=ORIENTED_EDGE('',*,*,#338,.T.);
#201=ORIENTED_EDGE('',*,*,#339,.T.);
#202=ORIENTED_EDGE('',*,*,#336,.F.);
#203=ORIENTED_EDGE('',*,*,#340,.F.);
#204=ORIENTED_EDGE('',*,*,#341,.F.);
#205=ORIENTED_EDGE('',*,*,#342,.T.);
#206=ORIENTED_EDGE('',*,*,#343,.T.);
#207=ORIENTED_EDGE('',*,*,#344,.T.);
#208=ORIENTED_EDGE('',*,*,#345,.T.);
#209=ORIENTED_EDGE('',*,*,#346,.F.);
#210=ORIENTED_EDGE('',*,*,#347,.F.);
#211=ORIENTED_EDGE('',*,*,#348,.T.);
#212=ORIENTED_EDGE('',*,*,#349,.F.);
#213=ORIENTED_EDGE('',*,*,#350,.F.);
#214=ORIENTED_EDGE('',*,*,#351,.F.);
#215=ORIENTED_EDGE('',*,*,#352,.T.);
#216=ORIENTED_EDGE('',*,*,#353,.T.);
#217=ORIENTED_EDGE('',*,*,#353,.F.);
#218=ORIENTED_EDGE('',*,*,#354,.F.);
#219=ORIENTED_EDGE('',*,*,#351,.T.);
#220=ORIENTED_EDGE('',*,*,#354,.T.);
#221=ORIENTED_EDGE('',*,*,#326,.F.);
#222=ORIENTED_EDGE('',*,*,#355,.T.);
#223=ORIENTED_EDGE('',*,*,#341,.T.);
#224=ORIENTED_EDGE('',*,*,#340,.T.);
#225=ORIENTED_EDGE('',*,*,#335,.T.);
#226=ORIENTED_EDGE('',*,*,#332,.T.);
#227=ORIENTED_EDGE('',*,*,#352,.F.);
#228=ORIENTED_EDGE('',*,*,#321,.F.);
#229=ORIENTED_EDGE('',*,*,#356,.F.);
#230=ORIENTED_EDGE('',*,*,#344,.F.);
#231=ORIENTED_EDGE('',*,*,#343,.F.);
#232=ORIENTED_EDGE('',*,*,#357,.F.);
#233=ORIENTED_EDGE('',*,*,#320,.F.);
#234=ORIENTED_EDGE('',*,*,#358,.F.);
#235=ORIENTED_EDGE('',*,*,#345,.F.);
#236=ORIENTED_EDGE('',*,*,#356,.T.);
#237=ORIENTED_EDGE('',*,*,#323,.F.);
#238=ORIENTED_EDGE('',*,*,#359,.T.);
#239=ORIENTED_EDGE('',*,*,#347,.T.);
#240=ORIENTED_EDGE('',*,*,#346,.T.);
#241=ORIENTED_EDGE('',*,*,#358,.T.);
#242=ORIENTED_EDGE('',*,*,#322,.F.);
#243=ORIENTED_EDGE('',*,*,#357,.T.);
#244=ORIENTED_EDGE('',*,*,#348,.F.);
#245=ORIENTED_EDGE('',*,*,#359,.F.);
#246=ORIENTED_EDGE('',*,*,#325,.F.);
#247=ORIENTED_EDGE('',*,*,#360,.T.);
#248=ORIENTED_EDGE('',*,*,#342,.F.);
#249=ORIENTED_EDGE('',*,*,#355,.F.);
#250=ORIENTED_EDGE('',*,*,#324,.F.);
#251=ORIENTED_EDGE('',*,*,#337,.F.);
#252=ORIENTED_EDGE('',*,*,#339,.F.);
#253=ORIENTED_EDGE('',*,*,#338,.F.);
#254=ORIENTED_EDGE('',*,*,#360,.F.);
#255=ORIENTED_EDGE('',*,*,#361,.F.);
#256=ORIENTED_EDGE('',*,*,#362,.F.);
#257=ORIENTED_EDGE('',*,*,#363,.F.);
#258=ORIENTED_EDGE('',*,*,#334,.F.);
#259=ORIENTED_EDGE('',*,*,#364,.T.);
#260=ORIENTED_EDGE('',*,*,#364,.F.);
#261=ORIENTED_EDGE('',*,*,#333,.F.);
#262=ORIENTED_EDGE('',*,*,#363,.T.);
#263=ORIENTED_EDGE('',*,*,#365,.T.);
#264=ORIENTED_EDGE('',*,*,#350,.T.);
#265=ORIENTED_EDGE('',*,*,#366,.F.);
#266=ORIENTED_EDGE('',*,*,#329,.F.);
#267=ORIENTED_EDGE('',*,*,#366,.T.);
#268=ORIENTED_EDGE('',*,*,#349,.T.);
#269=ORIENTED_EDGE('',*,*,#365,.F.);
#270=ORIENTED_EDGE('',*,*,#330,.F.);
#271=ORIENTED_EDGE('',*,*,#367,.T.);
#272=ORIENTED_EDGE('',*,*,#368,.T.);
#273=ORIENTED_EDGE('',*,*,#369,.F.);
#274=ORIENTED_EDGE('',*,*,#362,.T.);
#275=ORIENTED_EDGE('',*,*,#370,.T.);
#276=ORIENTED_EDGE('',*,*,#367,.F.);
#277=ORIENTED_EDGE('',*,*,#370,.F.);
#278=ORIENTED_EDGE('',*,*,#361,.T.);
#279=ORIENTED_EDGE('',*,*,#369,.T.);
#280=ORIENTED_EDGE('',*,*,#368,.F.);
#281=VERTEX_POINT('',#637);
#282=VERTEX_POINT('',#638);
#283=VERTEX_POINT('',#640);
#284=VERTEX_POINT('',#642);
#285=VERTEX_POINT('',#646);
#286=VERTEX_POINT('',#647);
#287=VERTEX_POINT('',#649);
#288=VERTEX_POINT('',#651);
#289=VERTEX_POINT('',#655);
#290=VERTEX_POINT('',#657);
#291=VERTEX_POINT('',#658);
#292=VERTEX_POINT('',#662);
#293=VERTEX_POINT('',#666);
#294=VERTEX_POINT('',#668);
#295=VERTEX_POINT('',#669);
#296=VERTEX_POINT('',#673);
#297=VERTEX_POINT('',#675);
#298=VERTEX_POINT('',#679);
#299=VERTEX_POINT('',#680);
#300=VERTEX_POINT('',#683);
#301=VERTEX_POINT('',#685);
#302=VERTEX_POINT('',#688);
#303=VERTEX_POINT('',#689);
#304=VERTEX_POINT('',#691);
#305=VERTEX_POINT('',#693);
#306=VERTEX_POINT('',#695);
#307=VERTEX_POINT('',#697);
#308=VERTEX_POINT('',#700);
#309=VERTEX_POINT('',#701);
#310=VERTEX_POINT('',#704);
#311=VERTEX_POINT('',#707);
#312=VERTEX_POINT('',#709);
#313=VERTEX_POINT('',#712);
#314=VERTEX_POINT('',#730);
#315=VERTEX_POINT('',#731);
#316=VERTEX_POINT('',#734);
#317=VERTEX_POINT('',#736);
#318=VERTEX_POINT('',#743);
#319=VERTEX_POINT('',#744);
#320=EDGE_CURVE('',#281,#282,#371,.T.);
#321=EDGE_CURVE('',#282,#283,#372,.T.);
#322=EDGE_CURVE('',#283,#284,#373,.T.);
#323=EDGE_CURVE('',#284,#281,#374,.T.);
#324=EDGE_CURVE('',#285,#286,#375,.T.);
#325=EDGE_CURVE('',#286,#287,#376,.T.);
#326=EDGE_CURVE('',#287,#288,#377,.T.);
#327=EDGE_CURVE('',#288,#285,#378,.T.);
#328=EDGE_CURVE('',#289,#289,#69,.T.);
#329=EDGE_CURVE('',#290,#291,#70,.T.);
#330=EDGE_CURVE('',#291,#290,#71,.T.);
#331=EDGE_CURVE('',#292,#292,#72,.T.);
#332=EDGE_CURVE('',#293,#293,#73,.T.);
#333=EDGE_CURVE('',#294,#295,#74,.T.);
#334=EDGE_CURVE('',#295,#294,#75,.T.);
#335=EDGE_CURVE('',#296,#288,#379,.T.);
#336=EDGE_CURVE('',#296,#297,#380,.T.);
#337=EDGE_CURVE('',#297,#285,#381,.T.);
#338=EDGE_CURVE('',#298,#299,#382,.T.);
#339=EDGE_CURVE('',#299,#297,#383,.T.);
#340=EDGE_CURVE('',#300,#296,#384,.T.);
#341=EDGE_CURVE('',#301,#300,#385,.T.);
#342=EDGE_CURVE('',#301,#298,#386,.T.);
#343=EDGE_CURVE('',#302,#303,#387,.T.);
#344=EDGE_CURVE('',#303,#304,#388,.T.);
#345=EDGE_CURVE('',#304,#305,#389,.T.);
#346=EDGE_CURVE('',#306,#305,#390,.T.);
#347=EDGE_CURVE('',#307,#306,#391,.T.);
#348=EDGE_CURVE('',#307,#302,#392,.T.);
#349=EDGE_CURVE('',#308,#309,#76,.T.);
#350=EDGE_CURVE('',#309,#308,#77,.T.);
#351=EDGE_CURVE('',#310,#310,#78,.T.);
#352=EDGE_CURVE('',#311,#311,#79,.T.);
#353=EDGE_CURVE('',#312,#312,#80,.T.);
#354=EDGE_CURVE('',#313,#313,#81,.T.);
#355=EDGE_CURVE('',#287,#301,#393,.T.);
#356=EDGE_CURVE('',#304,#282,#394,.T.);
#357=EDGE_CURVE('',#283,#302,#395,.T.);
#358=EDGE_CURVE('',#305,#281,#396,.T.);
#359=EDGE_CURVE('',#284,#307,#397,.T.);
#360=EDGE_CURVE('',#286,#298,#398,.T.);
#361=EDGE_CURVE('',#314,#315,#82,.T.);
#362=EDGE_CURVE('',#315,#314,#83,.T.);
#363=EDGE_CURVE('',#294,#316,#399,.T.);
#364=EDGE_CURVE('',#295,#317,#400,.T.);
#365=EDGE_CURVE('',#290,#309,#401,.T.);
#366=EDGE_CURVE('',#291,#308,#402,.T.);
#367=EDGE_CURVE('',#318,#319,#84,.T.);
#368=EDGE_CURVE('',#319,#318,#85,.T.);
#369=EDGE_CURVE('',#315,#318,#403,.T.);
#370=EDGE_CURVE('',#314,#319,#404,.T.);
#371=LINE('',#636,#405);
#372=LINE('',#639,#406);
#373=LINE('',#641,#407);
#374=LINE('',#643,#408);
#375=LINE('',#645,#409);
#376=LINE('',#648,#410);
#377=LINE('',#650,#411);
#378=LINE('',#652,#412);
#379=LINE('',#672,#413);
#380=LINE('',#674,#414);
#381=LINE('',#676,#415);
#382=LINE('',#678,#416);
#383=LINE('',#681,#417);
#384=LINE('',#682,#418);
#385=LINE('',#684,#419);
#386=LINE('',#686,#420);
#387=LINE('',#687,#421);
#388=LINE('',#690,#422);
#389=LINE('',#692,#423);
#390=LINE('',#694,#424);
#391=LINE('',#696,#425);
#392=LINE('',#698,#426);
#393=LINE('',#715,#427);
#394=LINE('',#718,#428);
#395=LINE('',#719,#429);
#396=LINE('',#721,#430);
#397=LINE('',#723,#431);
#398=LINE('',#726,#432);
#399=LINE('',#733,#433);
#400=LINE('',#735,#434);
#401=LINE('',#738,#435);
#402=LINE('',#739,#436);
#403=LINE('',#747,#437);
#404=LINE('',#748,#438);
#405=VECTOR('',#514,1.);
#406=VECTOR('',#515,1.);
#407=VECTOR('',#516,1.);
#408=VECTOR('',#517,1.);
#409=VECTOR('',#520,1.);
#410=VECTOR('',#521,1.);
#411=VECTOR('',#522,1.);
#412=VECTOR('',#523,1.);
#413=VECTOR('',#548,1.);
#414=VECTOR('',#549,1.);
#415=VECTOR('',#550,1.);
#416=VECTOR('',#553,1.);
#417=VECTOR('',#554,1.);
#418=VECTOR('',#555,1.);
#419=VECTOR('',#556,1.);
#420=VECTOR('',#557,1.);
#421=VECTOR('',#558,1.);
#422=VECTOR('',#559,1.);
#423=VECTOR('',#560,1.);
#424=VECTOR('',#561,1.);
#425=VECTOR('',#562,1.);
#426=VECTOR('',#563,1.);
#427=VECTOR('',#584,1.);
#428=VECTOR('',#589,1.);
#429=VECTOR('',#590,1.);
#430=VECTOR('',#593,1.);
#431=VECTOR('',#596,1.);
#432=VECTOR('',#601,1.);
#433=VECTOR('',#610,1.);
#434=VECTOR('',#611,1.);
#435=VECTOR('',#614,1.);
#436=VECTOR('',#615,1.);
#437=VECTOR('',#626,1.);
#438=VECTOR('',#627,1.);
#439=INVISIBILITY((#440,#441,#442));
#440=PRESENTATION_LAYER_ASSIGNMENT('100','Layer 100',(#461));
#441=PRESENTATION_LAYER_ASSIGNMENT('101','Layer 101',(#462));
#442=PRESENTATION_LAYER_ASSIGNMENT('102','Layer 102',(#463));
#443=PRESENTATION_LAYER_ASSIGNMENT('98','Layer 98',(#38));
#444=STYLED_ITEM('',(#448),#461);
#445=STYLED_ITEM('',(#449),#462);
#446=STYLED_ITEM('',(#450),#463);
#447=STYLED_ITEM('',(#451),#38);
#448=PRESENTATION_STYLE_ASSIGNMENT((#452));
#449=PRESENTATION_STYLE_ASSIGNMENT((#453));
#450=PRESENTATION_STYLE_ASSIGNMENT((#454));
#451=PRESENTATION_STYLE_ASSIGNMENT((#33));
#452=CURVE_STYLE('',#457,POSITIVE_LENGTH_MEASURE(0.7),#455);
#453=CURVE_STYLE('',#458,POSITIVE_LENGTH_MEASURE(0.7),#455);
#454=CURVE_STYLE('',#459,POSITIVE_LENGTH_MEASURE(0.7),#455);
#455=COLOUR_RGB('Medium Maroon',0.6,0.4,0.4);
#456=COLOUR_RGB('Medium Gray',0.490196078431373,0.490196078431373,0.490196078431373);
#457=DRAUGHTING_PRE_DEFINED_CURVE_FONT('continuous');
#458=DRAUGHTING_PRE_DEFINED_CURVE_FONT('continuous');
#459=DRAUGHTING_PRE_DEFINED_CURVE_FONT('continuous');
#460=AXIS2_PLACEMENT_3D('',#632,#506,#507);
#461=AXIS2_PLACEMENT_3D('PCS',#633,#508,#509);
#462=AXIS2_PLACEMENT_3D('CSW',#634,#510,#511);
#463=AXIS2_PLACEMENT_3D('MCS',#635,#512,#513);
#464=AXIS2_PLACEMENT_3D('',#644,#518,#519);
#465=AXIS2_PLACEMENT_3D('',#653,#524,#525);
#466=AXIS2_PLACEMENT_3D('',#654,#526,#527);
#467=AXIS2_PLACEMENT_3D('',#656,#528,#529);
#468=AXIS2_PLACEMENT_3D('',#659,#530,#531);
#469=AXIS2_PLACEMENT_3D('',#660,#532,#533);
#470=AXIS2_PLACEMENT_3D('',#661,#534,#535);
#471=AXIS2_PLACEMENT_3D('',#663,#536,#537);
#472=AXIS2_PLACEMENT_3D('',#664,#538,#539);
#473=AXIS2_PLACEMENT_3D('',#665,#540,#541);
#474=AXIS2_PLACEMENT_3D('',#667,#542,#543);
#475=AXIS2_PLACEMENT_3D('',#670,#544,#545);
#476=AXIS2_PLACEMENT_3D('',#671,#546,#547);
#477=AXIS2_PLACEMENT_3D('',#677,#551,#552);
#478=AXIS2_PLACEMENT_3D('',#699,#564,#565);
#479=AXIS2_PLACEMENT_3D('',#702,#566,#567);
#480=AXIS2_PLACEMENT_3D('',#703,#568,#569);
#481=AXIS2_PLACEMENT_3D('',#705,#570,#571);
#482=AXIS2_PLACEMENT_3D('',#706,#572,#573);
#483=AXIS2_PLACEMENT_3D('',#708,#574,#575);
#484=AXIS2_PLACEMENT_3D('',#710,#576,#577);
#485=AXIS2_PLACEMENT_3D('',#711,#578,#579);
#486=AXIS2_PLACEMENT_3D('',#713,#580,#581);
#487=AXIS2_PLACEMENT_3D('',#714,#582,#583);
#488=AXIS2_PLACEMENT_3D('',#716,#585,#586);
#489=AXIS2_PLACEMENT_3D('',#717,#587,#588);
#490=AXIS2_PLACEMENT_3D('',#720,#591,#592);
#491=AXIS2_PLACEMENT_3D('',#722,#594,#595);
#492=AXIS2_PLACEMENT_3D('',#724,#597,#598);
#493=AXIS2_PLACEMENT_3D('',#725,#599,#600);
#494=AXIS2_PLACEMENT_3D('',#727,#602,#603);
#495=AXIS2_PLACEMENT_3D('',#728,#604,#605);
#496=AXIS2_PLACEMENT_3D('',#729,#606,#607);
#497=AXIS2_PLACEMENT_3D('',#732,#608,#609);
#498=AXIS2_PLACEMENT_3D('',#737,#612,#613);
#499=AXIS2_PLACEMENT_3D('',#740,#616,#617);
#500=AXIS2_PLACEMENT_3D('',#741,#618,#619);
#501=AXIS2_PLACEMENT_3D('',#742,#620,#621);
#502=AXIS2_PLACEMENT_3D('',#745,#622,#623);
#503=AXIS2_PLACEMENT_3D('',#746,#624,#625);
#504=AXIS2_PLACEMENT_3D('',#749,#628,#629);
#505=AXIS2_PLACEMENT_3D('',#750,#630,#631);
#506=DIRECTION('',(0.,0.,1.));
#507=DIRECTION('',(1.,0.,0.));
#508=DIRECTION('',(0.,0.,1.));
#509=DIRECTION('',(1.,0.,0.));
#510=DIRECTION('',(0.,0.,1.));
#511=DIRECTION('',(1.,0.,0.));
#512=DIRECTION('',(0.,0.,1.));
#513=DIRECTION('',(1.,0.,0.));
#514=DIRECTION('',(1.,0.,0.));
#515=DIRECTION('',(0.,-1.,0.));
#516=DIRECTION('',(-1.,0.,0.));
#517=DIRECTION('',(0.,1.,0.));
#518=DIRECTION('',(0.,0.,1.));
#519=DIRECTION('',(1.,0.,0.));
#520=DIRECTION('',(0.,1.,0.));
#521=DIRECTION('',(1.,0.,0.));
#522=DIRECTION('',(0.,-1.,0.));
#523=DIRECTION('',(-1.,0.,0.));
#524=DIRECTION('',(0.,0.,-1.));
#525=DIRECTION('',(1.,0.,0.));
#526=DIRECTION('',(0.,0.,1.));
#527=DIRECTION('',(0.384615384615406,0.923076923076914,0.));
#528=DIRECTION('',(0.,0.,-1.));
#529=DIRECTION('',(-1.,0.,0.));
#530=DIRECTION('',(0.,0.,-1.));
#531=DIRECTION('',(-1.,0.,0.));
#532=DIRECTION('',(0.,0.,-1.));
#533=DIRECTION('',(0.,1.,0.));
#534=DIRECTION('',(0.,0.,-1.));
#535=DIRECTION('',(-1.,0.,0.));
#536=DIRECTION('',(0.,0.,-1.));
#537=DIRECTION('',(0.,1.,0.));
#538=DIRECTION('',(0.,0.,-1.));
#539=DIRECTION('',(0.,1.,0.));
#540=DIRECTION('',(0.,0.,-1.));
#541=DIRECTION('',(-1.,0.,0.));
#542=DIRECTION('',(0.,0.,-1.));
#543=DIRECTION('',(-1.,0.,0.));
#544=DIRECTION('',(0.,0.,-1.));
#545=DIRECTION('',(-1.,0.,0.));
#546=DIRECTION('',(0.,0.,-1.));
#547=DIRECTION('',(0.,1.,0.));
#548=DIRECTION('',(0.,0.,-1.));
#549=DIRECTION('',(-1.,0.,0.));
#550=DIRECTION('',(0.,0.,-1.));
#551=DIRECTION('',(0.,-1.,0.));
#552=DIRECTION('',(1.,0.,0.));
#553=DIRECTION('',(0.,-1.,0.));
#554=DIRECTION('',(-1.105172954307E-13,-1.,0.));
#555=DIRECTION('',(1.694452918566E-12,-1.,0.));
#556=DIRECTION('',(0.,-1.,0.));
#557=DIRECTION('',(-1.,0.,0.));
#558=DIRECTION('',(0.,1.,0.));
#559=DIRECTION('',(1.69521736626E-12,1.,0.));
#560=DIRECTION('',(-1.,0.,0.));
#561=DIRECTION('',(-1.105172954308E-13,1.,0.));
#562=DIRECTION('',(0.,1.,0.));
#563=DIRECTION('',(1.,0.,0.));
#564=DIRECTION('',(0.,0.,-1.));
#565=DIRECTION('',(-1.,0.,0.));
#566=DIRECTION('',(0.,0.,-1.));
#567=DIRECTION('',(-1.,0.,0.));
#568=DIRECTION('',(0.,0.,1.));
#569=DIRECTION('',(-1.,0.,0.));
#570=DIRECTION('',(0.,0.,-1.));
#571=DIRECTION('',(0.,1.,0.));
#572=DIRECTION('',(0.,0.,-1.));
#573=DIRECTION('',(-1.,0.,0.));
#574=DIRECTION('',(0.,0.,1.));
#575=DIRECTION('',(-0.957981391375262,-0.286830357142889,0.));
#576=DIRECTION('',(0.,0.,-1.));
#577=DIRECTION('',(0.,1.,0.));
#578=DIRECTION('',(0.,0.,-1.));
#579=DIRECTION('',(-0.956404439805311,0.292045454545503,0.));
#580=DIRECTION('',(0.,0.,-1.));
#581=DIRECTION('',(0.,1.,0.));
#582=DIRECTION('',(0.,0.,-1.));
#583=DIRECTION('',(0.,1.,0.));
#584=DIRECTION('',(0.,0.,1.));
#585=DIRECTION('',(1.,0.,0.));
#586=DIRECTION('',(0.,1.,0.));
#587=DIRECTION('',(0.,0.,-1.));
#588=DIRECTION('',(0.,1.,0.));
#589=DIRECTION('',(0.,0.,-1.));
#590=DIRECTION('',(0.,0.,1.));
#591=DIRECTION('',(-1.,0.,0.));
#592=DIRECTION('',(0.,-1.,0.));
#593=DIRECTION('',(0.,0.,-1.));
#594=DIRECTION('',(0.,-1.,0.));
#595=DIRECTION('',(1.,0.,0.));
#596=DIRECTION('',(0.,0.,1.));
#597=DIRECTION('',(1.,0.,0.));
#598=DIRECTION('',(0.,1.,0.));
#599=DIRECTION('',(0.,1.,0.));
#600=DIRECTION('',(-1.,0.,0.));
#601=DIRECTION('',(0.,0.,1.));
#602=DIRECTION('',(0.,1.,0.));
#603=DIRECTION('',(-1.,0.,0.));
#604=DIRECTION('',(-1.,0.,0.));
#605=DIRECTION('',(0.,-1.,0.));
#606=DIRECTION('',(0.,0.,1.));
#607=DIRECTION('',(-1.,0.,0.));
#608=DIRECTION('',(0.,0.,1.));
#609=DIRECTION('',(-1.,0.,0.));
#610=DIRECTION('',(0.,-0.144306116415197,0.989533094325381));
#611=DIRECTION('',(0.,0.144306116415197,0.989533094325381));
#612=DIRECTION('',(0.,0.,-1.));
#613=DIRECTION('',(0.,1.,0.));
#614=DIRECTION('',(-4.830688009826E-14,0.,1.));
#615=DIRECTION('',(4.833293641314E-14,0.,1.));
#616=DIRECTION('',(0.,0.,-1.));
#617=DIRECTION('',(0.,1.,0.));
#618=DIRECTION('',(0.,0.,-1.));
#619=DIRECTION('',(0.,1.,0.));
#620=DIRECTION('',(0.,0.,1.));
#621=DIRECTION('',(-1.,0.,0.));
#622=DIRECTION('',(0.,0.,1.));
#623=DIRECTION('',(-1.,0.,0.));
#624=DIRECTION('',(0.,0.,-1.));
#625=DIRECTION('',(0.,1.,0.));
#626=DIRECTION('',(-5.265924720999E-13,0.,1.));
#627=DIRECTION('',(5.256754995996E-13,0.,1.));
#628=DIRECTION('',(0.,0.,-1.));
#629=DIRECTION('',(0.,1.,0.));
#630=DIRECTION('',(0.,0.,-1.));
#631=DIRECTION('',(0.,1.,0.));
#632=CARTESIAN_POINT('',(0.,0.,0.));
#633=CARTESIAN_POINT('',(0.,0.,0.));
#634=CARTESIAN_POINT('',(0.,0.,-33.));
#635=CARTESIAN_POINT('',(0.,0.,0.));
#636=CARTESIAN_POINT('',(0.,-20.5,-41.));
#637=CARTESIAN_POINT('',(-8.,-20.5,-41.));
#638=CARTESIAN_POINT('',(8.,-20.5,-41.));
#639=CARTESIAN_POINT('',(8.,-32.68,-41.));
#640=CARTESIAN_POINT('',(8.,-43.21,-41.));
#641=CARTESIAN_POINT('',(0.,-43.21,-41.));
#642=CARTESIAN_POINT('',(-8.,-43.21,-41.));
#643=CARTESIAN_POINT('',(-8.,-32.68,-41.));
#644=CARTESIAN_POINT('',(0.,-32.68,-41.));
#645=CARTESIAN_POINT('',(-8.,32.68,-41.));
#646=CARTESIAN_POINT('',(-8.,20.5,-41.));
#647=CARTESIAN_POINT('',(-8.,43.21,-41.));
#648=CARTESIAN_POINT('',(0.,43.21,-41.));
#649=CARTESIAN_POINT('',(8.,43.21,-41.));
#650=CARTESIAN_POINT('',(8.,32.68,-41.));
#651=CARTESIAN_POINT('',(8.,20.5,-41.));
#652=CARTESIAN_POINT('',(0.,20.5,-41.));
#653=CARTESIAN_POINT('',(0.,32.68,-41.));
#654=CARTESIAN_POINT('',(0.,0.,-60.));
#655=CARTESIAN_POINT('',(10.0000000000006,23.9999999999998,-60.));
#656=CARTESIAN_POINT('',(0.,0.,-60.));
#657=CARTESIAN_POINT('',(5.17592777024367E-13,-20.,-60.));
#658=CARTESIAN_POINT('',(0.,20.,-60.));
#659=CARTESIAN_POINT('',(0.,0.,-60.));
#660=CARTESIAN_POINT('',(0.,0.,-60.));
#661=CARTESIAN_POINT('',(0.,0.,-70.));
#662=CARTESIAN_POINT('',(-26.,0.,-70.));
#663=CARTESIAN_POINT('',(0.,0.,-70.));
#664=CARTESIAN_POINT('',(0.,0.,-28.));
#665=CARTESIAN_POINT('',(0.,0.,-3.20000000000001));
#666=CARTESIAN_POINT('',(-48.75,0.,-3.20000000000001));
#667=CARTESIAN_POINT('',(0.,0.,-3.2));
#668=CARTESIAN_POINT('',(0.,35.3916641016607,-3.2));
#669=CARTESIAN_POINT('',(4.3342288158597E-15,-35.3916641016607,-3.2));
#670=CARTESIAN_POINT('',(0.,0.,-3.2));
#671=CARTESIAN_POINT('',(0.,0.,-3.2));
#672=CARTESIAN_POINT('',(8.,20.5,-41.));
#673=CARTESIAN_POINT('',(8.,20.5,-33.));
#674=CARTESIAN_POINT('',(3.999752404709,20.5,-33.));
#675=CARTESIAN_POINT('',(-8.,20.5,-33.));
#676=CARTESIAN_POINT('',(-8.,20.5,-41.));
#677=CARTESIAN_POINT('',(8.,20.5,-41.));
#678=CARTESIAN_POINT('',(-8.,0.,-33.));
#679=CARTESIAN_POINT('',(-8.,43.21,-33.));
#680=CARTESIAN_POINT('',(-7.999999999999,41.2310562567383,-33.));
#681=CARTESIAN_POINT('',(-7.999999999998,41.2310562573,-33.));
#682=CARTESIAN_POINT('',(7.999999999972,41.23105627926,-33.));
#683=CARTESIAN_POINT('',(7.999999999986,41.2310562677183,-33.));
#684=CARTESIAN_POINT('',(8.,0.,-33.));
#685=CARTESIAN_POINT('',(8.,43.21,-33.));
#686=CARTESIAN_POINT('',(-8.,43.21,-33.));
#687=CARTESIAN_POINT('',(8.,-43.21,-33.));
#688=CARTESIAN_POINT('',(8.,-43.21,-33.));
#689=CARTESIAN_POINT('',(7.999999999986,-41.2310562677233,-33.));
#690=CARTESIAN_POINT('',(7.999999999972,-41.23105627927,-33.));
#691=CARTESIAN_POINT('',(8.,-20.5,-33.));
#692=CARTESIAN_POINT('',(3.999752404709,-20.5,-33.));
#693=CARTESIAN_POINT('',(-8.,-20.5,-33.));
#694=CARTESIAN_POINT('',(-7.999999999998,-41.2310562573,-33.));
#695=CARTESIAN_POINT('',(-7.999999999999,-41.2310562567383,-33.));
#696=CARTESIAN_POINT('',(-8.,-20.5,-33.));
#697=CARTESIAN_POINT('',(-8.,-43.21,-33.));
#698=CARTESIAN_POINT('',(0.,-43.21,-33.));
#699=CARTESIAN_POINT('',(0.,0.,-33.));
#700=CARTESIAN_POINT('',(0.,20.,-33.));
#701=CARTESIAN_POINT('',(2.81000849004687E-13,-20.,-33.));
#702=CARTESIAN_POINT('',(0.,0.,-33.));
#703=CARTESIAN_POINT('',(0.,0.,-33.));
#704=CARTESIAN_POINT('',(-44.,0.,-33.));
#705=CARTESIAN_POINT('',(0.,0.,-33.));
#706=CARTESIAN_POINT('',(0.,0.,-15.2));
#707=CARTESIAN_POINT('',(-48.75,0.,-15.2));
#708=CARTESIAN_POINT('',(0.,0.,-15.2));
#709=CARTESIAN_POINT('',(-42.9175663336117,-12.8500000000014,-15.2));
#710=CARTESIAN_POINT('',(0.,0.,-15.2));
#711=CARTESIAN_POINT('',(0.,0.,-16.));
#712=CARTESIAN_POINT('',(-42.0817953514337,12.8500000000021,-16.));
#713=CARTESIAN_POINT('',(0.,0.,-16.));
#714=CARTESIAN_POINT('',(0.,0.,-12.96));
#715=CARTESIAN_POINT('',(8.,43.21,-41.));
#716=CARTESIAN_POINT('',(8.,43.21,-41.));
#717=CARTESIAN_POINT('',(0.,0.,133.9));
#718=CARTESIAN_POINT('',(8.,-20.5,-41.));
#719=CARTESIAN_POINT('',(8.,-43.21,-41.));
#720=CARTESIAN_POINT('',(8.,-43.21,-41.));
#721=CARTESIAN_POINT('',(-8.,-20.5,-41.));
#722=CARTESIAN_POINT('',(8.,-20.5,-41.));
#723=CARTESIAN_POINT('',(-8.,-43.21,-41.));
#724=CARTESIAN_POINT('',(-8.,-20.5,-41.));
#725=CARTESIAN_POINT('',(-8.,-43.21,-41.));
#726=CARTESIAN_POINT('',(-8.,43.21,-41.));
#727=CARTESIAN_POINT('',(-8.,43.21,-41.));
#728=CARTESIAN_POINT('',(-8.,20.5,-41.));
#729=CARTESIAN_POINT('',(0.,0.,104.743432858557));
#730=CARTESIAN_POINT('',(0.,19.65,104.743432858557));
#731=CARTESIAN_POINT('',(-1.34265514244711E-12,-19.65,104.743432858557));
#732=CARTESIAN_POINT('',(0.,0.,104.743432858557));
#733=CARTESIAN_POINT('',(0.,35.09999903812,-1.2));
#734=CARTESIAN_POINT('',(0.,20.19982736606,100.9731673397));
#735=CARTESIAN_POINT('',(0.,-35.09999903812,-1.2));
#736=CARTESIAN_POINT('',(0.,-20.19982736606,100.9731673397));
#737=CARTESIAN_POINT('',(0.,0.,49.88658366985));
#738=CARTESIAN_POINT('',(1.132762398711E-12,-20.,-58.5));
#739=CARTESIAN_POINT('',(-1.13337470211E-12,20.,-58.5));
#740=CARTESIAN_POINT('',(0.,0.,-12.96));
#741=CARTESIAN_POINT('',(0.,0.,-12.96));
#742=CARTESIAN_POINT('',(0.,0.,126.8));
#743=CARTESIAN_POINT('',(-5.37552117746493E-12,-19.65,126.8));
#744=CARTESIAN_POINT('',(5.36616060860822E-12,19.65,126.8));
#745=CARTESIAN_POINT('',(0.,0.,126.8));
#746=CARTESIAN_POINT('',(0.,0.,126.8));
#747=CARTESIAN_POINT('',(0.,-19.65,116.5918761428));
#748=CARTESIAN_POINT('',(0.,19.65,116.5918761428));
#749=CARTESIAN_POINT('',(0.,0.,133.9));
#750=CARTESIAN_POINT('',(0.,0.,133.9));
#751=MECHANICAL_DESIGN_GEOMETRIC_PRESENTATION_REPRESENTATION('',(#444,#445,
#446,#447),#752);
#752=(
GEOMETRIC_REPRESENTATION_CONTEXT(3)
GLOBAL_UNCERTAINTY_ASSIGNED_CONTEXT((#753))
GLOBAL_UNIT_ASSIGNED_CONTEXT((#759,#755,#754))
REPRESENTATION_CONTEXT('2080.50-FMH1.40','TOP_LEVEL_ASSEMBLY_PART')
);
#753=UNCERTAINTY_MEASURE_WITH_UNIT(LENGTH_MEASURE(2.E-5),#759,
'DISTANCE_ACCURACY_VALUE','Maximum Tolerance applied to model');
#754=(
NAMED_UNIT(*)
SI_UNIT($,.STERADIAN.)
SOLID_ANGLE_UNIT()
);
#755=(
CONVERSION_BASED_UNIT('DEGREE',#757)
NAMED_UNIT(#756)
PLANE_ANGLE_UNIT()
);
#756=DIMENSIONAL_EXPONENTS(0.,0.,0.,0.,0.,0.,0.);
#757=PLANE_ANGLE_MEASURE_WITH_UNIT(PLANE_ANGLE_MEASURE(0.0174532925),#758);
#758=(
NAMED_UNIT(*)
PLANE_ANGLE_UNIT()
SI_UNIT($,.RADIAN.)
);
#759=(
LENGTH_UNIT()
NAMED_UNIT(*)
SI_UNIT(.MILLI.,.METRE.)
);
ENDSEC;
END-ISO-10303-21;
