ISO-10303-21;
HEADER;
/* Generated by software containing ST-Developer
 * from STEP Tools, Inc. (www.steptools.com) 
 */
/* OPTION: using custom schema-name function */

FILE_DESCRIPTION(
/* description */ (''),
/* implementation_level */ '2;1');

FILE_NAME(
/* name */ '2080.40-W.25.080.stp',
/* time_stamp */ '2024-06-23T16:27:55+02:00',
/* author */ (''),
/* organization */ (''),
/* preprocessor_version */ 'ST-DEVELOPER v16.7',
/* originating_system */ 'SIEMENS PLM Software NX 12.0',
/* authorisation */ '');

FILE_SCHEMA (('AUTOMOTIVE_DESIGN { 1 0 10303 214 3 1 1 1 }'));
ENDSEC;

DATA;
#10=CONSTRUCTIVE_GEOMETRY_REPRESENTATION_RELATIONSHIP(
'supplemental geometry','',#32,#11);
#11=CONSTRUCTIVE_GEOMETRY_REPRESENTATION('supplemental geometry',(#242,
#243,#244),#398);
#12=PROPERTY_DEFINITION_REPRESENTATION(#16,#14);
#13=PROPERTY_DEFINITION_REPRESENTATION(#17,#15);
#14=REPRESENTATION('',(#18),#398);
#15=REPRESENTATION('',(#19),#398);
#16=PROPERTY_DEFINITION('pmi validation property','',#23);
#17=PROPERTY_DEFINITION('pmi validation property','',#23);
#18=VALUE_REPRESENTATION_ITEM('number of annotations',COUNT_MEASURE(0.));
#19=VALUE_REPRESENTATION_ITEM('number of views',COUNT_MEASURE(0.));
#20=SHAPE_REPRESENTATION_RELATIONSHIP('None',
'relationship between pf660F5CA0AEj84l-None and pf660F5CA0AEj84l-None',
#32,#21);
#21=ADVANCED_BREP_SHAPE_REPRESENTATION('pf660F5CA0AEj84l-None',(#38),#398);
#22=SHAPE_DEFINITION_REPRESENTATION(#23,#32);
#23=PRODUCT_DEFINITION_SHAPE('','',#24);
#24=PRODUCT_DEFINITION(' ','',#26,#25);
#25=PRODUCT_DEFINITION_CONTEXT('part definition',#31,'design');
#26=PRODUCT_DEFINITION_FORMATION_WITH_SPECIFIED_SOURCE(' ',' ',#28,
 .NOT_KNOWN.);
#27=PRODUCT_RELATED_PRODUCT_CATEGORY('part','',(#28));
#28=PRODUCT('pf660F5CA0AEj84l','pf660F5CA0AEj84l',' ',(#29));
#29=PRODUCT_CONTEXT(' ',#31,'mechanical');
#30=APPLICATION_PROTOCOL_DEFINITION('international standard',
'automotive_design',2010,#31);
#31=APPLICATION_CONTEXT(
'core data for automotive mechanical design processes');
#32=SHAPE_REPRESENTATION('pf660F5CA0AEj84l-None',(#241),#398);
#33=SURFACE_STYLE_USAGE(.BOTH.,#34);
#34=SURFACE_SIDE_STYLE('',(#35));
#35=SURFACE_STYLE_FILL_AREA(#36);
#36=FILL_AREA_STYLE('',(#37));
#37=FILL_AREA_STYLE_COLOUR('',#237);
#38=MANIFOLD_SOLID_BREP('',#39);
#39=CLOSED_SHELL('',(#74,#75,#76,#77,#78,#79,#80,#81,#82,#83,#84));
#40=CONICAL_SURFACE('',#258,27.5,45.);
#41=CONICAL_SURFACE('',#260,27.5,45.);
#42=CONICAL_SURFACE('',#269,17.42710970478,8.2971);
#43=FACE_OUTER_BOUND('',#106,.T.);
#44=FACE_OUTER_BOUND('',#107,.T.);
#45=FACE_OUTER_BOUND('',#108,.T.);
#46=FACE_OUTER_BOUND('',#109,.T.);
#47=FACE_OUTER_BOUND('',#110,.T.);
#48=FACE_OUTER_BOUND('',#111,.T.);
#49=LINE('',#357,#59);
#50=LINE('',#361,#60);
#51=LINE('',#364,#61);
#52=LINE('',#366,#62);
#53=LINE('',#370,#63);
#54=LINE('',#372,#64);
#55=LINE('',#384,#65);
#56=LINE('',#388,#66);
#57=LINE('',#392,#67);
#58=LINE('',#394,#68);
#59=VECTOR('',#296,1.);
#60=VECTOR('',#299,1.);
#61=VECTOR('',#302,1.);
#62=VECTOR('',#303,1.);
#63=VECTOR('',#306,1.);
#64=VECTOR('',#307,1.);
#65=VECTOR('',#324,1.);
#66=VECTOR('',#327,1.);
#67=VECTOR('',#334,1.);
#68=VECTOR('',#335,1.);
#69=CYLINDRICAL_SURFACE('',#253,31.5);
#70=CYLINDRICAL_SURFACE('',#256,32.5);
#71=CYLINDRICAL_SURFACE('',#266,12.5);
#72=CYLINDRICAL_SURFACE('',#268,12.5);
#73=TOROIDAL_SURFACE('',#252,32.,0.5);
#74=ADVANCED_FACE('',(#88,#89),#85,.F.);
#75=ADVANCED_FACE('',(#90,#91),#73,.F.);
#76=ADVANCED_FACE('',(#92,#93),#69,.T.);
#77=ADVANCED_FACE('',(#94,#95),#70,.T.);
#78=ADVANCED_FACE('',(#43),#40,.T.);
#79=ADVANCED_FACE('',(#44),#41,.T.);
#80=ADVANCED_FACE('',(#45),#86,.T.);
#81=ADVANCED_FACE('',(#46),#87,.F.);
#82=ADVANCED_FACE('',(#47),#71,.T.);
#83=ADVANCED_FACE('',(#48),#72,.T.);
#84=ADVANCED_FACE('',(#96,#97),#42,.T.);
#85=PLANE('',#248);
#86=PLANE('',#261);
#87=PLANE('',#264);
#88=FACE_BOUND('',#98,.T.);
#89=FACE_BOUND('',#99,.T.);
#90=FACE_BOUND('',#100,.T.);
#91=FACE_BOUND('',#101,.T.);
#92=FACE_BOUND('',#102,.T.);
#93=FACE_BOUND('',#103,.T.);
#94=FACE_BOUND('',#104,.T.);
#95=FACE_BOUND('',#105,.T.);
#96=FACE_BOUND('',#112,.T.);
#97=FACE_BOUND('',#113,.T.);
#98=EDGE_LOOP('',(#114));
#99=EDGE_LOOP('',(#115,#116));
#100=EDGE_LOOP('',(#117));
#101=EDGE_LOOP('',(#118,#119));
#102=EDGE_LOOP('',(#120));
#103=EDGE_LOOP('',(#121));
#104=EDGE_LOOP('',(#122,#123,#124,#125,#126,#127,#128,#129,#130,#131));
#105=EDGE_LOOP('',(#132,#133));
#106=EDGE_LOOP('',(#134,#135,#136,#137));
#107=EDGE_LOOP('',(#138,#139,#140,#141));
#108=EDGE_LOOP('',(#142,#143));
#109=EDGE_LOOP('',(#144,#145));
#110=EDGE_LOOP('',(#146,#147,#148,#149));
#111=EDGE_LOOP('',(#150,#151,#152,#153));
#112=EDGE_LOOP('',(#154,#155));
#113=EDGE_LOOP('',(#156,#157,#158,#159,#160,#161));
#114=ORIENTED_EDGE('',*,*,#182,.F.);
#115=ORIENTED_EDGE('',*,*,#183,.T.);
#116=ORIENTED_EDGE('',*,*,#184,.T.);
#117=ORIENTED_EDGE('',*,*,#185,.F.);
#118=ORIENTED_EDGE('',*,*,#186,.T.);
#119=ORIENTED_EDGE('',*,*,#187,.T.);
#120=ORIENTED_EDGE('',*,*,#182,.T.);
#121=ORIENTED_EDGE('',*,*,#185,.T.);
#122=ORIENTED_EDGE('',*,*,#186,.F.);
#123=ORIENTED_EDGE('',*,*,#188,.F.);
#124=ORIENTED_EDGE('',*,*,#189,.T.);
#125=ORIENTED_EDGE('',*,*,#190,.T.);
#126=ORIENTED_EDGE('',*,*,#190,.F.);
#127=ORIENTED_EDGE('',*,*,#191,.T.);
#128=ORIENTED_EDGE('',*,*,#188,.T.);
#129=ORIENTED_EDGE('',*,*,#187,.F.);
#130=ORIENTED_EDGE('',*,*,#192,.F.);
#131=ORIENTED_EDGE('',*,*,#192,.T.);
#132=ORIENTED_EDGE('',*,*,#193,.T.);
#133=ORIENTED_EDGE('',*,*,#193,.F.);
#134=ORIENTED_EDGE('',*,*,#194,.T.);
#135=ORIENTED_EDGE('',*,*,#189,.F.);
#136=ORIENTED_EDGE('',*,*,#195,.F.);
#137=ORIENTED_EDGE('',*,*,#196,.T.);
#138=ORIENTED_EDGE('',*,*,#195,.T.);
#139=ORIENTED_EDGE('',*,*,#191,.F.);
#140=ORIENTED_EDGE('',*,*,#194,.F.);
#141=ORIENTED_EDGE('',*,*,#197,.T.);
#142=ORIENTED_EDGE('',*,*,#197,.F.);
#143=ORIENTED_EDGE('',*,*,#196,.F.);
#144=ORIENTED_EDGE('',*,*,#198,.T.);
#145=ORIENTED_EDGE('',*,*,#199,.T.);
#146=ORIENTED_EDGE('',*,*,#200,.F.);
#147=ORIENTED_EDGE('',*,*,#201,.T.);
#148=ORIENTED_EDGE('',*,*,#202,.T.);
#149=ORIENTED_EDGE('',*,*,#198,.F.);
#150=ORIENTED_EDGE('',*,*,#202,.F.);
#151=ORIENTED_EDGE('',*,*,#203,.T.);
#152=ORIENTED_EDGE('',*,*,#200,.T.);
#153=ORIENTED_EDGE('',*,*,#199,.F.);
#154=ORIENTED_EDGE('',*,*,#203,.F.);
#155=ORIENTED_EDGE('',*,*,#201,.F.);
#156=ORIENTED_EDGE('',*,*,#204,.T.);
#157=ORIENTED_EDGE('',*,*,#204,.F.);
#158=ORIENTED_EDGE('',*,*,#184,.F.);
#159=ORIENTED_EDGE('',*,*,#205,.T.);
#160=ORIENTED_EDGE('',*,*,#205,.F.);
#161=ORIENTED_EDGE('',*,*,#183,.F.);
#162=VERTEX_POINT('',#343);
#163=VERTEX_POINT('',#345);
#164=VERTEX_POINT('',#346);
#165=VERTEX_POINT('',#350);
#166=VERTEX_POINT('',#352);
#167=VERTEX_POINT('',#353);
#168=VERTEX_POINT('',#358);
#169=VERTEX_POINT('',#360);
#170=VERTEX_POINT('',#362);
#171=VERTEX_POINT('',#365);
#172=VERTEX_POINT('',#367);
#173=VERTEX_POINT('',#368);
#174=VERTEX_POINT('',#371);
#175=VERTEX_POINT('',#373);
#176=VERTEX_POINT('',#380);
#177=VERTEX_POINT('',#381);
#178=VERTEX_POINT('',#385);
#179=VERTEX_POINT('',#387);
#180=VERTEX_POINT('',#393);
#181=VERTEX_POINT('',#395);
#182=EDGE_CURVE('',#162,#162,#206,.T.);
#183=EDGE_CURVE('',#163,#164,#207,.T.);
#184=EDGE_CURVE('',#164,#163,#208,.T.);
#185=EDGE_CURVE('',#165,#165,#209,.T.);
#186=EDGE_CURVE('',#166,#167,#210,.T.);
#187=EDGE_CURVE('',#167,#166,#211,.T.);
#188=EDGE_CURVE('',#168,#166,#49,.T.);
#189=EDGE_CURVE('',#168,#169,#212,.T.);
#190=EDGE_CURVE('',#169,#170,#50,.T.);
#191=EDGE_CURVE('',#169,#168,#213,.T.);
#192=EDGE_CURVE('',#171,#167,#51,.T.);
#193=EDGE_CURVE('',#172,#173,#52,.T.);
#194=EDGE_CURVE('',#174,#169,#53,.T.);
#195=EDGE_CURVE('',#175,#168,#54,.T.);
#196=EDGE_CURVE('',#175,#174,#214,.T.);
#197=EDGE_CURVE('',#174,#175,#215,.T.);
#198=EDGE_CURVE('',#176,#177,#216,.T.);
#199=EDGE_CURVE('',#177,#176,#217,.T.);
#200=EDGE_CURVE('',#178,#176,#55,.T.);
#201=EDGE_CURVE('',#178,#179,#218,.T.);
#202=EDGE_CURVE('',#179,#177,#56,.T.);
#203=EDGE_CURVE('',#179,#178,#219,.T.);
#204=EDGE_CURVE('',#163,#180,#57,.T.);
#205=EDGE_CURVE('',#164,#181,#58,.T.);
#206=CIRCLE('',#245,31.5);
#207=CIRCLE('',#246,22.4583320508297);
#208=CIRCLE('',#247,22.4583320508297);
#209=CIRCLE('',#249,31.5);
#210=CIRCLE('',#250,32.5);
#211=CIRCLE('',#251,32.5);
#212=CIRCLE('',#254,32.5);
#213=CIRCLE('',#255,32.5);
#214=CIRCLE('',#257,22.5);
#215=CIRCLE('',#259,22.5);
#216=CIRCLE('',#262,12.5);
#217=CIRCLE('',#263,12.5);
#218=CIRCLE('',#265,12.5);
#219=CIRCLE('',#267,12.5);
#220=INVISIBILITY((#221,#222,#223));
#221=PRESENTATION_LAYER_ASSIGNMENT('100','Layer 100',(#242));
#222=PRESENTATION_LAYER_ASSIGNMENT('101','Layer 101',(#243));
#223=PRESENTATION_LAYER_ASSIGNMENT('102','Layer 102',(#244));
#224=PRESENTATION_LAYER_ASSIGNMENT('98','Layer 98',(#38));
#225=STYLED_ITEM('',(#229),#242);
#226=STYLED_ITEM('',(#230),#243);
#227=STYLED_ITEM('',(#231),#244);
#228=STYLED_ITEM('',(#232),#38);
#229=PRESENTATION_STYLE_ASSIGNMENT((#233));
#230=PRESENTATION_STYLE_ASSIGNMENT((#234));
#231=PRESENTATION_STYLE_ASSIGNMENT((#235));
#232=PRESENTATION_STYLE_ASSIGNMENT((#33));
#233=CURVE_STYLE('',#238,POSITIVE_LENGTH_MEASURE(0.7),#236);
#234=CURVE_STYLE('',#239,POSITIVE_LENGTH_MEASURE(0.7),#236);
#235=CURVE_STYLE('',#240,POSITIVE_LENGTH_MEASURE(0.7),#236);
#236=COLOUR_RGB('Medium Maroon',0.6,0.4,0.4);
#237=COLOUR_RGB('Medium Gray',0.490196078431373,0.490196078431373,0.490196078431373);
#238=DRAUGHTING_PRE_DEFINED_CURVE_FONT('continuous');
#239=DRAUGHTING_PRE_DEFINED_CURVE_FONT('continuous');
#240=DRAUGHTING_PRE_DEFINED_CURVE_FONT('continuous');
#241=AXIS2_PLACEMENT_3D('',#338,#270,#271);
#242=AXIS2_PLACEMENT_3D('PCS',#339,#272,#273);
#243=AXIS2_PLACEMENT_3D('CSW',#340,#274,#275);
#244=AXIS2_PLACEMENT_3D('MCS',#341,#276,#277);
#245=AXIS2_PLACEMENT_3D('',#342,#278,#279);
#246=AXIS2_PLACEMENT_3D('',#344,#280,#281);
#247=AXIS2_PLACEMENT_3D('',#347,#282,#283);
#248=AXIS2_PLACEMENT_3D('',#348,#284,#285);
#249=AXIS2_PLACEMENT_3D('',#349,#286,#287);
#250=AXIS2_PLACEMENT_3D('',#351,#288,#289);
#251=AXIS2_PLACEMENT_3D('',#354,#290,#291);
#252=AXIS2_PLACEMENT_3D('',#355,#292,#293);
#253=AXIS2_PLACEMENT_3D('',#356,#294,#295);
#254=AXIS2_PLACEMENT_3D('',#359,#297,#298);
#255=AXIS2_PLACEMENT_3D('',#363,#300,#301);
#256=AXIS2_PLACEMENT_3D('',#369,#304,#305);
#257=AXIS2_PLACEMENT_3D('',#374,#308,#309);
#258=AXIS2_PLACEMENT_3D('',#375,#310,#311);
#259=AXIS2_PLACEMENT_3D('',#376,#312,#313);
#260=AXIS2_PLACEMENT_3D('',#377,#314,#315);
#261=AXIS2_PLACEMENT_3D('',#378,#316,#317);
#262=AXIS2_PLACEMENT_3D('',#379,#318,#319);
#263=AXIS2_PLACEMENT_3D('',#382,#320,#321);
#264=AXIS2_PLACEMENT_3D('',#383,#322,#323);
#265=AXIS2_PLACEMENT_3D('',#386,#325,#326);
#266=AXIS2_PLACEMENT_3D('',#389,#328,#329);
#267=AXIS2_PLACEMENT_3D('',#390,#330,#331);
#268=AXIS2_PLACEMENT_3D('',#391,#332,#333);
#269=AXIS2_PLACEMENT_3D('',#396,#336,#337);
#270=DIRECTION('',(0.,0.,1.));
#271=DIRECTION('',(1.,0.,0.));
#272=DIRECTION('',(0.,0.,1.));
#273=DIRECTION('',(1.,0.,0.));
#274=DIRECTION('',(0.,0.,1.));
#275=DIRECTION('',(1.,0.,0.));
#276=DIRECTION('',(0.,0.,1.));
#277=DIRECTION('',(1.,0.,0.));
#278=DIRECTION('',(0.,0.,-1.));
#279=DIRECTION('',(-1.,0.,0.));
#280=DIRECTION('',(0.,0.,-1.));
#281=DIRECTION('',(-1.,0.,0.));
#282=DIRECTION('',(0.,0.,-1.));
#283=DIRECTION('',(-1.,0.,0.));
#284=DIRECTION('',(0.,0.,-1.));
#285=DIRECTION('',(0.,1.,0.));
#286=DIRECTION('',(0.,0.,1.));
#287=DIRECTION('',(-0.966794372151946,-0.255555555555586,0.));
#288=DIRECTION('',(0.,0.,1.));
#289=DIRECTION('',(-1.,0.,0.));
#290=DIRECTION('',(0.,0.,1.));
#291=DIRECTION('',(-1.,0.,0.));
#292=DIRECTION('',(0.,0.,-1.));
#293=DIRECTION('',(0.999999564444476,-0.000933333197827178,0.));
#294=DIRECTION('',(0.,0.,-1.));
#295=DIRECTION('',(0.,1.,0.));
#296=DIRECTION('',(8.967695873886E-14,0.,1.));
#297=DIRECTION('',(0.,0.,1.));
#298=DIRECTION('',(1.,0.,0.));
#299=DIRECTION('',(-1.821315385881E-12,0.,1.));
#300=DIRECTION('',(0.,0.,1.));
#301=DIRECTION('',(1.,0.,0.));
#302=DIRECTION('',(-1.222311054094E-13,0.,1.));
#303=DIRECTION('',(0.,0.,1.));
#304=DIRECTION('',(0.,0.,-1.));
#305=DIRECTION('',(0.,1.,0.));
#306=DIRECTION('',(1.71730358132512E-13,-0.707106781186547,0.707106781186547));
#307=DIRECTION('',(-1.71577774417611E-13,0.707106781186547,0.707106781186547));
#308=DIRECTION('',(0.,0.,1.));
#309=DIRECTION('',(-1.,0.,0.));
#310=DIRECTION('',(0.,0.,1.));
#311=DIRECTION('',(0.,-1.,4.05190884899692E-17));
#312=DIRECTION('',(0.,0.,1.));
#313=DIRECTION('',(-1.,0.,0.));
#314=DIRECTION('',(0.,0.,1.));
#315=DIRECTION('',(0.,-1.,4.05190884899692E-17));
#316=DIRECTION('',(0.,0.,-1.));
#317=DIRECTION('',(0.,1.,0.));
#318=DIRECTION('',(0.,0.,1.));
#319=DIRECTION('',(-1.,0.,0.));
#320=DIRECTION('',(0.,0.,1.));
#321=DIRECTION('',(-1.,0.,0.));
#322=DIRECTION('',(0.,0.,-1.));
#323=DIRECTION('',(0.,1.,0.));
#324=DIRECTION('',(-2.114902063601E-13,0.,1.));
#325=DIRECTION('',(0.,0.,1.));
#326=DIRECTION('',(-1.,0.,0.));
#327=DIRECTION('',(2.114908338869E-13,0.,1.));
#328=DIRECTION('',(0.,0.,-1.));
#329=DIRECTION('',(0.,1.,0.));
#330=DIRECTION('',(0.,0.,1.));
#331=DIRECTION('',(-1.,0.,0.));
#332=DIRECTION('',(0.,0.,-1.));
#333=DIRECTION('',(0.,1.,0.));
#334=DIRECTION('',(0.,-0.144306116415197,0.989533094325381));
#335=DIRECTION('',(0.,0.144306116415197,0.989533094325381));
#336=DIRECTION('',(0.,0.,-1.));
#337=DIRECTION('',(0.,1.,2.55013198898809E-16));
#338=CARTESIAN_POINT('',(0.,0.,0.));
#339=CARTESIAN_POINT('',(0.,0.,0.));
#340=CARTESIAN_POINT('',(0.,0.,-80.));
#341=CARTESIAN_POINT('',(0.,0.,0.));
#342=CARTESIAN_POINT('',(0.,0.,-1.6));
#343=CARTESIAN_POINT('',(-31.5,0.,-1.6));
#344=CARTESIAN_POINT('',(0.,0.,-1.6));
#345=CARTESIAN_POINT('',(0.,22.4583320508297,-1.6));
#346=CARTESIAN_POINT('',(2.7503524460237E-15,-22.4583320508297,-1.6));
#347=CARTESIAN_POINT('',(0.,0.,-1.6));
#348=CARTESIAN_POINT('',(0.,0.,-1.6));
#349=CARTESIAN_POINT('',(0.,0.,-11.1));
#350=CARTESIAN_POINT('',(-30.4540227227863,-8.05000000000095,-11.1));
#351=CARTESIAN_POINT('',(0.,0.,-11.1));
#352=CARTESIAN_POINT('',(1.0716210927245E-12,32.5,-11.1));
#353=CARTESIAN_POINT('',(-1.1000799486846E-12,-32.5,-11.1));
#354=CARTESIAN_POINT('',(0.,0.,-11.1));
#355=CARTESIAN_POINT('',(0.,0.,-11.1));
#356=CARTESIAN_POINT('',(0.,0.,98.65));
#357=CARTESIAN_POINT('',(-4.13606095191E-12,32.5,-69.17157287525));
#358=CARTESIAN_POINT('',(-2.64808774586528E-12,32.5,-70.0000000000021));
#359=CARTESIAN_POINT('',(0.,0.,-70.));
#360=CARTESIAN_POINT('',(3.36509373410359E-12,-32.5,-70.0000000000021));
#361=CARTESIAN_POINT('',(4.134932993783E-12,-32.5,-69.17157287525));
#362=CARTESIAN_POINT('',(-5.79408514942928E-16,-32.5,-66.9));
#363=CARTESIAN_POINT('',(0.,0.,-70.));
#364=CARTESIAN_POINT('',(0.,-32.5,-20.1));
#365=CARTESIAN_POINT('',(0.,-32.5,-20.1));
#366=CARTESIAN_POINT('',(0.,-32.5,-45.1));
#367=CARTESIAN_POINT('',(0.,-32.5,-45.1));
#368=CARTESIAN_POINT('',(0.,-32.5,-41.9));
#369=CARTESIAN_POINT('',(0.,0.,-8.18));
#370=CARTESIAN_POINT('',(1.23576170455E-14,-23.08578643763,-79.41421356237));
#371=CARTESIAN_POINT('',(-1.29908469774603E-13,-22.5,-80.));
#372=CARTESIAN_POINT('',(-1.306439540717E-14,23.08578643763,-79.41421356237));
#373=CARTESIAN_POINT('',(1.29075286924715E-13,22.5,-80.));
#374=CARTESIAN_POINT('',(0.,0.,-80.));
#375=CARTESIAN_POINT('',(0.,0.,-75.));
#376=CARTESIAN_POINT('',(0.,0.,-80.));
#377=CARTESIAN_POINT('',(0.,0.,-75.));
#378=CARTESIAN_POINT('',(0.,0.,-80.));
#379=CARTESIAN_POINT('',(0.,0.,93.4));
#380=CARTESIAN_POINT('',(-2.19180783021279E-12,-12.5,93.4));
#381=CARTESIAN_POINT('',(2.19181433367306E-12,12.5,93.4));
#382=CARTESIAN_POINT('',(0.,0.,93.4));
#383=CARTESIAN_POINT('',(0.,0.,93.4));
#384=CARTESIAN_POINT('',(0.,-12.5,83.03636251562));
#385=CARTESIAN_POINT('',(1.20114379396671E-13,-12.5,66.686080821567));
#386=CARTESIAN_POINT('',(0.,0.,66.686080821567));
#387=CARTESIAN_POINT('',(0.,12.5,66.686080821567));
#388=CARTESIAN_POINT('',(0.,12.5,83.03636251562));
#389=CARTESIAN_POINT('',(0.,0.,98.65));
#390=CARTESIAN_POINT('',(0.,0.,66.686080821567));
#391=CARTESIAN_POINT('',(0.,0.,98.65));
#392=CARTESIAN_POINT('',(0.,22.16666698729,0.399999999999999));
#393=CARTESIAN_POINT('',(0.,12.68755242227,65.4));
#394=CARTESIAN_POINT('',(0.,-22.16666698729,0.399999999999999));
#395=CARTESIAN_POINT('',(0.,-12.68755242227,65.4));
#396=CARTESIAN_POINT('',(0.,0.,32.9));
#397=MECHANICAL_DESIGN_GEOMETRIC_PRESENTATION_REPRESENTATION('',(#225,#226,
#227,#228),#398);
#398=(
GEOMETRIC_REPRESENTATION_CONTEXT(3)
GLOBAL_UNCERTAINTY_ASSIGNED_CONTEXT((#399))
GLOBAL_UNIT_ASSIGNED_CONTEXT((#405,#401,#400))
REPRESENTATION_CONTEXT('2080.40-W.25','TOP_LEVEL_ASSEMBLY_PART')
);
#399=UNCERTAINTY_MEASURE_WITH_UNIT(LENGTH_MEASURE(2.E-5),#405,
'DISTANCE_ACCURACY_VALUE','Maximum Tolerance applied to model');
#400=(
NAMED_UNIT(*)
SI_UNIT($,.STERADIAN.)
SOLID_ANGLE_UNIT()
);
#401=(
CONVERSION_BASED_UNIT('DEGREE',#403)
NAMED_UNIT(#402)
PLANE_ANGLE_UNIT()
);
#402=DIMENSIONAL_EXPONENTS(0.,0.,0.,0.,0.,0.,0.);
#403=PLANE_ANGLE_MEASURE_WITH_UNIT(PLANE_ANGLE_MEASURE(0.0174532925),#404);
#404=(
NAMED_UNIT(*)
PLANE_ANGLE_UNIT()
SI_UNIT($,.RADIAN.)
);
#405=(
LENGTH_UNIT()
NAMED_UNIT(*)
SI_UNIT(.MILLI.,.METRE.)
);
ENDSEC;
END-ISO-10303-21;
