ISO-10303-21;
HEADER;
/* Generated by software containing ST-Developer
 * from STEP Tools, Inc. (www.steptools.com) 
 */
/* OPTION: using custom schema-name function */

FILE_DESCRIPTION(
/* description */ (''),
/* implementation_level */ '2;1');

FILE_NAME(
/* name */ '2080.40-MT.1.050.stp',
/* time_stamp */ '2024-06-23T15:54:50+02:00',
/* author */ (''),
/* organization */ (''),
/* preprocessor_version */ 'ST-DEVELOPER v16.7',
/* originating_system */ 'SIEMENS PLM Software NX 12.0',
/* authorisation */ '');

FILE_SCHEMA (('AUTOMOTIVE_DESIGN { 1 0 10303 214 3 1 1 1 }'));
ENDSEC;

DATA;
#10=CONSTRUCTIVE_GEOMETRY_REPRESENTATION_RELATIONSHIP(
'supplemental geometry','',#32,#11);
#11=CONSTRUCTIVE_GEOMETRY_REPRESENTATION('supplemental geometry',(#246,
#247,#248),#410);
#12=PROPERTY_DEFINITION_REPRESENTATION(#16,#14);
#13=PROPERTY_DEFINITION_REPRESENTATION(#17,#15);
#14=REPRESENTATION('',(#18),#410);
#15=REPRESENTATION('',(#19),#410);
#16=PROPERTY_DEFINITION('pmi validation property','',#23);
#17=PROPERTY_DEFINITION('pmi validation property','',#23);
#18=VALUE_REPRESENTATION_ITEM('number of annotations',COUNT_MEASURE(0.));
#19=VALUE_REPRESENTATION_ITEM('number of views',COUNT_MEASURE(0.));
#20=SHAPE_REPRESENTATION_RELATIONSHIP('None',
'relationship between pf660F5CA0AEj80h-None and pf660F5CA0AEj80h-None',
#32,#21);
#21=ADVANCED_BREP_SHAPE_REPRESENTATION('pf660F5CA0AEj80h-None',(#38),#410);
#22=SHAPE_DEFINITION_REPRESENTATION(#23,#32);
#23=PRODUCT_DEFINITION_SHAPE('','',#24);
#24=PRODUCT_DEFINITION(' ','',#26,#25);
#25=PRODUCT_DEFINITION_CONTEXT('part definition',#31,'design');
#26=PRODUCT_DEFINITION_FORMATION_WITH_SPECIFIED_SOURCE(' ',' ',#28,
 .NOT_KNOWN.);
#27=PRODUCT_RELATED_PRODUCT_CATEGORY('part','',(#28));
#28=PRODUCT('pf660F5CA0AEj80h','pf660F5CA0AEj80h',' ',(#29));
#29=PRODUCT_CONTEXT(' ',#31,'mechanical');
#30=APPLICATION_PROTOCOL_DEFINITION('international standard',
'automotive_design',2010,#31);
#31=APPLICATION_CONTEXT(
'core data for automotive mechanical design processes');
#32=SHAPE_REPRESENTATION('pf660F5CA0AEj80h-None',(#245),#410);
#33=SURFACE_STYLE_USAGE(.BOTH.,#34);
#34=SURFACE_SIDE_STYLE('',(#35));
#35=SURFACE_STYLE_FILL_AREA(#36);
#36=FILL_AREA_STYLE('',(#37));
#37=FILL_AREA_STYLE_COLOUR('',#241);
#38=MANIFOLD_SOLID_BREP('',#39);
#39=CLOSED_SHELL('',(#74,#75,#76,#77,#78,#79,#80,#81,#82,#83,#84,#85));
#40=CONICAL_SURFACE('',#271,17.42710970478,8.2971);
#41=FACE_BOUND('',#103,.T.);
#42=FACE_BOUND('',#104,.T.);
#43=FACE_BOUND('',#105,.T.);
#44=FACE_BOUND('',#106,.T.);
#45=FACE_BOUND('',#107,.T.);
#46=FACE_BOUND('',#108,.T.);
#47=FACE_BOUND('',#109,.T.);
#48=FACE_BOUND('',#110,.T.);
#49=FACE_BOUND('',#111,.T.);
#50=FACE_BOUND('',#112,.T.);
#51=TOROIDAL_SURFACE('',#259,14.5,2.);
#52=TOROIDAL_SURFACE('',#261,14.5,2.);
#53=CYLINDRICAL_SURFACE('',#253,12.5);
#54=CYLINDRICAL_SURFACE('',#255,12.5);
#55=CYLINDRICAL_SURFACE('',#265,31.5);
#56=CYLINDRICAL_SURFACE('',#275,12.5);
#57=CYLINDRICAL_SURFACE('',#276,12.5);
#58=LINE('',#358,#66);
#59=LINE('',#362,#67);
#60=LINE('',#389,#68);
#61=LINE('',#392,#69);
#62=LINE('',#395,#70);
#63=LINE('',#397,#71);
#64=LINE('',#405,#72);
#65=LINE('',#406,#73);
#66=VECTOR('',#291,1.);
#67=VECTOR('',#294,1.);
#68=VECTOR('',#331,1.);
#69=VECTOR('',#332,1.);
#70=VECTOR('',#333,1.);
#71=VECTOR('',#334,1.);
#72=VECTOR('',#343,1.);
#73=VECTOR('',#344,1.);
#74=ADVANCED_FACE('',(#90),#86,.T.);
#75=ADVANCED_FACE('',(#91),#53,.T.);
#76=ADVANCED_FACE('',(#92),#54,.T.);
#77=ADVANCED_FACE('',(#93),#51,.F.);
#78=ADVANCED_FACE('',(#94),#52,.F.);
#79=ADVANCED_FACE('',(#41,#42),#87,.T.);
#80=ADVANCED_FACE('',(#43,#44),#55,.T.);
#81=ADVANCED_FACE('',(#45,#46),#88,.F.);
#82=ADVANCED_FACE('',(#47,#48,#49,#50),#40,.T.);
#83=ADVANCED_FACE('',(#95),#89,.F.);
#84=ADVANCED_FACE('',(#96),#56,.T.);
#85=ADVANCED_FACE('',(#97),#57,.T.);
#86=PLANE('',#251);
#87=PLANE('',#263);
#88=PLANE('',#268);
#89=PLANE('',#274);
#90=FACE_OUTER_BOUND('',#98,.T.);
#91=FACE_OUTER_BOUND('',#99,.T.);
#92=FACE_OUTER_BOUND('',#100,.T.);
#93=FACE_OUTER_BOUND('',#101,.T.);
#94=FACE_OUTER_BOUND('',#102,.T.);
#95=FACE_OUTER_BOUND('',#113,.T.);
#96=FACE_OUTER_BOUND('',#114,.T.);
#97=FACE_OUTER_BOUND('',#115,.T.);
#98=EDGE_LOOP('',(#116,#117));
#99=EDGE_LOOP('',(#118,#119,#120,#121));
#100=EDGE_LOOP('',(#122,#123,#124,#125));
#101=EDGE_LOOP('',(#126,#127,#128,#129));
#102=EDGE_LOOP('',(#130,#131,#132,#133));
#103=EDGE_LOOP('',(#134));
#104=EDGE_LOOP('',(#135,#136));
#105=EDGE_LOOP('',(#137));
#106=EDGE_LOOP('',(#138));
#107=EDGE_LOOP('',(#139));
#108=EDGE_LOOP('',(#140,#141));
#109=EDGE_LOOP('',(#142,#143));
#110=EDGE_LOOP('',(#144,#145));
#111=EDGE_LOOP('',(#146,#147));
#112=EDGE_LOOP('',(#148,#149,#150,#151,#152,#153));
#113=EDGE_LOOP('',(#154,#155));
#114=EDGE_LOOP('',(#156,#157,#158,#159));
#115=EDGE_LOOP('',(#160,#161,#162,#163));
#116=ORIENTED_EDGE('',*,*,#184,.F.);
#117=ORIENTED_EDGE('',*,*,#185,.F.);
#118=ORIENTED_EDGE('',*,*,#186,.T.);
#119=ORIENTED_EDGE('',*,*,#187,.T.);
#120=ORIENTED_EDGE('',*,*,#188,.F.);
#121=ORIENTED_EDGE('',*,*,#184,.T.);
#122=ORIENTED_EDGE('',*,*,#188,.T.);
#123=ORIENTED_EDGE('',*,*,#189,.F.);
#124=ORIENTED_EDGE('',*,*,#186,.F.);
#125=ORIENTED_EDGE('',*,*,#185,.T.);
#126=ORIENTED_EDGE('',*,*,#190,.F.);
#127=ORIENTED_EDGE('',*,*,#187,.F.);
#128=ORIENTED_EDGE('',*,*,#191,.T.);
#129=ORIENTED_EDGE('',*,*,#192,.T.);
#130=ORIENTED_EDGE('',*,*,#191,.F.);
#131=ORIENTED_EDGE('',*,*,#189,.T.);
#132=ORIENTED_EDGE('',*,*,#190,.T.);
#133=ORIENTED_EDGE('',*,*,#193,.T.);
#134=ORIENTED_EDGE('',*,*,#194,.F.);
#135=ORIENTED_EDGE('',*,*,#193,.F.);
#136=ORIENTED_EDGE('',*,*,#192,.F.);
#137=ORIENTED_EDGE('',*,*,#194,.T.);
#138=ORIENTED_EDGE('',*,*,#195,.F.);
#139=ORIENTED_EDGE('',*,*,#195,.T.);
#140=ORIENTED_EDGE('',*,*,#196,.T.);
#141=ORIENTED_EDGE('',*,*,#197,.T.);
#142=ORIENTED_EDGE('',*,*,#198,.F.);
#143=ORIENTED_EDGE('',*,*,#199,.F.);
#144=ORIENTED_EDGE('',*,*,#200,.T.);
#145=ORIENTED_EDGE('',*,*,#200,.F.);
#146=ORIENTED_EDGE('',*,*,#201,.T.);
#147=ORIENTED_EDGE('',*,*,#201,.F.);
#148=ORIENTED_EDGE('',*,*,#202,.T.);
#149=ORIENTED_EDGE('',*,*,#202,.F.);
#150=ORIENTED_EDGE('',*,*,#197,.F.);
#151=ORIENTED_EDGE('',*,*,#203,.T.);
#152=ORIENTED_EDGE('',*,*,#203,.F.);
#153=ORIENTED_EDGE('',*,*,#196,.F.);
#154=ORIENTED_EDGE('',*,*,#204,.T.);
#155=ORIENTED_EDGE('',*,*,#205,.T.);
#156=ORIENTED_EDGE('',*,*,#206,.F.);
#157=ORIENTED_EDGE('',*,*,#199,.T.);
#158=ORIENTED_EDGE('',*,*,#207,.T.);
#159=ORIENTED_EDGE('',*,*,#204,.F.);
#160=ORIENTED_EDGE('',*,*,#207,.F.);
#161=ORIENTED_EDGE('',*,*,#198,.T.);
#162=ORIENTED_EDGE('',*,*,#206,.T.);
#163=ORIENTED_EDGE('',*,*,#205,.F.);
#164=VERTEX_POINT('',#354);
#165=VERTEX_POINT('',#355);
#166=VERTEX_POINT('',#359);
#167=VERTEX_POINT('',#361);
#168=VERTEX_POINT('',#367);
#169=VERTEX_POINT('',#369);
#170=VERTEX_POINT('',#375);
#171=VERTEX_POINT('',#378);
#172=VERTEX_POINT('',#381);
#173=VERTEX_POINT('',#382);
#174=VERTEX_POINT('',#386);
#175=VERTEX_POINT('',#387);
#176=VERTEX_POINT('',#390);
#177=VERTEX_POINT('',#391);
#178=VERTEX_POINT('',#393);
#179=VERTEX_POINT('',#394);
#180=VERTEX_POINT('',#396);
#181=VERTEX_POINT('',#398);
#182=VERTEX_POINT('',#401);
#183=VERTEX_POINT('',#402);
#184=EDGE_CURVE('',#164,#165,#208,.T.);
#185=EDGE_CURVE('',#165,#164,#209,.T.);
#186=EDGE_CURVE('',#165,#166,#58,.T.);
#187=EDGE_CURVE('',#166,#167,#210,.T.);
#188=EDGE_CURVE('',#164,#167,#59,.T.);
#189=EDGE_CURVE('',#166,#167,#211,.T.);
#190=EDGE_CURVE('',#167,#168,#212,.T.);
#191=EDGE_CURVE('',#166,#169,#213,.T.);
#192=EDGE_CURVE('',#169,#168,#214,.T.);
#193=EDGE_CURVE('',#168,#169,#215,.T.);
#194=EDGE_CURVE('',#170,#170,#216,.T.);
#195=EDGE_CURVE('',#171,#171,#217,.T.);
#196=EDGE_CURVE('',#172,#173,#218,.T.);
#197=EDGE_CURVE('',#173,#172,#219,.T.);
#198=EDGE_CURVE('',#174,#175,#220,.T.);
#199=EDGE_CURVE('',#175,#174,#221,.T.);
#200=EDGE_CURVE('',#176,#177,#60,.T.);
#201=EDGE_CURVE('',#178,#179,#61,.T.);
#202=EDGE_CURVE('',#172,#180,#62,.T.);
#203=EDGE_CURVE('',#173,#181,#63,.T.);
#204=EDGE_CURVE('',#182,#183,#222,.T.);
#205=EDGE_CURVE('',#183,#182,#223,.T.);
#206=EDGE_CURVE('',#175,#182,#64,.T.);
#207=EDGE_CURVE('',#174,#183,#65,.T.);
#208=CIRCLE('',#249,12.5);
#209=CIRCLE('',#250,12.5);
#210=CIRCLE('',#252,12.5);
#211=CIRCLE('',#254,12.5);
#212=CIRCLE('',#256,2.);
#213=CIRCLE('',#257,2.);
#214=CIRCLE('',#258,14.5);
#215=CIRCLE('',#260,14.5);
#216=CIRCLE('',#262,31.5);
#217=CIRCLE('',#264,31.5);
#218=CIRCLE('',#266,22.4583320508297);
#219=CIRCLE('',#267,22.4583320508297);
#220=CIRCLE('',#269,12.5);
#221=CIRCLE('',#270,12.5);
#222=CIRCLE('',#272,12.5);
#223=CIRCLE('',#273,12.5);
#224=INVISIBILITY((#225,#226,#227));
#225=PRESENTATION_LAYER_ASSIGNMENT('100','Layer 100',(#246));
#226=PRESENTATION_LAYER_ASSIGNMENT('101','Layer 101',(#247));
#227=PRESENTATION_LAYER_ASSIGNMENT('102','Layer 102',(#248));
#228=PRESENTATION_LAYER_ASSIGNMENT('98','Layer 98',(#38));
#229=STYLED_ITEM('',(#233),#246);
#230=STYLED_ITEM('',(#234),#247);
#231=STYLED_ITEM('',(#235),#248);
#232=STYLED_ITEM('',(#236),#38);
#233=PRESENTATION_STYLE_ASSIGNMENT((#237));
#234=PRESENTATION_STYLE_ASSIGNMENT((#238));
#235=PRESENTATION_STYLE_ASSIGNMENT((#239));
#236=PRESENTATION_STYLE_ASSIGNMENT((#33));
#237=CURVE_STYLE('',#242,POSITIVE_LENGTH_MEASURE(0.7),#240);
#238=CURVE_STYLE('',#243,POSITIVE_LENGTH_MEASURE(0.7),#240);
#239=CURVE_STYLE('',#244,POSITIVE_LENGTH_MEASURE(0.7),#240);
#240=COLOUR_RGB('Medium Maroon',0.6,0.4,0.4);
#241=COLOUR_RGB('Medium Gray',0.490196078431373,0.490196078431373,0.490196078431373);
#242=DRAUGHTING_PRE_DEFINED_CURVE_FONT('continuous');
#243=DRAUGHTING_PRE_DEFINED_CURVE_FONT('continuous');
#244=DRAUGHTING_PRE_DEFINED_CURVE_FONT('continuous');
#245=AXIS2_PLACEMENT_3D('',#349,#277,#278);
#246=AXIS2_PLACEMENT_3D('PCS',#350,#279,#280);
#247=AXIS2_PLACEMENT_3D('CSW',#351,#281,#282);
#248=AXIS2_PLACEMENT_3D('MCS',#352,#283,#284);
#249=AXIS2_PLACEMENT_3D('',#353,#285,#286);
#250=AXIS2_PLACEMENT_3D('',#356,#287,#288);
#251=AXIS2_PLACEMENT_3D('',#357,#289,#290);
#252=AXIS2_PLACEMENT_3D('',#360,#292,#293);
#253=AXIS2_PLACEMENT_3D('',#363,#295,#296);
#254=AXIS2_PLACEMENT_3D('',#364,#297,#298);
#255=AXIS2_PLACEMENT_3D('',#365,#299,#300);
#256=AXIS2_PLACEMENT_3D('',#366,#301,#302);
#257=AXIS2_PLACEMENT_3D('',#368,#303,#304);
#258=AXIS2_PLACEMENT_3D('',#370,#305,#306);
#259=AXIS2_PLACEMENT_3D('',#371,#307,#308);
#260=AXIS2_PLACEMENT_3D('',#372,#309,#310);
#261=AXIS2_PLACEMENT_3D('',#373,#311,#312);
#262=AXIS2_PLACEMENT_3D('',#374,#313,#314);
#263=AXIS2_PLACEMENT_3D('',#376,#315,#316);
#264=AXIS2_PLACEMENT_3D('',#377,#317,#318);
#265=AXIS2_PLACEMENT_3D('',#379,#319,#320);
#266=AXIS2_PLACEMENT_3D('',#380,#321,#322);
#267=AXIS2_PLACEMENT_3D('',#383,#323,#324);
#268=AXIS2_PLACEMENT_3D('',#384,#325,#326);
#269=AXIS2_PLACEMENT_3D('',#385,#327,#328);
#270=AXIS2_PLACEMENT_3D('',#388,#329,#330);
#271=AXIS2_PLACEMENT_3D('',#399,#335,#336);
#272=AXIS2_PLACEMENT_3D('',#400,#337,#338);
#273=AXIS2_PLACEMENT_3D('',#403,#339,#340);
#274=AXIS2_PLACEMENT_3D('',#404,#341,#342);
#275=AXIS2_PLACEMENT_3D('',#407,#345,#346);
#276=AXIS2_PLACEMENT_3D('',#408,#347,#348);
#277=DIRECTION('',(0.,0.,1.));
#278=DIRECTION('',(1.,0.,0.));
#279=DIRECTION('',(0.,0.,1.));
#280=DIRECTION('',(1.,0.,0.));
#281=DIRECTION('',(0.,0.,1.));
#282=DIRECTION('',(1.,0.,0.));
#283=DIRECTION('',(0.,0.,1.));
#284=DIRECTION('',(1.,0.,0.));
#285=DIRECTION('',(0.,0.,1.));
#286=DIRECTION('',(-1.,0.,0.));
#287=DIRECTION('',(0.,0.,1.));
#288=DIRECTION('',(-1.,0.,0.));
#289=DIRECTION('',(0.,0.,-1.));
#290=DIRECTION('',(0.,1.,0.));
#291=DIRECTION('',(1.268603406621E-14,0.,1.));
#292=DIRECTION('',(0.,0.,-1.));
#293=DIRECTION('',(0.,1.,0.));
#294=DIRECTION('',(-1.267490900444E-14,0.,1.));
#295=DIRECTION('',(0.,0.,-1.));
#296=DIRECTION('',(0.,1.,0.));
#297=DIRECTION('',(0.,0.,1.));
#298=DIRECTION('',(0.,1.,0.));
#299=DIRECTION('',(0.,0.,-1.));
#300=DIRECTION('',(0.,1.,0.));
#301=DIRECTION('',(1.,0.,0.));
#302=DIRECTION('',(0.,1.,0.));
#303=DIRECTION('',(-1.,0.,0.));
#304=DIRECTION('',(0.,-1.,0.));
#305=DIRECTION('',(0.,0.,-1.));
#306=DIRECTION('',(0.,1.,0.));
#307=DIRECTION('',(0.,0.,-1.));
#308=DIRECTION('',(0.,1.,0.));
#309=DIRECTION('',(0.,0.,-1.));
#310=DIRECTION('',(0.,-1.,0.));
#311=DIRECTION('',(0.,0.,-1.));
#312=DIRECTION('',(0.,1.,0.));
#313=DIRECTION('',(0.,0.,1.));
#314=DIRECTION('',(-1.,0.,0.));
#315=DIRECTION('',(0.,0.,-1.));
#316=DIRECTION('',(0.,1.,0.));
#317=DIRECTION('',(0.,0.,1.));
#318=DIRECTION('',(-1.,0.,0.));
#319=DIRECTION('',(0.,0.,-1.));
#320=DIRECTION('',(0.,1.,0.));
#321=DIRECTION('',(0.,0.,-1.));
#322=DIRECTION('',(-1.,0.,0.));
#323=DIRECTION('',(0.,0.,-1.));
#324=DIRECTION('',(-1.,0.,0.));
#325=DIRECTION('',(0.,0.,-1.));
#326=DIRECTION('',(0.,1.,0.));
#327=DIRECTION('',(0.,0.,1.));
#328=DIRECTION('',(-1.,0.,0.));
#329=DIRECTION('',(0.,0.,1.));
#330=DIRECTION('',(-1.,0.,0.));
#331=DIRECTION('',(0.,-0.144306116415197,0.989533094325381));
#332=DIRECTION('',(-1.13384878371998E-13,0.144306116415197,0.989533094325381));
#333=DIRECTION('',(0.,-0.144306116415197,0.989533094325381));
#334=DIRECTION('',(0.,0.144306116415197,0.989533094325381));
#335=DIRECTION('',(0.,0.,-1.));
#336=DIRECTION('',(0.,1.,2.55013198898809E-16));
#337=DIRECTION('',(0.,0.,1.));
#338=DIRECTION('',(-1.,0.,0.));
#339=DIRECTION('',(0.,0.,1.));
#340=DIRECTION('',(-1.,0.,0.));
#341=DIRECTION('',(0.,0.,-1.));
#342=DIRECTION('',(0.,1.,0.));
#343=DIRECTION('',(-2.114902063601E-13,0.,1.));
#344=DIRECTION('',(2.114908338869E-13,0.,1.));
#345=DIRECTION('',(0.,0.,-1.));
#346=DIRECTION('',(0.,1.,0.));
#347=DIRECTION('',(0.,0.,-1.));
#348=DIRECTION('',(0.,1.,0.));
#349=CARTESIAN_POINT('',(0.,0.,0.));
#350=CARTESIAN_POINT('',(0.,0.,0.));
#351=CARTESIAN_POINT('',(0.,0.,-50.));
#352=CARTESIAN_POINT('',(0.,0.,0.));
#353=CARTESIAN_POINT('',(0.,0.,-50.));
#354=CARTESIAN_POINT('',(4.5983588926288E-13,-12.5,-50.));
#355=CARTESIAN_POINT('',(-4.6024082151112E-13,12.5,-50.));
#356=CARTESIAN_POINT('',(0.,0.,-50.));
#357=CARTESIAN_POINT('',(0.,0.,-50.));
#358=CARTESIAN_POINT('',(-4.348687533787E-13,12.5,-48.));
#359=CARTESIAN_POINT('',(0.,12.5,-13.6));
#360=CARTESIAN_POINT('',(0.,0.,-13.6));
#361=CARTESIAN_POINT('',(0.,-12.5,-13.6));
#362=CARTESIAN_POINT('',(4.34486071254E-13,-12.5,-48.));
#363=CARTESIAN_POINT('',(0.,0.,-9.68));
#364=CARTESIAN_POINT('',(0.,0.,-13.6));
#365=CARTESIAN_POINT('',(0.,0.,-9.68));
#366=CARTESIAN_POINT('',(0.,-14.5,-13.6));
#367=CARTESIAN_POINT('',(0.,-14.5,-11.6));
#368=CARTESIAN_POINT('',(0.,14.5,-13.6));
#369=CARTESIAN_POINT('',(0.,14.5,-11.6));
#370=CARTESIAN_POINT('',(0.,0.,-11.6));
#371=CARTESIAN_POINT('',(0.,0.,-13.6));
#372=CARTESIAN_POINT('',(0.,0.,-11.6));
#373=CARTESIAN_POINT('',(0.,0.,-13.6));
#374=CARTESIAN_POINT('',(0.,0.,-11.6));
#375=CARTESIAN_POINT('',(-31.5,0.,-11.6));
#376=CARTESIAN_POINT('',(0.,0.,-11.6));
#377=CARTESIAN_POINT('',(0.,0.,-1.6));
#378=CARTESIAN_POINT('',(-31.5,0.,-1.6));
#379=CARTESIAN_POINT('',(0.,0.,98.65));
#380=CARTESIAN_POINT('',(0.,0.,-1.6));
#381=CARTESIAN_POINT('',(0.,22.4583320508297,-1.6));
#382=CARTESIAN_POINT('',(2.7503524460237E-15,-22.4583320508297,-1.6));
#383=CARTESIAN_POINT('',(0.,0.,-1.6));
#384=CARTESIAN_POINT('',(0.,0.,-1.6));
#385=CARTESIAN_POINT('',(0.,0.,66.686080821567));
#386=CARTESIAN_POINT('',(0.,12.5,66.686080821567));
#387=CARTESIAN_POINT('',(7.65404249467096E-16,-12.5,66.686080821567));
#388=CARTESIAN_POINT('',(0.,0.,66.686080821567));
#389=CARTESIAN_POINT('',(0.,19.16251683284,21.));
#390=CARTESIAN_POINT('',(0.,19.1625168328389,21.));
#391=CARTESIAN_POINT('',(0.,12.68755242227,65.4));
#392=CARTESIAN_POINT('',(5.085985617632E-12,-19.16251683284,21.));
#393=CARTESIAN_POINT('',(5.085985617632E-12,-19.1625168328389,21.));
#394=CARTESIAN_POINT('',(0.,-12.68755242227,65.4));
#395=CARTESIAN_POINT('',(0.,22.16666698729,0.399999999999999));
#396=CARTESIAN_POINT('',(-4.35741649917612E-30,21.933334936459,2.));
#397=CARTESIAN_POINT('',(0.,-22.16666698729,0.399999999999999));
#398=CARTESIAN_POINT('',(0.,-21.933334936459,2.));
#399=CARTESIAN_POINT('',(0.,0.,32.9));
#400=CARTESIAN_POINT('',(0.,0.,93.4));
#401=CARTESIAN_POINT('',(-2.19180783021279E-12,-12.5,93.4));
#402=CARTESIAN_POINT('',(2.19181433367306E-12,12.5,93.4));
#403=CARTESIAN_POINT('',(0.,0.,93.4));
#404=CARTESIAN_POINT('',(0.,0.,93.4));
#405=CARTESIAN_POINT('',(0.,-12.5,83.03636251562));
#406=CARTESIAN_POINT('',(0.,12.5,83.03636251562));
#407=CARTESIAN_POINT('',(0.,0.,98.65));
#408=CARTESIAN_POINT('',(0.,0.,98.65));
#409=MECHANICAL_DESIGN_GEOMETRIC_PRESENTATION_REPRESENTATION('',(#229,#230,
#231,#232),#410);
#410=(
GEOMETRIC_REPRESENTATION_CONTEXT(3)
GLOBAL_UNCERTAINTY_ASSIGNED_CONTEXT((#411))
GLOBAL_UNIT_ASSIGNED_CONTEXT((#417,#413,#412))
REPRESENTATION_CONTEXT('2080.40-MT.1','TOP_LEVEL_ASSEMBLY_PART')
);
#411=UNCERTAINTY_MEASURE_WITH_UNIT(LENGTH_MEASURE(2.E-5),#417,
'DISTANCE_ACCURACY_VALUE','Maximum Tolerance applied to model');
#412=(
NAMED_UNIT(*)
SI_UNIT($,.STERADIAN.)
SOLID_ANGLE_UNIT()
);
#413=(
CONVERSION_BASED_UNIT('DEGREE',#415)
NAMED_UNIT(#414)
PLANE_ANGLE_UNIT()
);
#414=DIMENSIONAL_EXPONENTS(0.,0.,0.,0.,0.,0.,0.);
#415=PLANE_ANGLE_MEASURE_WITH_UNIT(PLANE_ANGLE_MEASURE(0.0174532925),#416);
#416=(
NAMED_UNIT(*)
PLANE_ANGLE_UNIT()
SI_UNIT($,.RADIAN.)
);
#417=(
LENGTH_UNIT()
NAMED_UNIT(*)
SI_UNIT(.MILLI.,.METRE.)
);
ENDSEC;
END-ISO-10303-21;
