ISO-10303-21;
HEADER;
/* Generated by software containing ST-Developer
 * from STEP Tools, Inc. (www.steptools.com) 
 */
/* OPTION: using custom schema-name function */

FILE_DESCRIPTION(
/* description */ (''),
/* implementation_level */ '2;1');

FILE_NAME(
/* name */ '2080.40-BLA.63.250.stp',
/* time_stamp */ '2024-06-19T15:27:12+02:00',
/* author */ (''),
/* organization */ (''),
/* preprocessor_version */ 'ST-DEVELOPER v16.7',
/* originating_system */ 'SIEMENS PLM Software NX 12.0',
/* authorisation */ '');

FILE_SCHEMA (('AUTOMOTIVE_DESIGN { 1 0 10303 214 3 1 1 1 }'));
ENDSEC;

DATA;
#10=CONSTRUCTIVE_GEOMETRY_REPRESENTATION_RELATIONSHIP(
'supplemental geometry','',#32,#11);
#11=CONSTRUCTIVE_GEOMETRY_REPRESENTATION('supplemental geometry',(#294,
#295,#296),#504);
#12=PROPERTY_DEFINITION_REPRESENTATION(#16,#14);
#13=PROPERTY_DEFINITION_REPRESENTATION(#17,#15);
#14=REPRESENTATION('',(#18),#504);
#15=REPRESENTATION('',(#19),#504);
#16=PROPERTY_DEFINITION('pmi validation property','',#23);
#17=PROPERTY_DEFINITION('pmi validation property','',#23);
#18=VALUE_REPRESENTATION_ITEM('number of annotations',COUNT_MEASURE(0.));
#19=VALUE_REPRESENTATION_ITEM('number of views',COUNT_MEASURE(0.));
#20=SHAPE_REPRESENTATION_RELATIONSHIP('None',
'relationship between pf662B9C4854b8t0-None and pf662B9C4854b8t0-None',
#32,#21);
#21=ADVANCED_BREP_SHAPE_REPRESENTATION('pf662B9C4854b8t0-None',(#38),#504);
#22=SHAPE_DEFINITION_REPRESENTATION(#23,#32);
#23=PRODUCT_DEFINITION_SHAPE('','',#24);
#24=PRODUCT_DEFINITION(' ','',#26,#25);
#25=PRODUCT_DEFINITION_CONTEXT('part definition',#31,'design');
#26=PRODUCT_DEFINITION_FORMATION_WITH_SPECIFIED_SOURCE(' ',' ',#28,
 .NOT_KNOWN.);
#27=PRODUCT_RELATED_PRODUCT_CATEGORY('part','',(#28));
#28=PRODUCT('pf662B9C4854b8t0','pf662B9C4854b8t0',' ',(#29));
#29=PRODUCT_CONTEXT(' ',#31,'mechanical');
#30=APPLICATION_PROTOCOL_DEFINITION('international standard',
'automotive_design',2010,#31);
#31=APPLICATION_CONTEXT(
'core data for automotive mechanical design processes');
#32=SHAPE_REPRESENTATION('pf662B9C4854b8t0-None',(#293),#504);
#33=SURFACE_STYLE_USAGE(.BOTH.,#34);
#34=SURFACE_SIDE_STYLE('',(#35));
#35=SURFACE_STYLE_FILL_AREA(#36);
#36=FILL_AREA_STYLE('',(#37));
#37=FILL_AREA_STYLE_COLOUR('',#289);
#38=MANIFOLD_SOLID_BREP('',#39);
#39=CLOSED_SHELL('',(#82,#83,#84,#85,#86,#87,#88,#89,#90,#91,#92,#93,#94,
#95,#96,#97,#98));
#40=CONICAL_SURFACE('',#323,30.25,45.);
#41=CONICAL_SURFACE('',#325,30.25,45.);
#42=CONICAL_SURFACE('',#335,17.42710970478,8.2971);
#43=LINE('',#473,#51);
#44=LINE('',#477,#52);
#45=LINE('',#481,#53);
#46=LINE('',#482,#54);
#47=LINE('',#490,#55);
#48=LINE('',#494,#56);
#49=LINE('',#498,#57);
#50=LINE('',#500,#58);
#51=VECTOR('',#394,1.);
#52=VECTOR('',#397,1.);
#53=VECTOR('',#404,1.);
#54=VECTOR('',#405,1.);
#55=VECTOR('',#416,1.);
#56=VECTOR('',#419,1.);
#57=VECTOR('',#426,1.);
#58=VECTOR('',#427,1.);
#59=TOROIDAL_SURFACE('',#309,25.8,0.8);
#60=TOROIDAL_SURFACE('',#316,25.8,0.8);
#61=TOROIDAL_SURFACE('',#318,25.8,0.8);
#62=CYLINDRICAL_SURFACE('',#307,31.5);
#63=CYLINDRICAL_SURFACE('',#312,25.);
#64=CYLINDRICAL_SURFACE('',#326,31.75);
#65=CYLINDRICAL_SURFACE('',#327,31.75);
#66=CYLINDRICAL_SURFACE('',#332,12.5);
#67=CYLINDRICAL_SURFACE('',#334,12.5);
#68=FACE_BOUND('',#115,.T.);
#69=FACE_BOUND('',#116,.T.);
#70=FACE_BOUND('',#117,.T.);
#71=FACE_BOUND('',#118,.T.);
#72=FACE_BOUND('',#119,.T.);
#73=FACE_BOUND('',#120,.T.);
#74=FACE_BOUND('',#121,.T.);
#75=FACE_BOUND('',#122,.T.);
#76=FACE_BOUND('',#123,.T.);
#77=FACE_BOUND('',#124,.T.);
#78=FACE_BOUND('',#127,.T.);
#79=FACE_BOUND('',#128,.T.);
#80=FACE_BOUND('',#136,.T.);
#81=FACE_BOUND('',#137,.T.);
#82=ADVANCED_FACE('',(#104),#99,.T.);
#83=ADVANCED_FACE('',(#68,#69),#100,.F.);
#84=ADVANCED_FACE('',(#70,#71),#101,.T.);
#85=ADVANCED_FACE('',(#72,#73),#62,.T.);
#86=ADVANCED_FACE('',(#74,#75),#59,.F.);
#87=ADVANCED_FACE('',(#76,#77),#63,.T.);
#88=ADVANCED_FACE('',(#105),#60,.F.);
#89=ADVANCED_FACE('',(#106),#61,.F.);
#90=ADVANCED_FACE('',(#78,#79),#102,.F.);
#91=ADVANCED_FACE('',(#107),#40,.T.);
#92=ADVANCED_FACE('',(#108),#41,.T.);
#93=ADVANCED_FACE('',(#109),#64,.T.);
#94=ADVANCED_FACE('',(#110),#65,.T.);
#95=ADVANCED_FACE('',(#111),#103,.F.);
#96=ADVANCED_FACE('',(#112),#66,.T.);
#97=ADVANCED_FACE('',(#113),#67,.T.);
#98=ADVANCED_FACE('',(#80,#81),#42,.T.);
#99=PLANE('',#299);
#100=PLANE('',#303);
#101=PLANE('',#306);
#102=PLANE('',#321);
#103=PLANE('',#330);
#104=FACE_OUTER_BOUND('',#114,.T.);
#105=FACE_OUTER_BOUND('',#125,.T.);
#106=FACE_OUTER_BOUND('',#126,.T.);
#107=FACE_OUTER_BOUND('',#129,.T.);
#108=FACE_OUTER_BOUND('',#130,.T.);
#109=FACE_OUTER_BOUND('',#131,.T.);
#110=FACE_OUTER_BOUND('',#132,.T.);
#111=FACE_OUTER_BOUND('',#133,.T.);
#112=FACE_OUTER_BOUND('',#134,.T.);
#113=FACE_OUTER_BOUND('',#135,.T.);
#114=EDGE_LOOP('',(#138,#139));
#115=EDGE_LOOP('',(#140));
#116=EDGE_LOOP('',(#141,#142));
#117=EDGE_LOOP('',(#143));
#118=EDGE_LOOP('',(#144));
#119=EDGE_LOOP('',(#145));
#120=EDGE_LOOP('',(#146));
#121=EDGE_LOOP('',(#147));
#122=EDGE_LOOP('',(#148));
#123=EDGE_LOOP('',(#149));
#124=EDGE_LOOP('',(#150,#151));
#125=EDGE_LOOP('',(#152,#153,#154,#155));
#126=EDGE_LOOP('',(#156,#157,#158,#159));
#127=EDGE_LOOP('',(#160,#161));
#128=EDGE_LOOP('',(#162,#163));
#129=EDGE_LOOP('',(#164,#165,#166,#167));
#130=EDGE_LOOP('',(#168,#169,#170,#171));
#131=EDGE_LOOP('',(#172,#173,#174,#175));
#132=EDGE_LOOP('',(#176,#177,#178,#179));
#133=EDGE_LOOP('',(#180,#181));
#134=EDGE_LOOP('',(#182,#183,#184,#185));
#135=EDGE_LOOP('',(#186,#187,#188,#189));
#136=EDGE_LOOP('',(#190,#191));
#137=EDGE_LOOP('',(#192,#193,#194,#195,#196,#197));
#138=ORIENTED_EDGE('',*,*,#220,.T.);
#139=ORIENTED_EDGE('',*,*,#221,.T.);
#140=ORIENTED_EDGE('',*,*,#222,.F.);
#141=ORIENTED_EDGE('',*,*,#223,.T.);
#142=ORIENTED_EDGE('',*,*,#224,.T.);
#143=ORIENTED_EDGE('',*,*,#225,.T.);
#144=ORIENTED_EDGE('',*,*,#226,.T.);
#145=ORIENTED_EDGE('',*,*,#222,.T.);
#146=ORIENTED_EDGE('',*,*,#225,.F.);
#147=ORIENTED_EDGE('',*,*,#226,.F.);
#148=ORIENTED_EDGE('',*,*,#227,.F.);
#149=ORIENTED_EDGE('',*,*,#227,.T.);
#150=ORIENTED_EDGE('',*,*,#228,.F.);
#151=ORIENTED_EDGE('',*,*,#229,.F.);
#152=ORIENTED_EDGE('',*,*,#228,.T.);
#153=ORIENTED_EDGE('',*,*,#230,.T.);
#154=ORIENTED_EDGE('',*,*,#231,.F.);
#155=ORIENTED_EDGE('',*,*,#232,.F.);
#156=ORIENTED_EDGE('',*,*,#229,.T.);
#157=ORIENTED_EDGE('',*,*,#232,.T.);
#158=ORIENTED_EDGE('',*,*,#233,.F.);
#159=ORIENTED_EDGE('',*,*,#230,.F.);
#160=ORIENTED_EDGE('',*,*,#234,.T.);
#161=ORIENTED_EDGE('',*,*,#235,.T.);
#162=ORIENTED_EDGE('',*,*,#233,.T.);
#163=ORIENTED_EDGE('',*,*,#231,.T.);
#164=ORIENTED_EDGE('',*,*,#236,.T.);
#165=ORIENTED_EDGE('',*,*,#237,.T.);
#166=ORIENTED_EDGE('',*,*,#238,.F.);
#167=ORIENTED_EDGE('',*,*,#235,.F.);
#168=ORIENTED_EDGE('',*,*,#238,.T.);
#169=ORIENTED_EDGE('',*,*,#239,.T.);
#170=ORIENTED_EDGE('',*,*,#236,.F.);
#171=ORIENTED_EDGE('',*,*,#234,.F.);
#172=ORIENTED_EDGE('',*,*,#220,.F.);
#173=ORIENTED_EDGE('',*,*,#240,.T.);
#174=ORIENTED_EDGE('',*,*,#239,.F.);
#175=ORIENTED_EDGE('',*,*,#241,.F.);
#176=ORIENTED_EDGE('',*,*,#221,.F.);
#177=ORIENTED_EDGE('',*,*,#241,.T.);
#178=ORIENTED_EDGE('',*,*,#237,.F.);
#179=ORIENTED_EDGE('',*,*,#240,.F.);
#180=ORIENTED_EDGE('',*,*,#242,.T.);
#181=ORIENTED_EDGE('',*,*,#243,.T.);
#182=ORIENTED_EDGE('',*,*,#244,.F.);
#183=ORIENTED_EDGE('',*,*,#245,.T.);
#184=ORIENTED_EDGE('',*,*,#246,.T.);
#185=ORIENTED_EDGE('',*,*,#242,.F.);
#186=ORIENTED_EDGE('',*,*,#246,.F.);
#187=ORIENTED_EDGE('',*,*,#247,.T.);
#188=ORIENTED_EDGE('',*,*,#244,.T.);
#189=ORIENTED_EDGE('',*,*,#243,.F.);
#190=ORIENTED_EDGE('',*,*,#247,.F.);
#191=ORIENTED_EDGE('',*,*,#245,.F.);
#192=ORIENTED_EDGE('',*,*,#248,.T.);
#193=ORIENTED_EDGE('',*,*,#248,.F.);
#194=ORIENTED_EDGE('',*,*,#224,.F.);
#195=ORIENTED_EDGE('',*,*,#249,.T.);
#196=ORIENTED_EDGE('',*,*,#249,.F.);
#197=ORIENTED_EDGE('',*,*,#223,.F.);
#198=VERTEX_POINT('',#435);
#199=VERTEX_POINT('',#436);
#200=VERTEX_POINT('',#440);
#201=VERTEX_POINT('',#442);
#202=VERTEX_POINT('',#443);
#203=VERTEX_POINT('',#447);
#204=VERTEX_POINT('',#449);
#205=VERTEX_POINT('',#453);
#206=VERTEX_POINT('',#456);
#207=VERTEX_POINT('',#457);
#208=VERTEX_POINT('',#461);
#209=VERTEX_POINT('',#463);
#210=VERTEX_POINT('',#469);
#211=VERTEX_POINT('',#470);
#212=VERTEX_POINT('',#474);
#213=VERTEX_POINT('',#476);
#214=VERTEX_POINT('',#486);
#215=VERTEX_POINT('',#487);
#216=VERTEX_POINT('',#491);
#217=VERTEX_POINT('',#493);
#218=VERTEX_POINT('',#499);
#219=VERTEX_POINT('',#501);
#220=EDGE_CURVE('',#198,#199,#250,.T.);
#221=EDGE_CURVE('',#199,#198,#251,.T.);
#222=EDGE_CURVE('',#200,#200,#252,.T.);
#223=EDGE_CURVE('',#201,#202,#253,.T.);
#224=EDGE_CURVE('',#202,#201,#254,.T.);
#225=EDGE_CURVE('',#203,#203,#255,.T.);
#226=EDGE_CURVE('',#204,#204,#256,.T.);
#227=EDGE_CURVE('',#205,#205,#257,.T.);
#228=EDGE_CURVE('',#206,#207,#258,.T.);
#229=EDGE_CURVE('',#207,#206,#259,.T.);
#230=EDGE_CURVE('',#207,#208,#260,.T.);
#231=EDGE_CURVE('',#209,#208,#261,.T.);
#232=EDGE_CURVE('',#206,#209,#262,.T.);
#233=EDGE_CURVE('',#208,#209,#263,.T.);
#234=EDGE_CURVE('',#210,#211,#264,.T.);
#235=EDGE_CURVE('',#211,#210,#265,.T.);
#236=EDGE_CURVE('',#211,#212,#43,.T.);
#237=EDGE_CURVE('',#212,#213,#266,.T.);
#238=EDGE_CURVE('',#210,#213,#44,.T.);
#239=EDGE_CURVE('',#213,#212,#267,.T.);
#240=EDGE_CURVE('',#198,#212,#45,.T.);
#241=EDGE_CURVE('',#199,#213,#46,.T.);
#242=EDGE_CURVE('',#214,#215,#268,.T.);
#243=EDGE_CURVE('',#215,#214,#269,.T.);
#244=EDGE_CURVE('',#216,#214,#47,.T.);
#245=EDGE_CURVE('',#216,#217,#270,.T.);
#246=EDGE_CURVE('',#217,#215,#48,.T.);
#247=EDGE_CURVE('',#217,#216,#271,.T.);
#248=EDGE_CURVE('',#201,#218,#49,.T.);
#249=EDGE_CURVE('',#202,#219,#50,.T.);
#250=CIRCLE('',#297,31.75);
#251=CIRCLE('',#298,31.75);
#252=CIRCLE('',#300,31.5);
#253=CIRCLE('',#301,22.4583320508297);
#254=CIRCLE('',#302,22.4583320508297);
#255=CIRCLE('',#304,31.5);
#256=CIRCLE('',#305,25.8);
#257=CIRCLE('',#308,25.);
#258=CIRCLE('',#310,25.);
#259=CIRCLE('',#311,25.);
#260=CIRCLE('',#313,0.8);
#261=CIRCLE('',#314,25.8);
#262=CIRCLE('',#315,0.8);
#263=CIRCLE('',#317,25.8);
#264=CIRCLE('',#319,28.75);
#265=CIRCLE('',#320,28.75);
#266=CIRCLE('',#322,31.75);
#267=CIRCLE('',#324,31.75);
#268=CIRCLE('',#328,12.5);
#269=CIRCLE('',#329,12.5);
#270=CIRCLE('',#331,12.5);
#271=CIRCLE('',#333,12.5);
#272=INVISIBILITY((#273,#274,#275));
#273=PRESENTATION_LAYER_ASSIGNMENT('100','Layer 100',(#294));
#274=PRESENTATION_LAYER_ASSIGNMENT('101','Layer 101',(#295));
#275=PRESENTATION_LAYER_ASSIGNMENT('102','Layer 102',(#296));
#276=PRESENTATION_LAYER_ASSIGNMENT('98','Layer 98',(#38));
#277=STYLED_ITEM('',(#281),#294);
#278=STYLED_ITEM('',(#282),#295);
#279=STYLED_ITEM('',(#283),#296);
#280=STYLED_ITEM('',(#284),#38);
#281=PRESENTATION_STYLE_ASSIGNMENT((#285));
#282=PRESENTATION_STYLE_ASSIGNMENT((#286));
#283=PRESENTATION_STYLE_ASSIGNMENT((#287));
#284=PRESENTATION_STYLE_ASSIGNMENT((#33));
#285=CURVE_STYLE('',#290,POSITIVE_LENGTH_MEASURE(0.7),#288);
#286=CURVE_STYLE('',#291,POSITIVE_LENGTH_MEASURE(0.7),#288);
#287=CURVE_STYLE('',#292,POSITIVE_LENGTH_MEASURE(0.7),#288);
#288=COLOUR_RGB('Medium Maroon',0.6,0.4,0.4);
#289=COLOUR_RGB('Medium Gray',0.490196078431373,0.490196078431373,0.490196078431373);
#290=DRAUGHTING_PRE_DEFINED_CURVE_FONT('continuous');
#291=DRAUGHTING_PRE_DEFINED_CURVE_FONT('continuous');
#292=DRAUGHTING_PRE_DEFINED_CURVE_FONT('continuous');
#293=AXIS2_PLACEMENT_3D('',#430,#336,#337);
#294=AXIS2_PLACEMENT_3D('PCS',#431,#338,#339);
#295=AXIS2_PLACEMENT_3D('CSW',#432,#340,#341);
#296=AXIS2_PLACEMENT_3D('MCS',#433,#342,#343);
#297=AXIS2_PLACEMENT_3D('',#434,#344,#345);
#298=AXIS2_PLACEMENT_3D('',#437,#346,#347);
#299=AXIS2_PLACEMENT_3D('',#438,#348,#349);
#300=AXIS2_PLACEMENT_3D('',#439,#350,#351);
#301=AXIS2_PLACEMENT_3D('',#441,#352,#353);
#302=AXIS2_PLACEMENT_3D('',#444,#354,#355);
#303=AXIS2_PLACEMENT_3D('',#445,#356,#357);
#304=AXIS2_PLACEMENT_3D('',#446,#358,#359);
#305=AXIS2_PLACEMENT_3D('',#448,#360,#361);
#306=AXIS2_PLACEMENT_3D('',#450,#362,#363);
#307=AXIS2_PLACEMENT_3D('',#451,#364,#365);
#308=AXIS2_PLACEMENT_3D('',#452,#366,#367);
#309=AXIS2_PLACEMENT_3D('',#454,#368,#369);
#310=AXIS2_PLACEMENT_3D('',#455,#370,#371);
#311=AXIS2_PLACEMENT_3D('',#458,#372,#373);
#312=AXIS2_PLACEMENT_3D('',#459,#374,#375);
#313=AXIS2_PLACEMENT_3D('',#460,#376,#377);
#314=AXIS2_PLACEMENT_3D('',#462,#378,#379);
#315=AXIS2_PLACEMENT_3D('',#464,#380,#381);
#316=AXIS2_PLACEMENT_3D('',#465,#382,#383);
#317=AXIS2_PLACEMENT_3D('',#466,#384,#385);
#318=AXIS2_PLACEMENT_3D('',#467,#386,#387);
#319=AXIS2_PLACEMENT_3D('',#468,#388,#389);
#320=AXIS2_PLACEMENT_3D('',#471,#390,#391);
#321=AXIS2_PLACEMENT_3D('',#472,#392,#393);
#322=AXIS2_PLACEMENT_3D('',#475,#395,#396);
#323=AXIS2_PLACEMENT_3D('',#478,#398,#399);
#324=AXIS2_PLACEMENT_3D('',#479,#400,#401);
#325=AXIS2_PLACEMENT_3D('',#480,#402,#403);
#326=AXIS2_PLACEMENT_3D('',#483,#406,#407);
#327=AXIS2_PLACEMENT_3D('',#484,#408,#409);
#328=AXIS2_PLACEMENT_3D('',#485,#410,#411);
#329=AXIS2_PLACEMENT_3D('',#488,#412,#413);
#330=AXIS2_PLACEMENT_3D('',#489,#414,#415);
#331=AXIS2_PLACEMENT_3D('',#492,#417,#418);
#332=AXIS2_PLACEMENT_3D('',#495,#420,#421);
#333=AXIS2_PLACEMENT_3D('',#496,#422,#423);
#334=AXIS2_PLACEMENT_3D('',#497,#424,#425);
#335=AXIS2_PLACEMENT_3D('',#502,#428,#429);
#336=DIRECTION('',(0.,0.,1.));
#337=DIRECTION('',(1.,0.,0.));
#338=DIRECTION('',(0.,0.,1.));
#339=DIRECTION('',(1.,0.,0.));
#340=DIRECTION('',(0.,0.,1.));
#341=DIRECTION('',(1.,0.,0.));
#342=DIRECTION('',(0.,0.,1.));
#343=DIRECTION('',(1.,0.,0.));
#344=DIRECTION('',(0.,0.,-1.));
#345=DIRECTION('',(-1.,0.,0.));
#346=DIRECTION('',(0.,0.,-1.));
#347=DIRECTION('',(-1.,0.,0.));
#348=DIRECTION('',(0.,0.,-1.));
#349=DIRECTION('',(0.,1.,0.));
#350=DIRECTION('',(0.,0.,-1.));
#351=DIRECTION('',(-1.,0.,0.));
#352=DIRECTION('',(0.,0.,-1.));
#353=DIRECTION('',(-1.,0.,0.));
#354=DIRECTION('',(0.,0.,-1.));
#355=DIRECTION('',(-1.,0.,0.));
#356=DIRECTION('',(0.,0.,-1.));
#357=DIRECTION('',(0.,1.,0.));
#358=DIRECTION('',(0.,0.,-1.));
#359=DIRECTION('',(-1.,0.,0.));
#360=DIRECTION('',(0.,0.,1.));
#361=DIRECTION('',(-0.950077010216016,-0.312015503876005,0.));
#362=DIRECTION('',(0.,0.,-1.));
#363=DIRECTION('',(0.,1.,0.));
#364=DIRECTION('',(0.,0.,-1.));
#365=DIRECTION('',(0.,1.,0.));
#366=DIRECTION('',(0.,0.,-1.));
#367=DIRECTION('',(-0.94673966854674,0.322000000000014,0.));
#368=DIRECTION('',(0.,0.,-1.));
#369=DIRECTION('',(0.,1.,0.));
#370=DIRECTION('',(0.,0.,-1.));
#371=DIRECTION('',(-0.992532115349424,0.121983605455803,0.));
#372=DIRECTION('',(0.,0.,-1.));
#373=DIRECTION('',(0.,1.,0.));
#374=DIRECTION('',(0.,0.,-1.));
#375=DIRECTION('',(0.,1.,0.));
#376=DIRECTION('',(1.,4.090746838492E-13,0.));
#377=DIRECTION('',(4.09074683849201E-13,-0.999999999999998,0.));
#378=DIRECTION('',(0.,0.,-1.));
#379=DIRECTION('',(0.,-1.,0.));
#380=DIRECTION('',(-1.,-4.089272323538E-13,0.));
#381=DIRECTION('',(-4.08927232353799E-13,0.999999999999998,0.));
#382=DIRECTION('',(0.,0.,-1.));
#383=DIRECTION('',(-0.0046527783827139,0.999989175768079,0.));
#384=DIRECTION('',(0.,0.,-1.));
#385=DIRECTION('',(0.,1.,0.));
#386=DIRECTION('',(0.,0.,-1.));
#387=DIRECTION('',(0.0046527783827149,-0.999989175768079,0.));
#388=DIRECTION('',(0.,0.,1.));
#389=DIRECTION('',(0.,-1.,0.));
#390=DIRECTION('',(0.,0.,1.));
#391=DIRECTION('',(0.,1.,0.));
#392=DIRECTION('',(0.,0.,-1.));
#393=DIRECTION('',(0.,1.,0.));
#394=DIRECTION('',(-2.78652315827319E-12,0.707106781186547,-0.707106781186547));
#395=DIRECTION('',(0.,0.,1.));
#396=DIRECTION('',(0.,1.,0.));
#397=DIRECTION('',(2.78611697391619E-12,-0.707106781186547,-0.707106781186547));
#398=DIRECTION('',(0.,0.,-1.));
#399=DIRECTION('',(0.,1.,2.02054663544981E-17));
#400=DIRECTION('',(0.,0.,1.));
#401=DIRECTION('',(0.,-1.,0.));
#402=DIRECTION('',(0.,0.,-1.));
#403=DIRECTION('',(0.,1.,2.02054663544981E-17));
#404=DIRECTION('',(3.175171347466E-13,0.,1.));
#405=DIRECTION('',(-3.175242463891E-13,0.,1.));
#406=DIRECTION('',(0.,0.,-1.));
#407=DIRECTION('',(0.,1.,0.));
#408=DIRECTION('',(0.,0.,-1.));
#409=DIRECTION('',(0.,1.,0.));
#410=DIRECTION('',(0.,0.,1.));
#411=DIRECTION('',(-1.,0.,0.));
#412=DIRECTION('',(0.,0.,1.));
#413=DIRECTION('',(-1.,0.,0.));
#414=DIRECTION('',(0.,0.,-1.));
#415=DIRECTION('',(0.,1.,0.));
#416=DIRECTION('',(-2.114902063601E-13,0.,1.));
#417=DIRECTION('',(0.,0.,1.));
#418=DIRECTION('',(-1.,0.,0.));
#419=DIRECTION('',(2.114908338869E-13,0.,1.));
#420=DIRECTION('',(0.,0.,-1.));
#421=DIRECTION('',(0.,1.,0.));
#422=DIRECTION('',(0.,0.,1.));
#423=DIRECTION('',(-1.,0.,0.));
#424=DIRECTION('',(0.,0.,-1.));
#425=DIRECTION('',(0.,1.,0.));
#426=DIRECTION('',(0.,-0.144306116415197,0.989533094325381));
#427=DIRECTION('',(0.,0.144306116415197,0.989533094325381));
#428=DIRECTION('',(0.,0.,-1.));
#429=DIRECTION('',(0.,1.,-3.40017598531745E-16));
#430=CARTESIAN_POINT('',(0.,0.,0.));
#431=CARTESIAN_POINT('',(0.,0.,0.));
#432=CARTESIAN_POINT('',(0.,0.,-250.));
#433=CARTESIAN_POINT('',(0.,0.,0.));
#434=CARTESIAN_POINT('',(0.,0.,-250.));
#435=CARTESIAN_POINT('',(2.851083320695E-11,31.75,-250.));
#436=CARTESIAN_POINT('',(-3.94687868107999E-11,-31.75,-250.));
#437=CARTESIAN_POINT('',(0.,0.,-250.));
#438=CARTESIAN_POINT('',(0.,0.,-250.));
#439=CARTESIAN_POINT('',(0.,0.,-1.6));
#440=CARTESIAN_POINT('',(-31.5,0.,-1.6));
#441=CARTESIAN_POINT('',(0.,0.,-1.60000000000001));
#442=CARTESIAN_POINT('',(0.,22.4583320508297,-1.60000000000001));
#443=CARTESIAN_POINT('',(2.7503524460237E-15,-22.4583320508297,-1.60000000000001));
#444=CARTESIAN_POINT('',(0.,0.,-1.60000000000001));
#445=CARTESIAN_POINT('',(0.,0.,-1.60000000000001));
#446=CARTESIAN_POINT('',(0.,0.,-11.6));
#447=CARTESIAN_POINT('',(-31.5,0.,-11.6));
#448=CARTESIAN_POINT('',(0.,0.,-11.6));
#449=CARTESIAN_POINT('',(-24.5119868635732,-8.05000000000093,-11.6));
#450=CARTESIAN_POINT('',(0.,0.,-11.6));
#451=CARTESIAN_POINT('',(0.,0.,98.65));
#452=CARTESIAN_POINT('',(0.,0.,-12.4));
#453=CARTESIAN_POINT('',(-23.6684917136685,8.05000000000034,-12.4));
#454=CARTESIAN_POINT('',(0.,0.,-12.4));
#455=CARTESIAN_POINT('',(0.,0.,-22.));
#456=CARTESIAN_POINT('',(1.022316884925E-11,-25.,-22.));
#457=CARTESIAN_POINT('',(-1.022685338191E-11,25.,-22.));
#458=CARTESIAN_POINT('',(0.,0.,-22.));
#459=CARTESIAN_POINT('',(0.,0.,0.31999999999999));
#460=CARTESIAN_POINT('',(-1.055411312899E-11,25.8,-22.));
#461=CARTESIAN_POINT('',(0.,25.8,-22.8));
#462=CARTESIAN_POINT('',(0.,0.,-22.8));
#463=CARTESIAN_POINT('',(0.,-25.8,-22.8));
#464=CARTESIAN_POINT('',(1.055031063513E-11,-25.8,-22.));
#465=CARTESIAN_POINT('',(0.,0.,-22.));
#466=CARTESIAN_POINT('',(0.,0.,-22.8));
#467=CARTESIAN_POINT('',(0.,0.,-22.));
#468=CARTESIAN_POINT('',(0.,0.,-22.8));
#469=CARTESIAN_POINT('',(0.,-28.75,-22.8));
#470=CARTESIAN_POINT('',(0.,28.75,-22.8));
#471=CARTESIAN_POINT('',(0.,0.,-22.8));
#472=CARTESIAN_POINT('',(0.,0.,-22.8));
#473=CARTESIAN_POINT('',(6.884388294079E-11,28.75,-22.8));
#474=CARTESIAN_POINT('',(5.70216664139E-11,31.75,-25.8));
#475=CARTESIAN_POINT('',(0.,0.,-25.8));
#476=CARTESIAN_POINT('',(-5.703032230579E-11,-31.75,-25.8));
#477=CARTESIAN_POINT('',(-6.88508155384E-11,-28.75,-22.8));
#478=CARTESIAN_POINT('',(0.,0.,-24.3));
#479=CARTESIAN_POINT('',(0.,0.,-25.8));
#480=CARTESIAN_POINT('',(0.,0.,-24.3));
#481=CARTESIAN_POINT('',(-1.321312379204E-11,31.75,-247.));
#482=CARTESIAN_POINT('',(1.320604099549E-11,-31.75,-247.));
#483=CARTESIAN_POINT('',(0.,0.,0.31999999999999));
#484=CARTESIAN_POINT('',(0.,0.,0.31999999999999));
#485=CARTESIAN_POINT('',(0.,0.,93.4));
#486=CARTESIAN_POINT('',(-2.19180783021279E-12,-12.5,93.4));
#487=CARTESIAN_POINT('',(2.19181433367306E-12,12.5,93.4));
#488=CARTESIAN_POINT('',(0.,0.,93.4));
#489=CARTESIAN_POINT('',(0.,0.,93.4));
#490=CARTESIAN_POINT('',(0.,-12.5,83.03636251562));
#491=CARTESIAN_POINT('',(7.65404249467096E-16,-12.5,66.686080821567));
#492=CARTESIAN_POINT('',(0.,0.,66.686080821567));
#493=CARTESIAN_POINT('',(0.,12.5,66.686080821567));
#494=CARTESIAN_POINT('',(0.,12.5,83.03636251562));
#495=CARTESIAN_POINT('',(0.,0.,98.65));
#496=CARTESIAN_POINT('',(0.,0.,66.686080821567));
#497=CARTESIAN_POINT('',(0.,0.,98.65));
#498=CARTESIAN_POINT('',(0.,22.16666698729,0.399999999999991));
#499=CARTESIAN_POINT('',(0.,12.68755242227,65.4));
#500=CARTESIAN_POINT('',(0.,-22.16666698729,0.399999999999991));
#501=CARTESIAN_POINT('',(0.,-12.68755242227,65.4));
#502=CARTESIAN_POINT('',(0.,0.,32.9));
#503=MECHANICAL_DESIGN_GEOMETRIC_PRESENTATION_REPRESENTATION('',(#277,#278,
#279,#280),#504);
#504=(
GEOMETRIC_REPRESENTATION_CONTEXT(3)
GLOBAL_UNCERTAINTY_ASSIGNED_CONTEXT((#505))
GLOBAL_UNIT_ASSIGNED_CONTEXT((#511,#507,#506))
REPRESENTATION_CONTEXT('2080.40-BLA.63','TOP_LEVEL_ASSEMBLY_PART')
);
#505=UNCERTAINTY_MEASURE_WITH_UNIT(LENGTH_MEASURE(2.E-5),#511,
'DISTANCE_ACCURACY_VALUE','Maximum Tolerance applied to model');
#506=(
NAMED_UNIT(*)
SI_UNIT($,.STERADIAN.)
SOLID_ANGLE_UNIT()
);
#507=(
CONVERSION_BASED_UNIT('DEGREE',#509)
NAMED_UNIT(#508)
PLANE_ANGLE_UNIT()
);
#508=DIMENSIONAL_EXPONENTS(0.,0.,0.,0.,0.,0.,0.);
#509=PLANE_ANGLE_MEASURE_WITH_UNIT(PLANE_ANGLE_MEASURE(0.0174532925),#510);
#510=(
NAMED_UNIT(*)
PLANE_ANGLE_UNIT()
SI_UNIT($,.RADIAN.)
);
#511=(
LENGTH_UNIT()
NAMED_UNIT(*)
SI_UNIT(.MILLI.,.METRE.)
);
ENDSEC;
END-ISO-10303-21;
