  0
SECTION
  2
HEADER
  9
$ACADVER
  1
AC1018
  9
$ACADMAINTVER
 70
   104
  9
$DWGCODEPAGE
  3
ANSI_1250
  9
$LASTSAVEDBY
  1
hc7230
  9
$INSBASE
 10
0.0
 20
0.0
 30
0.0
  9
$EXTMIN
 10
142.3225713333333
 20
213.1691216666665
 30
0.0
  9
$EXTMAX
 10
314.293402
 20
303.7261226666667
 30
0.0
  9
$LIMMIN
 10
-0.5
 20
-0.5
  9
$LIMMAX
 10
5.0
 20
5.0
  9
$ORTHOMODE
 70
     0
  9
$REGENMODE
 70
     1
  9
$FILLMODE
 70
     1
  9
$QTEXTMODE
 70
     0
  9
$MIRRTEXT
 70
     1
  9
$LTSCALE
 40
1.0
  9
$ATTMODE
 70
     1
  9
$TEXTSIZE
 40
0.2
  9
$TRACEWID
 40
0.05
  9
$TEXTSTYLE
  7
Standard
  9
$CLAYER
  8
0
  9
$CELTYPE
  6
ByLayer
  9
$CECOLOR
 62
   256
  9
$CELTSCALE
 40
1.0
  9
$DISPSILH
 70
     0
  9
$DIMSCALE
 40
1.0
  9
$DIMASZ
 40
0.18
  9
$DIMEXO
 40
0.0625
  9
$DIMDLI
 40
0.38
  9
$DIMRND
 40
0.0
  9
$DIMDLE
 40
0.0
  9
$DIMEXE
 40
0.18
  9
$DIMTP
 40
0.0
  9
$DIMTM
 40
0.0
  9
$DIMTXT
 40
0.18
  9
$DIMCEN
 40
0.09
  9
$DIMTSZ
 40
0.0
  9
$DIMTOL
 70
     0
  9
$DIMLIM
 70
     0
  9
$DIMTIH
 70
     1
  9
$DIMTOH
 70
     1
  9
$DIMSE1
 70
     0
  9
$DIMSE2
 70
     0
  9
$DIMTAD
 70
     0
  9
$DIMZIN
 70
     0
  9
$DIMBLK
  1

  9
$DIMASO
 70
     1
  9
$DIMSHO
 70
     1
  9
$DIMPOST
  1

  9
$DIMAPOST
  1

  9
$DIMALT
 70
     0
  9
$DIMALTD
 70
     2
  9
$DIMALTF
 40
25.4
  9
$DIMLFAC
 40
1.0
  9
$DIMTOFL
 70
     0
  9
$DIMTVP
 40
0.0
  9
$DIMTIX
 70
     0
  9
$DIMSOXD
 70
     0
  9
$DIMSAH
 70
     0
  9
$DIMBLK1
  1

  9
$DIMBLK2
  1

  9
$DIMSTYLE
  2
Standard
  9
$DIMCLRD
 70
     0
  9
$DIMCLRE
 70
     0
  9
$DIMCLRT
 70
     0
  9
$DIMTFAC
 40
1.0
  9
$DIMGAP
 40
0.09
  9
$DIMJUST
 70
     0
  9
$DIMSD1
 70
     0
  9
$DIMSD2
 70
     0
  9
$DIMTOLJ
 70
     1
  9
$DIMTZIN
 70
     0
  9
$DIMALTZ
 70
     0
  9
$DIMALTTZ
 70
     0
  9
$DIMUPT
 70
     0
  9
$DIMDEC
 70
     4
  9
$DIMTDEC
 70
     4
  9
$DIMALTU
 70
     2
  9
$DIMALTTD
 70
     2
  9
$DIMTXSTY
  7
Standard
  9
$DIMAUNIT
 70
     0
  9
$DIMADEC
 70
     0
  9
$DIMALTRND
 40
0.0
  9
$DIMAZIN
 70
     0
  9
$DIMDSEP
 70
    46
  9
$DIMATFIT
 70
     3
  9
$DIMFRAC
 70
     0
  9
$DIMLDRBLK
  1

  9
$DIMLUNIT
 70
     2
  9
$DIMLWD
 70
    -2
  9
$DIMLWE
 70
    -2
  9
$DIMTMOVE
 70
     0
  9
$LUNITS
 70
     2
  9
$LUPREC
 70
     4
  9
$SKETCHINC
 40
0.1
  9
$FILLETRAD
 40
0.5
  9
$AUNITS
 70
     0
  9
$AUPREC
 70
     0
  9
$MENU
  1
.
  9
$ELEVATION
 40
0.0
  9
$PELEVATION
 40
0.0
  9
$THICKNESS
 40
0.0
  9
$LIMCHECK
 70
     0
  9
$CHAMFERA
 40
0.0
  9
$CHAMFERB
 40
0.0
  9
$CHAMFERC
 40
0.0
  9
$CHAMFERD
 40
0.0
  9
$SKPOLY
 70
     0
  9
$TDCREATE
 40
2458835.362071759
  9
$TDUCREATE
 40
2458835.320407963
  9
$TDUPDATE
 40
2458835.365219908
  9
$TDUUPDATE
 40
2458835.323553241
  9
$TDINDWG
 40
0.0020949190
  9
$TDUSRTIMER
 40
0.0020949190
  9
$USRTIMER
 70
     1
  9
$ANGBASE
 50
0.0
  9
$ANGDIR
 70
     0
  9
$PDMODE
 70
     0
  9
$PDSIZE
 40
0.0
  9
$PLINEWID
 40
0.0
  9
$SPLFRAME
 70
     0
  9
$SPLINETYPE
 70
     6
  9
$SPLINESEGS
 70
     8
  9
$HANDSEED
  5
36A
  9
$SURFTAB1
 70
     6
  9
$SURFTAB2
 70
     6
  9
$SURFTYPE
 70
     6
  9
$SURFU
 70
     6
  9
$SURFV
 70
     6
  9
$UCSBASE
  2

  9
$UCSNAME
  2

  9
$UCSORG
 10
205.144248
 20
243.731161
 30
0.0
  9
$UCSXDIR
 10
1.0
 20
0.0
 30
0.0
  9
$UCSYDIR
 10
0.0
 20
1.0
 30
0.0
  9
$UCSORTHOREF
  2

  9
$UCSORTHOVIEW
 70
     0
  9
$UCSORGTOP
 10
0.0
 20
0.0
 30
0.0
  9
$UCSORGBOTTOM
 10
0.0
 20
0.0
 30
0.0
  9
$UCSORGLEFT
 10
0.0
 20
0.0
 30
0.0
  9
$UCSORGRIGHT
 10
0.0
 20
0.0
 30
0.0
  9
$UCSORGFRONT
 10
0.0
 20
0.0
 30
0.0
  9
$UCSORGBACK
 10
0.0
 20
0.0
 30
0.0
  9
$PUCSBASE
  2

  9
$PUCSNAME
  2

  9
$PUCSORG
 10
0.0
 20
0.0
 30
0.0
  9
$PUCSXDIR
 10
1.0
 20
0.0
 30
0.0
  9
$PUCSYDIR
 10
0.0
 20
1.0
 30
0.0
  9
$PUCSORTHOREF
  2

  9
$PUCSORTHOVIEW
 70
     0
  9
$PUCSORGTOP
 10
0.0
 20
0.0
 30
0.0
  9
$PUCSORGBOTTOM
 10
0.0
 20
0.0
 30
0.0
  9
$PUCSORGLEFT
 10
0.0
 20
0.0
 30
0.0
  9
$PUCSORGRIGHT
 10
0.0
 20
0.0
 30
0.0
  9
$PUCSORGFRONT
 10
0.0
 20
0.0
 30
0.0
  9
$PUCSORGBACK
 10
0.0
 20
0.0
 30
0.0
  9
$USERI1
 70
     0
  9
$USERI2
 70
     0
  9
$USERI3
 70
     0
  9
$USERI4
 70
     0
  9
$USERI5
 70
     0
  9
$USERR1
 40
0.0
  9
$USERR2
 40
0.0
  9
$USERR3
 40
0.0
  9
$USERR4
 40
0.0
  9
$USERR5
 40
0.0
  9
$WORLDVIEW
 70
     1
  9
$SHADEDGE
 70
     3
  9
$SHADEDIF
 70
    70
  9
$TILEMODE
 70
     1
  9
$MAXACTVP
 70
    64
  9
$PINSBASE
 10
0.0
 20
0.0
 30
0.0
  9
$PLIMCHECK
 70
     0
  9
$PEXTMIN
 10
-0.5
 20
-0.5
 30
-0.5
  9
$PEXTMAX
 10
5.0
 20
5.0
 30
5.0
  9
$PLIMMIN
 10
-0.5
 20
-0.5
  9
$PLIMMAX
 10
5.0
 20
5.0
  9
$UNITMODE
 70
     0
  9
$VISRETAIN
 70
     1
  9
$PLINEGEN
 70
     0
  9
$PSLTSCALE
 70
     1
  9
$TREEDEPTH
 70
  3020
  9
$CMLSTYLE
  2
Standard
  9
$CMLJUST
 70
     0
  9
$CMLSCALE
 40
1.0
  9
$PROXYGRAPHICS
 70
     1
  9
$MEASUREMENT
 70
     1
  9
$CELWEIGHT
370
    13
  9
$ENDCAPS
280
     0
  9
$JOINSTYLE
280
     0
  9
$LWDISPLAY
290
     0
  9
$INSUNITS
 70
     4
  9
$HYPERLINKBASE
  1

  9
$STYLESHEET
  1

  9
$XEDIT
290
     1
  9
$CEPSNTYPE
380
     0
  9
$PSTYLEMODE
290
     1
  9
$FINGERPRINTGUID
  2
{542309C8-B948-4A49-9484-6734E324D1D5}
  9
$VERSIONGUID
  2
{6F9B6E67-32A4-C041-AC19-BF7ECB9CE085}
  9
$EXTNAMES
290
     1
  9
$PSVPSCALE
 40
0.0
  9
$OLESTARTUP
290
     0
  9
$SORTENTS
280
   127
  9
$INDEXCTL
280
     0
  9
$HIDETEXT
280
     1
  9
$XCLIPFRAME
290
     0
  9
$HALOGAP
280
     0
  9
$OBSCOLOR
 70
   257
  9
$OBSLTYPE
280
     0
  9
$INTERSECTIONDISPLAY
280
     0
  9
$INTERSECTIONCOLOR
 70
   257
  9
$DIMASSOC
280
     2
  9
$PROJECTNAME
  1

  0
ENDSEC
  0
SECTION
  2
CLASSES
  0
CLASS
  1
ACDBDICTIONARYWDFLT
  2
AcDbDictionaryWithDefault
  3
ObjectDBX Classes
 90
        0
 91
        1
280
     0
281
     0
  0
CLASS
  1
VISUALSTYLE
  2
AcDbVisualStyle
  3
ObjectDBX Classes
 90
     4095
 91
       24
280
     0
281
     0
  0
CLASS
  1
MATERIAL
  2
AcDbMaterial
  3
ObjectDBX Classes
 90
     1153
 91
        3
280
     0
281
     0
  0
CLASS
  1
SCALE
  2
AcDbScale
  3
ObjectDBX Classes
 90
     1153
 91
       33
280
     0
281
     0
  0
CLASS
  1
TABLESTYLE
  2
AcDbTableStyle
  3
ObjectDBX Classes
 90
     4095
 91
        1
280
     0
281
     0
  0
CLASS
  1
MLEADERSTYLE
  2
AcDbMLeaderStyle
  3
ACDB_MLEADERSTYLE_CLASS
 90
     4095
 91
        1
280
     0
281
     0
  0
CLASS
  1
SUN
  2
AcDbSun
  3
SCENEOE
 90
     1153
 91
        0
280
     0
281
     0
  0
CLASS
  1
DIMASSOC
  2
AcDbDimAssoc
  3
"AcDbDimAssoc|Product Desc:     AcDim ARX App For Dimension|Company:          Autodesk, Inc.|WEB Address:      www.autodesk.com"
 90
        0
 91
        6
280
     0
281
     0
  0
CLASS
  1
DICTIONARYVAR
  2
AcDbDictionaryVar
  3
ObjectDBX Classes
 90
        0
 91
        8
280
     0
281
     0
  0
CLASS
  1
CELLSTYLEMAP
  2
AcDbCellStyleMap
  3
ObjectDBX Classes
 90
     1152
 91
        2
280
     0
281
     0
  0
CLASS
  1
ACDBSECTIONVIEWSTYLE
  2
AcDbSectionViewStyle
  3
ObjectDBX Classes
 90
     1025
 91
        1
280
     0
281
     0
  0
CLASS
  1
ACDBDETAILVIEWSTYLE
  2
AcDbDetailViewStyle
  3
ObjectDBX Classes
 90
     1025
 91
        1
280
     0
281
     0
  0
CLASS
  1
SORTENTSTABLE
  2
AcDbSortentsTable
  3
ObjectDBX Classes
 90
        0
 91
        1
280
     0
281
     0
  0
ENDSEC
  0
SECTION
  2
TABLES
  0
TABLE
  2
VPORT
  5
8
330
0
100
AcDbSymbolTable
 70
    16
  0
VPORT
  5
29
330
8
100
AcDbSymbolTableRecord
100
AcDbViewportTableRecord
  2
*Active
 70
     0
 10
0.0
 20
0.0
 11
1.0
 21
1.0
 12
229.0264298932202
 22
261.8980380722315
 13
0.0
 23
0.0
 14
0.5
 24
0.5
 15
0.5
 25
0.5
 16
0.0
 26
0.0
 36
1.0
 17
0.0
 27
0.0
 37
0.0
 40
129.3546731342891
 41
2.283154121863799
 42
50.0
 43
298.235575
 44
-298.235575
 50
0.0
 51
0.0
 71
     0
 72
   100
 73
     1
 74
     3
 75
     0
 76
     0
 77
     0
 78
     0
281
     0
 65
     1
110
205.144248
120
243.731161
130
0.0
111
1.0
121
0.0
131
0.0
112
0.0
122
1.0
132
0.0
 79
     0
146
0.0
1001
ACAD_NAV_VCDISPLAY
1070
     3
  0
VPORT
  5
238
330
8
100
AcDbSymbolTableRecord
100
AcDbViewportTableRecord
  2
L1
 70
     0
 10
0.0
 20
0.0
 11
1.0
 21
1.0
 12
227.803772
 22
258.456787
 13
0.0
 23
0.0
 14
0.5
 24
0.5
 15
0.5
 25
0.5
 16
0.0
 26
0.0
 36
1.0
 17
0.0
 27
0.0
 37
0.0
 40
209.020833
 41
0.084952
 42
50.0
 43
298.235575
 44
-298.235575
 50
0.0
 51
0.0
 71
     0
 72
   100
 73
     1
 74
     3
 75
     0
 76
     0
 77
     0
 78
     0
281
     0
 65
     1
110
0.0
120
0.0
130
0.0
111
1.0
121
0.0
131
0.0
112
0.0
122
1.0
132
0.0
 79
     0
146
0.0
  0
VPORT
  5
239
330
8
100
AcDbSymbolTableRecord
100
AcDbViewportTableRecord
  2
L2
 70
     0
 10
0.0
 20
0.0
 11
0.5
 21
1.0
 12
0.0
 22
0.0
 13
0.0
 23
0.0
 14
0.5
 24
0.5
 15
0.5
 25
0.5
 16
0.0
 26
-1.0
 36
0.0
 17
0.0
 27
0.0
 37
0.0
 40
1485.861838
 41
0.01195
 42
50.0
 43
769.0441269999999
 44
-769.0441269999999
 50
0.0
 51
0.0
 71
     0
 72
   100
 73
     1
 74
     3
 75
     0
 76
     0
 77
     0
 78
     0
281
     0
 65
     1
110
0.0
120
0.0
130
0.0
111
1.0
121
0.0
131
0.0
112
0.0
122
1.0
132
0.0
 79
     0
146
0.0
  0
VPORT
  5
23A
330
8
100
AcDbSymbolTableRecord
100
AcDbViewportTableRecord
  2
L2
 70
     0
 10
0.5
 20
0.0
 11
1.0
 21
1.0
 12
0.0
 22
0.0
 13
0.0
 23
0.0
 14
0.5
 24
0.5
 15
0.5
 25
0.5
 16
1.0
 26
0.0
 36
0.0
 17
0.0
 27
0.0
 37
0.0
 40
1485.861838
 41
0.01195
 42
50.0
 43
750.245812
 44
-750.245812
 50
0.0
 51
0.0
 71
     0
 72
   100
 73
     1
 74
     3
 75
     0
 76
     0
 77
     0
 78
     0
281
     0
 65
     1
110
0.0
120
0.0
130
0.0
111
1.0
121
0.0
131
0.0
112
0.0
122
1.0
132
0.0
 79
     0
146
0.0
  0
VPORT
  5
23B
330
8
100
AcDbSymbolTableRecord
100
AcDbViewportTableRecord
  2
L3
 70
     0
 10
0.0
 20
0.5
 11
1.0
 21
1.0
 12
227.803772
 22
258.456787
 13
0.0
 23
0.0
 14
0.5
 24
0.5
 15
0.5
 25
0.5
 16
0.0
 26
0.0
 36
1.0
 17
0.0
 27
0.0
 37
0.0
 40
209.020833
 41
0.084952
 42
50.0
 43
298.235575
 44
-298.235575
 50
0.0
 51
0.0
 71
     0
 72
   100
 73
     1
 74
     3
 75
     0
 76
     0
 77
     0
 78
     0
281
     0
 65
     1
110
0.0
120
0.0
130
0.0
111
1.0
121
0.0
131
0.0
112
0.0
122
1.0
132
0.0
 79
     0
146
0.0
  0
VPORT
  5
23C
330
8
100
AcDbSymbolTableRecord
100
AcDbViewportTableRecord
  2
L3
 70
     0
 10
0.0
 20
0.0
 11
1.0
 21
0.5
 12
0.0
 22
0.0
 13
0.0
 23
0.0
 14
0.5
 24
0.5
 15
0.5
 25
0.5
 16
0.0
 26
-1.0
 36
0.0
 17
0.0
 27
0.0
 37
0.0
 40
1485.861838
 41
0.01195
 42
50.0
 43
769.0441269999999
 44
-769.0441269999999
 50
0.0
 51
0.0
 71
     0
 72
   100
 73
     1
 74
     3
 75
     0
 76
     0
 77
     0
 78
     0
281
     0
 65
     1
110
0.0
120
0.0
130
0.0
111
1.0
121
0.0
131
0.0
112
0.0
122
1.0
132
0.0
 79
     0
146
0.0
  0
VPORT
  5
23D
330
8
100
AcDbSymbolTableRecord
100
AcDbViewportTableRecord
  2
L4
 70
     0
 10
0.0
 20
0.5
 11
0.5
 21
1.0
 12
227.803772
 22
258.456787
 13
0.0
 23
0.0
 14
0.5
 24
0.5
 15
0.5
 25
0.5
 16
0.0
 26
0.0
 36
1.0
 17
0.0
 27
0.0
 37
0.0
 40
209.020833
 41
0.084952
 42
50.0
 43
298.235575
 44
-298.235575
 50
0.0
 51
0.0
 71
     0
 72
   100
 73
     1
 74
     3
 75
     0
 76
     0
 77
     0
 78
     0
281
     0
 65
     1
110
0.0
120
0.0
130
0.0
111
1.0
121
0.0
131
0.0
112
0.0
122
1.0
132
0.0
 79
     0
146
0.0
  0
VPORT
  5
23E
330
8
100
AcDbSymbolTableRecord
100
AcDbViewportTableRecord
  2
L4
 70
     0
 10
0.0
 20
0.0
 11
0.5
 21
0.5
 12
0.0
 22
0.0
 13
0.0
 23
0.0
 14
0.5
 24
0.5
 15
0.5
 25
0.5
 16
0.0
 26
-1.0
 36
0.0
 17
0.0
 27
0.0
 37
0.0
 40
1485.861838
 41
0.01195
 42
50.0
 43
769.0441269999999
 44
-769.0441269999999
 50
0.0
 51
0.0
 71
     0
 72
   100
 73
     1
 74
     3
 75
     0
 76
     0
 77
     0
 78
     0
281
     0
 65
     1
110
0.0
120
0.0
130
0.0
111
1.0
121
0.0
131
0.0
112
0.0
122
1.0
132
0.0
 79
     0
146
0.0
  0
VPORT
  5
23F
330
8
100
AcDbSymbolTableRecord
100
AcDbViewportTableRecord
  2
L4
 70
     0
 10
0.5
 20
0.0
 11
1.0
 21
0.5
 12
0.0
 22
0.0
 13
0.0
 23
0.0
 14
0.5
 24
0.5
 15
0.5
 25
0.5
 16
1.0
 26
0.0
 36
0.0
 17
0.0
 27
0.0
 37
0.0
 40
1485.861838
 41
0.01195
 42
50.0
 43
750.245812
 44
-750.245812
 50
0.0
 51
0.0
 71
     0
 72
   100
 73
     1
 74
     3
 75
     0
 76
     0
 77
     0
 78
     0
281
     0
 65
     1
110
0.0
120
0.0
130
0.0
111
1.0
121
0.0
131
0.0
112
0.0
122
1.0
132
0.0
 79
     0
146
0.0
  0
VPORT
  5
240
330
8
100
AcDbSymbolTableRecord
100
AcDbViewportTableRecord
  2
L4
 70
     0
 10
0.5
 20
0.5
 11
1.0
 21
1.0
 12
0.0
 22
0.0
 13
0.0
 23
0.0
 14
0.5
 24
0.5
 15
0.5
 25
0.5
 16
0.5773502691896259
 26
-0.5773502691896259
 36
0.5773502691896259
 17
0.0
 27
0.0
 37
0.0
 40
1460.77308
 41
0.012156
 42
50.0
 43
761.2052339999999
 44
-761.2052339999999
 50
0.0
 51
0.0
 71
     0
 72
   100
 73
     1
 74
     3
 75
     0
 76
     0
 77
     0
 78
     0
281
     0
 65
     1
110
0.0
120
0.0
130
0.0
111
1.0
121
0.0
131
0.0
112
0.0
122
1.0
132
0.0
 79
     0
146
0.0
  0
VPORT
  5
241
330
8
100
AcDbSymbolTableRecord
100
AcDbViewportTableRecord
  2
L6
 70
     0
 10
0.0
 20
0.5
 11
0.333333
 21
1.0
 12
0.0
 22
0.0
 13
0.0
 23
0.0
 14
0.5
 24
0.5
 15
0.5
 25
0.5
 16
0.7188730927569434
 26
-0.5850486126764433
 36
0.3754192287502549
 17
0.0
 27
0.0
 37
0.0
 40
1542.425587
 41
0.011512
 42
50.0
 43
798.3761809999999
 44
-798.3761809999999
 50
0.0
 51
0.0
 71
     0
 72
   100
 73
     1
 74
     3
 75
     0
 76
     0
 77
     0
 78
     0
281
     0
 65
     1
110
0.0
120
0.0
130
0.0
111
1.0
121
0.0
131
0.0
112
0.0
122
1.0
132
0.0
 79
     0
146
0.0
  0
VPORT
  5
242
330
8
100
AcDbSymbolTableRecord
100
AcDbViewportTableRecord
  2
L6
 70
     0
 10
0.0
 20
0.0
 11
0.333333
 21
0.5
 12
0.0
 22
0.0
 13
0.0
 23
0.0
 14
0.5
 24
0.5
 15
0.5
 25
0.5
 16
-1.0
 26
0.0
 36
0.0
 17
0.0
 27
0.0
 37
0.0
 40
1485.861838
 41
0.01195
 42
50.0
 43
750.245812
 44
-750.245812
 50
0.0
 51
0.0
 71
     0
 72
   100
 73
     1
 74
     3
 75
     0
 76
     0
 77
     0
 78
     0
281
     0
 65
     1
110
0.0
120
0.0
130
0.0
111
1.0
121
0.0
131
0.0
112
0.0
122
1.0
132
0.0
 79
     0
146
0.0
  0
VPORT
  5
243
330
8
100
AcDbSymbolTableRecord
100
AcDbViewportTableRecord
  2
L6
 70
     0
 10
0.333333
 20
0.5
 11
0.666667
 21
1.0
 12
227.803772
 22
258.456787
 13
0.0
 23
0.0
 14
0.5
 24
0.5
 15
0.5
 25
0.5
 16
0.0
 26
0.0
 36
1.0
 17
0.0
 27
0.0
 37
0.0
 40
209.020833
 41
0.084952
 42
50.0
 43
298.235575
 44
-298.235575
 50
0.0
 51
0.0
 71
     0
 72
   100
 73
     1
 74
     3
 75
     0
 76
     0
 77
     0
 78
     0
281
     0
 65
     1
110
0.0
120
0.0
130
0.0
111
1.0
121
0.0
131
0.0
112
0.0
122
1.0
132
0.0
 79
     0
146
0.0
  0
VPORT
  5
244
330
8
100
AcDbSymbolTableRecord
100
AcDbViewportTableRecord
  2
L6
 70
     0
 10
0.333333
 20
0.0
 11
0.666667
 21
0.5
 12
0.0
 22
0.0
 13
0.0
 23
0.0
 14
0.5
 24
0.5
 15
0.5
 25
0.5
 16
0.0
 26
-1.0
 36
0.0
 17
0.0
 27
0.0
 37
0.0
 40
1485.861838
 41
0.01195
 42
50.0
 43
769.0441269999999
 44
-769.0441269999999
 50
0.0
 51
0.0
 71
     0
 72
   100
 73
     1
 74
     3
 75
     0
 76
     0
 77
     0
 78
     0
281
     0
 65
     1
110
0.0
120
0.0
130
0.0
111
1.0
121
0.0
131
0.0
112
0.0
122
1.0
132
0.0
 79
     0
146
0.0
  0
VPORT
  5
245
330
8
100
AcDbSymbolTableRecord
100
AcDbViewportTableRecord
  2
L6
 70
     0
 10
0.666667
 20
0.5
 11
1.0
 21
1.0
 12
0.0
 22
0.0
 13
0.0
 23
0.0
 14
0.5
 24
0.5
 15
0.5
 25
0.5
 16
0.5773502691896259
 26
-0.5773502691896259
 36
0.5773502691896259
 17
0.0
 27
0.0
 37
0.0
 40
1460.77308
 41
0.012156
 42
50.0
 43
761.2052339999999
 44
-761.2052339999999
 50
0.0
 51
0.0
 71
     0
 72
   100
 73
     1
 74
     3
 75
     0
 76
     0
 77
     0
 78
     0
281
     0
 65
     1
110
0.0
120
0.0
130
0.0
111
1.0
121
0.0
131
0.0
112
0.0
122
1.0
132
0.0
 79
     0
146
0.0
  0
VPORT
  5
246
330
8
100
AcDbSymbolTableRecord
100
AcDbViewportTableRecord
  2
L6
 70
     0
 10
0.666667
 20
0.0
 11
1.0
 21
0.5
 12
0.0
 22
0.0
 13
0.0
 23
0.0
 14
0.5
 24
0.5
 15
0.5
 25
0.5
 16
1.0
 26
0.0
 36
0.0
 17
0.0
 27
0.0
 37
0.0
 40
1485.861838
 41
0.01195
 42
50.0
 43
750.245812
 44
-750.245812
 50
0.0
 51
0.0
 71
     0
 72
   100
 73
     1
 74
     3
 75
     0
 76
     0
 77
     0
 78
     0
281
     0
 65
     1
110
0.0
120
0.0
130
0.0
111
1.0
121
0.0
131
0.0
112
0.0
122
1.0
132
0.0
 79
     0
146
0.0
  0
ENDTAB
  0
TABLE
  2
LTYPE
  5
5
330
0
100
AcDbSymbolTable
 70
     7
  0
LTYPE
  5
14
330
5
100
AcDbSymbolTableRecord
100
AcDbLinetypeTableRecord
  2
ByBlock
 70
     0
  3

 72
    65
 73
     0
 40
0.0
  0
LTYPE
  5
15
330
5
100
AcDbSymbolTableRecord
100
AcDbLinetypeTableRecord
  2
ByLayer
 70
     0
  3

 72
    65
 73
     0
 40
0.0
  0
LTYPE
  5
16
330
5
100
AcDbSymbolTableRecord
100
AcDbLinetypeTableRecord
  2
Continuous
 70
     0
  3
Solid line
 72
    65
 73
     0
 40
0.0
  0
LTYPE
  5
6E
330
5
100
AcDbSymbolTableRecord
100
AcDbLinetypeTableRecord
  2
CENTER
 70
     0
  3
____ _ ____ _ ____ _ ____
 72
    65
 73
     4
 40
47.4
 49
22.0
 74
     4
 75
     0
340
0
 46
0.0
 50
0.0
 44
0.0
 45
0.0
 49
-8.5
 74
     4
 75
     0
340
0
 46
0.0
 50
0.0
 44
0.0
 45
0.0
 49
8.5
 74
     4
 75
     0
340
0
 46
0.0
 50
0.0
 44
0.0
 45
0.0
 49
-8.5
 74
     4
 75
     0
340
0
 46
0.0
 50
0.0
 44
0.0
 45
0.0
  0
LTYPE
  5
6F
330
5
100
AcDbSymbolTableRecord
100
AcDbLinetypeTableRecord
  2
DASHDOT
 70
     0
  3
_._._._._._._._._._._._._._._._.
 72
    65
 73
     4
 40
70.0
 49
31.0
 74
     4
 75
     0
340
0
 46
0.0
 50
0.0
 44
0.0
 45
0.0
 49
-13.0
 74
     4
 75
     0
340
0
 46
0.0
 50
0.0
 44
0.0
 45
0.0
 49
13.0
 74
     4
 75
     0
340
0
 46
0.0
 50
0.0
 44
0.0
 45
0.0
 49
-13.0
 74
     4
 75
     0
340
0
 46
0.0
 50
0.0
 44
0.0
 45
0.0
  0
LTYPE
  5
70
330
5
100
AcDbSymbolTableRecord
100
AcDbLinetypeTableRecord
  2
DASHED
 70
     0
  3
__ __ __ __ __ __ __ __ __
 72
    65
 73
     2
 40
25.72
 49
12.86
 74
     4
 75
     0
340
0
 46
0.0
 50
0.0
 44
0.0
 45
0.0
 49
-12.86
 74
     4
 75
     0
340
0
 46
0.0
 50
0.0
 44
0.0
 45
0.0
  0
LTYPE
  5
71
330
5
100
AcDbSymbolTableRecord
100
AcDbLinetypeTableRecord
  2
DOT
 70
     0
  3
.........................
 72
    65
 73
     2
 40
10.0
 49
0.0
 74
     4
 75
     0
340
0
 46
0.0
 50
0.0
 44
0.0
 45
0.0
 49
-10.0
 74
     4
 75
     0
340
0
 46
0.0
 50
0.0
 44
0.0
 45
0.0
  0
LTYPE
  5
72
330
5
100
AcDbSymbolTableRecord
100
AcDbLinetypeTableRecord
  2
PHANTOM
 70
     0
  3
____ _ _ ____ _ _ _____ _ _ ____
 72
    65
 73
     6
 40
50.5
 49
18.0
 74
     4
 75
     0
340
0
 46
0.0
 50
0.0
 44
0.0
 45
0.0
 49
-6.5
 74
     4
 75
     0
340
0
 46
0.0
 50
0.0
 44
0.0
 45
0.0
 49
6.5
 74
     4
 75
     0
340
0
 46
0.0
 50
0.0
 44
0.0
 45
0.0
 49
-6.5
 74
     4
 75
     0
340
0
 46
0.0
 50
0.0
 44
0.0
 45
0.0
 49
6.5
 74
     4
 75
     0
340
0
 46
0.0
 50
0.0
 44
0.0
 45
0.0
 49
-6.5
 74
     4
 75
     0
340
0
 46
0.0
 50
0.0
 44
0.0
 45
0.0
  0
LTYPE
  5
30C
330
5
100
AcDbSymbolTableRecord
100
AcDbLinetypeTableRecord
  2
CENTER2
 70
     0
  3
Center (.5x) ___ _ ___ _ ___ _ ___ _ ___ _ ___
 72
    65
 73
     4
 40
1.125
 49
0.75
 74
     0
 49
-0.125
 74
     0
 49
0.125
 74
     0
 49
-0.125
 74
     0
  0
ENDTAB
  0
TABLE
  2
LAYER
  5
2
330
0
100
AcDbSymbolTable
 70
    21
  0
LAYER
  5
10
102
{ACAD_XDICTIONARY
360
317
102
}
330
2
100
AcDbSymbolTableRecord
100
AcDbLayerTableRecord
  2
0
 70
     0
 62
     7
  6
Continuous
370
    -3
390
F
  0
LAYER
  5
1A9
330
2
100
AcDbSymbolTableRecord
100
AcDbLayerTableRecord
  2
Defpoints
 70
     0
 62
     7
  6
Continuous
290
     0
370
    -3
390
F
  0
LAYER
  5
309
102
{ACAD_XDICTIONARY
360
319
102
}
330
2
100
AcDbSymbolTableRecord
100
AcDbLayerTableRecord
  2
1
 70
     0
 62
     4
  6
Continuous
370
    -3
390
F
  0
LAYER
  5
30A
102
{ACAD_XDICTIONARY
360
31B
102
}
330
2
100
AcDbSymbolTableRecord
100
AcDbLayerTableRecord
  2
2
 70
     0
 62
     7
  6
Continuous
370
    -3
390
F
  0
LAYER
  5
30B
102
{ACAD_XDICTIONARY
360
31D
102
}
330
2
100
AcDbSymbolTableRecord
100
AcDbLayerTableRecord
  2
4
 70
     0
 62
     2
  6
CENTER2
370
    -3
390
F
  0
LAYER
  5
30D
102
{ACAD_XDICTIONARY
360
31F
102
}
330
2
100
AcDbSymbolTableRecord
100
AcDbLayerTableRecord
  2
SK1
 70
     0
 62
     4
  6
Continuous
370
    -3
390
F
  0
LAYER
  5
30E
102
{ACAD_XDICTIONARY
360
321
102
}
330
2
100
AcDbSymbolTableRecord
100
AcDbLayerTableRecord
  2
SK2
 70
     0
 62
     7
  6
Continuous
370
    -3
390
F
  0
LAYER
  5
310
102
{ACAD_XDICTIONARY
360
323
102
}
330
2
100
AcDbSymbolTableRecord
100
AcDbLayerTableRecord
  2
SK4
 70
     0
 62
     2
  6
CENTER2
370
    -3
390
F
  0
LAYER
  5
311
102
{ACAD_XDICTIONARY
360
325
102
}
330
2
100
AcDbSymbolTableRecord
100
AcDbLayerTableRecord
  2
SK6
 70
     0
 62
     5
  6
Continuous
370
    -3
390
F
  0
LAYER
  5
312
102
{ACAD_XDICTIONARY
360
327
102
}
330
2
100
AcDbSymbolTableRecord
100
AcDbLayerTableRecord
  2
CUT
 70
     0
 62
     1
  6
Continuous
370
    -3
390
F
  0
LAYER
  5
313
102
{ACAD_XDICTIONARY
360
329
102
}
330
2
100
AcDbSymbolTableRecord
100
AcDbLayerTableRecord
  2
NOCUT
 70
     0
 62
     7
  6
Continuous
370
    -3
390
F
  0
LAYER
  5
314
102
{ACAD_XDICTIONARY
360
32B
102
}
330
2
100
AcDbSymbolTableRecord
100
AcDbLayerTableRecord
  2
80
 70
     0
 62
     6
  6
Continuous
370
    -3
390
F
  0
LAYER
  5
315
102
{ACAD_XDICTIONARY
360
32D
102
}
330
2
100
AcDbSymbolTableRecord
100
AcDbLayerTableRecord
  2
81
 70
     0
 62
     3
  6
Continuous
370
    -3
390
F
  0
ENDTAB
  0
TABLE
  2
STYLE
  5
3
330
0
100
AcDbSymbolTable
 70
     3
  0
STYLE
  5
11
330
3
100
AcDbSymbolTableRecord
100
AcDbTextStyleTableRecord
  2
Standard
 70
     0
 40
0.0
 41
1.0
 50
0.0
 71
     0
 42
0.2
  3
txt
  4

  0
STYLE
  5
1A3
330
3
100
AcDbSymbolTableRecord
100
AcDbTextStyleTableRecord
  2
cesky
 70
     0
 40
0.0
 41
1.0
 50
0.0
 71
     0
 42
0.2
  3
simplex.shx
  4

  0
STYLE
  5
1A4
330
3
100
AcDbSymbolTableRecord
100
AcDbTextStyleTableRecord
  2
DWGDirectTextStyle
 70
     0
 40
0.0
 41
1.0
 50
0.0
 71
     0
 42
0.2
  3
simplex
  4

  0
ENDTAB
  0
TABLE
  2
VIEW
  5
6
330
0
100
AcDbSymbolTable
 70
     0
  0
ENDTAB
  0
TABLE
  2
UCS
  5
7
330
0
100
AcDbSymbolTable
 70
     0
  0
ENDTAB
  0
TABLE
  2
APPID
  5
9
330
0
100
AcDbSymbolTable
 70
     7
  0
APPID
  5
12
330
9
100
AcDbSymbolTableRecord
100
AcDbRegAppTableRecord
  2
ACAD
 70
     0
  0
APPID
  5
1A5
330
9
100
AcDbSymbolTableRecord
100
AcDbRegAppTableRecord
  2
ACAD_DSTYLE_DIMBREAK
 70
     0
  0
APPID
  5
247
330
9
100
AcDbSymbolTableRecord
100
AcDbRegAppTableRecord
  2
ACAD_DSTYLE_DIM_LINETYPE
 70
     0
  0
APPID
  5
248
330
9
100
AcDbSymbolTableRecord
100
AcDbRegAppTableRecord
  2
ACAD_DSTYLE_DIM_EXT1_LINETYPE
 70
     0
  0
APPID
  5
249
330
9
100
AcDbSymbolTableRecord
100
AcDbRegAppTableRecord
  2
ACAD_DSTYLE_DIM_EXT2_LINETYPE
 70
     0
  0
APPID
  5
289
330
9
100
AcDbSymbolTableRecord
100
AcDbRegAppTableRecord
  2
ACAD_MLEADERVER
 70
     0
  0
APPID
  5
332
330
9
100
AcDbSymbolTableRecord
100
AcDbRegAppTableRecord
  2
ACAD_NAV_VCDISPLAY
 70
     0
  0
ENDTAB
  0
TABLE
  2
DIMSTYLE
  5
A
330
0
100
AcDbSymbolTable
 70
     1
100
AcDbDimStyleTable
 71
     0
  0
DIMSTYLE
105
27
330
A
100
AcDbSymbolTableRecord
100
AcDbDimStyleTableRecord
  2
Standard
 70
     0
340
11
1001
ACAD_DSTYLE_DIMBREAK
1070
   391
1040
6.349999999999999
  0
ENDTAB
  0
TABLE
  2
BLOCK_RECORD
  5
1
330
0
100
AcDbSymbolTable
 70
    13
  0
BLOCK_RECORD
  5
1F
102
{ACAD_XDICTIONARY
360
299
102
}
330
1
100
AcDbSymbolTableRecord
100
AcDbBlockTableRecord
  2
*Model_Space
340
22
  0
BLOCK_RECORD
  5
1B
330
1
100
AcDbSymbolTableRecord
100
AcDbBlockTableRecord
  2
*Paper_Space
340
1E
  0
BLOCK_RECORD
  5
23
330
1
100
AcDbSymbolTableRecord
100
AcDbBlockTableRecord
  2
*Paper_Space0
340
26
  0
BLOCK_RECORD
  5
1AA
330
1
100
AcDbSymbolTableRecord
100
AcDbBlockTableRecord
  2
*D1
340
0
  0
BLOCK_RECORD
  5
1B6
330
1
100
AcDbSymbolTableRecord
100
AcDbBlockTableRecord
  2
_U0
340
0
  0
BLOCK_RECORD
  5
1C2
330
1
100
AcDbSymbolTableRecord
100
AcDbBlockTableRecord
  2
*D3
340
0
  0
BLOCK_RECORD
  5
1CE
330
1
100
AcDbSymbolTableRecord
100
AcDbBlockTableRecord
  2
_U1
340
0
  0
BLOCK_RECORD
  5
1DA
330
1
100
AcDbSymbolTableRecord
100
AcDbBlockTableRecord
  2
*D5
340
0
  0
BLOCK_RECORD
  5
1E6
330
1
100
AcDbSymbolTableRecord
100
AcDbBlockTableRecord
  2
_U2
340
0
  0
BLOCK_RECORD
  5
1F2
330
1
100
AcDbSymbolTableRecord
100
AcDbBlockTableRecord
  2
*D7
340
0
  0
BLOCK_RECORD
  5
200
330
1
100
AcDbSymbolTableRecord
100
AcDbBlockTableRecord
  2
_U3
340
0
  0
BLOCK_RECORD
  5
20C
330
1
100
AcDbSymbolTableRecord
100
AcDbBlockTableRecord
  2
*D9
340
0
  0
BLOCK_RECORD
  5
217
330
1
100
AcDbSymbolTableRecord
100
AcDbBlockTableRecord
  2
_U4
340
0
  0
BLOCK_RECORD
  5
222
330
1
100
AcDbSymbolTableRecord
100
AcDbBlockTableRecord
  2
*D11
340
0
  0
BLOCK_RECORD
  5
22E
330
1
100
AcDbSymbolTableRecord
100
AcDbBlockTableRecord
  2
_U5
340
0
  0
ENDTAB
  0
ENDSEC
  0
SECTION
  2
BLOCKS
  0
BLOCK
  5
20
330
1F
100
AcDbEntity
  8
0
100
AcDbBlockBegin
  2
*Model_Space
 70
     0
 10
0.0
 20
0.0
 30
0.0
  3
*Model_Space
  1

  0
ENDBLK
  5
21
330
1F
100
AcDbEntity
  8
0
100
AcDbBlockEnd
  0
BLOCK
  5
1C
330
1B
100
AcDbEntity
 67
     1
  8
0
100
AcDbBlockBegin
  2
*Paper_Space
 70
     0
 10
0.0
 20
0.0
 30
0.0
  3
*Paper_Space
  1

  0
ENDBLK
  5
1D
330
1B
100
AcDbEntity
 67
     1
  8
0
100
AcDbBlockEnd
  0
BLOCK
  5
24
330
23
100
AcDbEntity
 67
     1
  8
0
100
AcDbBlockBegin
  2
*Paper_Space0
 70
     0
 10
0.0
 20
0.0
 30
0.0
  3
*Paper_Space0
  1

  0
ENDBLK
  5
25
330
23
100
AcDbEntity
 67
     1
  8
0
100
AcDbBlockEnd
  0
BLOCK
  5
1AB
330
1AA
100
AcDbEntity
  8
0
100
AcDbBlockBegin
  2
*D1
 70
     1
 10
0.0
 20
0.0
 30
0.0
  3
*D1
  1

  0
LINE
  5
1AD
330
1AA
100
AcDbEntity
  8
0
 62
   254
370
    -2
100
AcDbLine
 10
237.144248
 20
243.731161
 30
0.0
 11
237.144248
 21
277.644584
 31
0.0
  0
LINE
  5
1AE
330
1AA
100
AcDbEntity
  8
0
 62
   254
370
    -2
100
AcDbLine
 10
302.144248
 20
253.731161
 30
0.0
 11
302.144248
 21
277.644584
 31
0.0
  0
LINE
  5
1AF
330
1AA
100
AcDbEntity
  8
0
 62
   254
370
    -2
100
AcDbLine
 10
240.644248
 20
276.644584
 30
0.0
 11
298.644248
 21
276.644584
 31
0.0
  0
SOLID
  5
1B0
330
1AA
100
AcDbEntity
  8
0
 62
   254
100
AcDbTrace
 10
240.644248
 20
277.227918
 30
0.0
 11
240.644248
 21
276.061251
 31
0.0
 12
237.144248
 22
276.644584
 32
0.0
 13
237.144248
 23
276.644584
 33
0.0
  0
SOLID
  5
1B1
330
1AA
100
AcDbEntity
  8
0
 62
   254
100
AcDbTrace
 10
298.644248
 20
276.061251
 30
0.0
 11
298.644248
 21
277.227918
 31
0.0
 12
302.144248
 22
276.644584
 32
0.0
 13
302.144248
 23
276.644584
 33
0.0
  0
MTEXT
  5
1B2
330
1AA
100
AcDbEntity
  8
0
 62
   254
370
    13
100
AcDbMText
 10
269.644248
 20
281.894584
 30
0.0
 40
3.5
 41
0.0
 71
     5
 72
     1
  1
\A1;65
  7
cesky
 73
     1
 44
1.0
  0
POINT
  5
1B3
330
1AA
100
AcDbEntity
  8
Defpoints
 62
     0
100
AcDbPoint
 10
237.144248
 20
243.731161
 30
0.0
  0
POINT
  5
1B4
330
1AA
100
AcDbEntity
  8
Defpoints
 62
     0
100
AcDbPoint
 10
302.144248
 20
253.731161
 30
0.0
  0
POINT
  5
1B5
330
1AA
100
AcDbEntity
  8
Defpoints
 62
     0
100
AcDbPoint
 10
302.144248
 20
276.644584
 30
0.0
  0
ENDBLK
  5
1AC
330
1AA
100
AcDbEntity
  8
0
100
AcDbBlockEnd
  0
BLOCK
  5
1BD
330
1B6
100
AcDbEntity
  8
0
100
AcDbBlockBegin
  2
_U0
 70
     0
 10
0.0
 20
0.0
 30
0.0
  3
_U0
  1

  0
ENDBLK
  5
1BE
330
1B6
100
AcDbEntity
  8
0
100
AcDbBlockEnd
  0
BLOCK
  5
1C3
330
1C2
100
AcDbEntity
  8
0
100
AcDbBlockBegin
  2
*D3
 70
     1
 10
0.0
 20
0.0
 30
0.0
  3
*D3
  1

  0
LINE
  5
1C5
330
1C2
100
AcDbEntity
  8
0
 62
    95
370
    -2
100
AcDbLine
 10
157.144248
 20
250.731161
 30
0.0
 11
157.144248
 21
300.185289
 31
0.0
  0
LINE
  5
1C6
330
1C2
100
AcDbEntity
  8
0
 62
    95
370
    -2
100
AcDbLine
 10
302.144248
 20
251.731161
 30
0.0
 11
302.144248
 21
300.185289
 31
0.0
  0
LINE
  5
1C7
330
1C2
100
AcDbEntity
  8
0
 62
    95
370
    -2
100
AcDbLine
 10
160.644248
 20
299.185289
 30
0.0
 11
298.644248
 21
299.185289
 31
0.0
  0
SOLID
  5
1C8
330
1C2
100
AcDbEntity
  8
0
 62
    95
100
AcDbTrace
 10
160.644248
 20
299.768623
 30
0.0
 11
160.644248
 21
298.601956
 31
0.0
 12
157.144248
 22
299.185289
 32
0.0
 13
157.144248
 23
299.185289
 33
0.0
  0
SOLID
  5
1C9
330
1C2
100
AcDbEntity
  8
0
 62
    95
100
AcDbTrace
 10
298.644248
 20
298.601956
 30
0.0
 11
298.644248
 21
299.768623
 31
0.0
 12
302.144248
 22
299.185289
 32
0.0
 13
302.144248
 23
299.185289
 33
0.0
  0
MTEXT
  5
1CA
330
1C2
100
AcDbEntity
  8
0
 62
    95
370
    13
100
AcDbMText
 10
229.644248
 20
304.435289
 30
0.0
 40
3.5
 41
0.0
 71
     5
 72
     1
  1
\A1;145
  7
cesky
 73
     1
 44
1.0
  0
POINT
  5
1CB
330
1C2
100
AcDbEntity
  8
Defpoints
 62
     0
100
AcDbPoint
 10
157.144248
 20
250.731161
 30
0.0
  0
POINT
  5
1CC
330
1C2
100
AcDbEntity
  8
Defpoints
 62
     0
100
AcDbPoint
 10
302.144248
 20
251.731161
 30
0.0
  0
POINT
  5
1CD
330
1C2
100
AcDbEntity
  8
Defpoints
 62
     0
100
AcDbPoint
 10
302.144248
 20
299.185289
 30
0.0
  0
ENDBLK
  5
1C4
330
1C2
100
AcDbEntity
  8
0
100
AcDbBlockEnd
  0
BLOCK
  5
1D5
330
1CE
100
AcDbEntity
  8
0
100
AcDbBlockBegin
  2
_U1
 70
     0
 10
0.0
 20
0.0
 30
0.0
  3
_U1
  1

  0
ENDBLK
  5
1D6
330
1CE
100
AcDbEntity
  8
0
100
AcDbBlockEnd
  0
BLOCK
  5
1DB
330
1DA
100
AcDbEntity
  8
0
100
AcDbBlockBegin
  2
*D5
 70
     1
 10
0.0
 20
0.0
 30
0.0
  3
*D5
  1

  0
LINE
  5
1DD
330
1DA
100
AcDbEntity
  8
0
 62
    95
370
    -2
100
AcDbLine
 10
302.144248
 20
253.731161
 30
0.0
 11
302.144248
 21
286.792925
 31
0.0
  0
LINE
  5
1DE
330
1DA
100
AcDbEntity
  8
0
 62
    95
370
    -2
100
AcDbLine
 10
205.144248
 20
242.731588
 30
0.0
 11
205.144248
 21
286.792925
 31
0.0
  0
LINE
  5
1DF
330
1DA
100
AcDbEntity
  8
0
 62
    95
370
    -2
100
AcDbLine
 10
298.644248
 20
285.792925
 30
0.0
 11
208.644248
 21
285.792925
 31
0.0
  0
SOLID
  5
1E0
330
1DA
100
AcDbEntity
  8
0
 62
    95
100
AcDbTrace
 10
298.644248
 20
285.209591
 30
0.0
 11
298.644248
 21
286.376258
 31
0.0
 12
302.144248
 22
285.792925
 32
0.0
 13
302.144248
 23
285.792925
 33
0.0
  0
SOLID
  5
1E1
330
1DA
100
AcDbEntity
  8
0
 62
    95
100
AcDbTrace
 10
208.644248
 20
286.376258
 30
0.0
 11
208.644248
 21
285.209591
 31
0.0
 12
205.144248
 22
285.792925
 32
0.0
 13
205.144248
 23
285.792925
 33
0.0
  0
MTEXT
  5
1E2
330
1DA
100
AcDbEntity
  8
0
 62
    95
370
    13
100
AcDbMText
 10
253.644248
 20
291.042925
 30
0.0
 40
3.5
 41
0.0
 71
     5
 72
     1
  1
\A1;97
  7
cesky
 73
     1
 44
1.0
  0
POINT
  5
1E3
330
1DA
100
AcDbEntity
  8
Defpoints
 62
     0
100
AcDbPoint
 10
302.144248
 20
253.731161
 30
0.0
  0
POINT
  5
1E4
330
1DA
100
AcDbEntity
  8
Defpoints
 62
     0
100
AcDbPoint
 10
205.144248
 20
242.731588
 30
0.0
  0
POINT
  5
1E5
330
1DA
100
AcDbEntity
  8
Defpoints
 62
     0
100
AcDbPoint
 10
205.144248
 20
285.792925
 30
0.0
  0
ENDBLK
  5
1DC
330
1DA
100
AcDbEntity
  8
0
100
AcDbBlockEnd
  0
BLOCK
  5
1ED
330
1E6
100
AcDbEntity
  8
0
100
AcDbBlockBegin
  2
_U2
 70
     0
 10
0.0
 20
0.0
 30
0.0
  3
_U2
  1

  0
ENDBLK
  5
1EE
330
1E6
100
AcDbEntity
  8
0
100
AcDbBlockEnd
  0
BLOCK
  5
1F3
330
1F2
100
AcDbEntity
  8
0
100
AcDbBlockBegin
  2
*D7
 70
     1
 10
0.0
 20
0.0
 30
0.0
  3
*D7
  1

  0
LINE
  5
1F5
330
1F2
100
AcDbEntity
  8
0
 62
   254
370
    -2
100
AcDbLine
 10
302.144248
 20
249.731161
 30
0.0
 11
302.144248
 21
261.208648
 31
0.0
  0
LINE
  5
1F6
330
1F2
100
AcDbEntity
  8
0
 62
   254
370
    -2
100
AcDbLine
 10
301.129152
 20
251.436772
 30
0.0
 11
301.129152
 21
261.208648
 31
0.0
  0
LINE
  5
1F7
330
1F2
100
AcDbEntity
  8
0
 62
   254
370
    -2
100
AcDbLine
 10
301.129152
 20
260.208648
 30
0.0
 11
286.295819
 21
260.208648
 31
0.0
  0
LINE
  5
1F8
330
1F2
100
AcDbEntity
  8
0
 62
   254
370
    -2
100
AcDbLine
 10
305.644248
 20
260.208648
 30
0.0
 11
309.144248
 21
260.208648
 31
0.0
  0
LINE
  5
1F9
330
1F2
100
AcDbEntity
  8
0
 62
   254
370
    -2
100
AcDbLine
 10
297.629152
 20
260.208648
 30
0.0
 11
294.129152
 21
260.208648
 31
0.0
  0
SOLID
  5
1FA
330
1F2
100
AcDbEntity
  8
0
 62
   254
100
AcDbTrace
 10
305.644248
 20
260.791981
 30
0.0
 11
305.644248
 21
259.625315
 31
0.0
 12
302.144248
 22
260.208648
 32
0.0
 13
302.144248
 23
260.208648
 33
0.0
  0
SOLID
  5
1FB
330
1F2
100
AcDbEntity
  8
0
 62
   254
100
AcDbTrace
 10
297.629152
 20
259.625315
 30
0.0
 11
297.629152
 21
260.791981
 31
0.0
 12
301.129152
 22
260.208648
 32
0.0
 13
301.129152
 23
260.208648
 33
0.0
  0
MTEXT
  5
1FC
330
1F2
100
AcDbEntity
  8
0
 62
   254
370
    13
100
AcDbMText
 10
290.212485
 20
265.458648
 30
0.0
 40
3.5
 41
0.0
 71
     5
 72
     1
  1
\A1;1
  7
cesky
 73
     1
 44
1.0
  0
POINT
  5
1FD
330
1F2
100
AcDbEntity
  8
Defpoints
 62
     0
100
AcDbPoint
 10
302.144248
 20
249.731161
 30
0.0
  0
POINT
  5
1FE
330
1F2
100
AcDbEntity
  8
Defpoints
 62
     0
100
AcDbPoint
 10
301.129152
 20
251.436772
 30
0.0
  0
POINT
  5
1FF
330
1F2
100
AcDbEntity
  8
Defpoints
 62
     0
100
AcDbPoint
 10
301.129152
 20
260.208648
 30
0.0
  0
ENDBLK
  5
1F4
330
1F2
100
AcDbEntity
  8
0
100
AcDbBlockEnd
  0
BLOCK
  5
207
330
200
100
AcDbEntity
  8
0
100
AcDbBlockBegin
  2
_U3
 70
     0
 10
0.0
 20
0.0
 30
0.0
  3
_U3
  1

  0
ENDBLK
  5
208
330
200
100
AcDbEntity
  8
0
100
AcDbBlockEnd
  0
BLOCK
  5
20D
330
20C
100
AcDbEntity
  8
0
100
AcDbBlockBegin
  2
*D9
 70
     1
 10
0.0
 20
0.0
 30
0.0
  3
*D9
  1

  0
LINE
  5
20F
330
20C
100
AcDbEntity
  8
0
 62
   254
370
    -2
100
AcDbLine
 10
158.144248
 20
243.731161
 30
0.0
 11
314.293402
 21
243.731161
 31
0.0
  0
LINE
  5
210
330
20C
100
AcDbEntity
  8
0
 62
   254
370
    -2
100
AcDbLine
 10
304.144248
 20
251.731161
 30
0.0
 11
314.293402
 21
251.731161
 31
0.0
  0
LINE
  5
211
330
20C
100
AcDbEntity
  8
0
 62
   254
370
    -2
100
AcDbLine
 10
313.293402
 20
255.231161
 30
0.0
 11
313.293402
 21
258.731161
 31
0.0
  0
SOLID
  5
212
330
20C
100
AcDbEntity
  8
0
 62
   254
100
AcDbTrace
 10
312.710068
 20
255.231161
 30
0.0
 11
313.876735
 21
255.231161
 31
0.0
 12
313.293402
 22
251.731161
 32
0.0
 13
313.293402
 23
251.731161
 33
0.0
  0
MTEXT
  5
213
330
20C
100
AcDbEntity
  8
0
 62
   254
370
    13
100
AcDbMText
 10
308.043402
 20
230.814495
 30
0.0
 40
3.5
 41
0.0
 71
     5
 72
     1
  1
\A1;16
  7
cesky
 11
0.0
 21
1.0
 31
0.0
 73
     1
 44
1.0
  0
POINT
  5
214
330
20C
100
AcDbEntity
  8
Defpoints
 62
     0
100
AcDbPoint
 10
158.144248
 20
243.731161
 30
0.0
  0
POINT
  5
215
330
20C
100
AcDbEntity
  8
Defpoints
 62
     0
100
AcDbPoint
 10
304.144248
 20
251.731161
 30
0.0
  0
POINT
  5
216
330
20C
100
AcDbEntity
  8
Defpoints
 62
     0
100
AcDbPoint
 10
313.293402
 20
251.731161
 30
0.0
  0
ENDBLK
  5
20E
330
20C
100
AcDbEntity
  8
0
100
AcDbBlockEnd
  0
BLOCK
  5
21D
330
217
100
AcDbEntity
  8
0
100
AcDbBlockBegin
  2
_U4
 70
     0
 10
0.0
 20
0.0
 30
0.0
  3
_U4
  1

  0
ENDBLK
  5
21E
330
217
100
AcDbEntity
  8
0
100
AcDbBlockEnd
  0
BLOCK
  5
223
330
222
100
AcDbEntity
  8
0
100
AcDbBlockBegin
  2
*D11
 70
     1
 10
0.0
 20
0.0
 30
0.0
  3
*D11
  1

  0
LINE
  5
225
330
222
100
AcDbEntity
  8
0
 62
    95
370
    -2
100
AcDbLine
 10
179.4985669999999
 20
251.731161
 30
0.0
 11
146.176654
 21
251.731161
 31
0.0
  0
LINE
  5
226
330
222
100
AcDbEntity
  8
0
 62
    95
370
    -2
100
AcDbLine
 10
181.161452
 20
235.731161
 30
0.0
 11
146.176654
 21
235.731161
 31
0.0
  0
LINE
  5
227
330
222
100
AcDbEntity
  8
0
 62
    95
370
    -2
100
AcDbLine
 10
147.176654
 20
248.231161
 30
0.0
 11
147.176654
 21
239.231161
 31
0.0
  0
SOLID
  5
228
330
222
100
AcDbEntity
  8
0
 62
    95
100
AcDbTrace
 10
147.759988
 20
248.231161
 30
0.0
 11
146.593321
 21
248.231161
 31
0.0
 12
147.176654
 22
251.731161
 32
0.0
 13
147.176654
 23
251.731161
 33
0.0
  0
SOLID
  5
229
330
222
100
AcDbEntity
  8
0
 62
    95
100
AcDbTrace
 10
146.593321
 20
239.231161
 30
0.0
 11
147.759988
 21
239.231161
 31
0.0
 12
147.176654
 22
235.731161
 32
0.0
 13
147.176654
 23
235.731161
 33
0.0
  0
MTEXT
  5
22A
330
222
100
AcDbEntity
  8
0
 62
    95
370
    13
100
AcDbMText
 10
141.926654
 20
243.731161
 30
0.0
 40
3.5
 41
0.0
 71
     5
 72
     1
  1
\A1;16
  7
cesky
 11
0.0
 21
1.0
 31
0.0
 73
     1
 44
1.0
  0
POINT
  5
22B
330
222
100
AcDbEntity
  8
Defpoints
 62
     0
100
AcDbPoint
 10
179.4985669999999
 20
251.731161
 30
0.0
  0
POINT
  5
22C
330
222
100
AcDbEntity
  8
Defpoints
 62
     0
100
AcDbPoint
 10
181.161452
 20
235.731161
 30
0.0
  0
POINT
  5
22D
330
222
100
AcDbEntity
  8
Defpoints
 62
     0
100
AcDbPoint
 10
147.176654
 20
235.731161
 30
0.0
  0
ENDBLK
  5
224
330
222
100
AcDbEntity
  8
0
100
AcDbBlockEnd
  0
BLOCK
  5
236
330
22E
100
AcDbEntity
  8
0
100
AcDbBlockBegin
  2
_U5
 70
     0
 10
0.0
 20
0.0
 30
0.0
  3
_U5
  1

  0
ENDBLK
  5
237
330
22E
100
AcDbEntity
  8
0
100
AcDbBlockEnd
  0
ENDSEC
  0
SECTION
  2
ENTITIES
  0
POINT
  5
73
102
{ACAD_REACTORS
330
316
102
}
330
1F
100
AcDbEntity
  8
80
100
AcDbPoint
 10
205.144248
 20
243.731161
 30
0.0
  0
POINT
  5
75
330
1F
100
AcDbEntity
  8
SK6
 60
     1
100
AcDbPoint
 10
237.144248
 20
243.731161
 30
0.0
  0
POINT
  5
77
330
1F
100
AcDbEntity
  8
SK6
 60
     1
100
AcDbPoint
 10
158.144248
 20
243.731161
 30
0.0
  0
POINT
  5
78
330
1F
100
AcDbEntity
  8
SK6
 60
     1
100
AcDbPoint
 10
158.144248
 20
243.731161
 30
0.0
  0
POINT
  5
79
330
1F
100
AcDbEntity
  8
SK6
 60
     1
100
AcDbPoint
 10
237.144248
 20
243.731161
 30
0.0
  0
POINT
  5
7A
330
1F
100
AcDbEntity
  8
SK6
 60
     1
100
AcDbPoint
 10
237.144248
 20
243.731161
 30
0.0
  0
LINE
  5
7B
330
1F
100
AcDbEntity
  8
1
100
AcDbLine
 10
295.302512
 20
250.335558
 30
0.0
 11
295.191019
 21
250.349555
 31
0.0
  0
LINE
  5
7D
330
1F
100
AcDbEntity
  8
1
100
AcDbLine
 10
295.255173
 20
249.655446
 30
0.0
 11
295.142408
 21
249.652309
 31
0.0
  0
LINE
  5
7E
330
1F
100
AcDbEntity
  8
1
100
AcDbLine
 10
295.324935
 20
248.676118
 30
0.0
 11
295.213389
 21
248.655871
 31
0.0
  0
LINE
  5
7F
330
1F
100
AcDbEntity
  8
1
100
AcDbLine
 10
295.4727870000001
 20
250.550749
 30
0.0
 11
295.436834
 21
250.660217
 31
0.0
  0
LINE
  5
80
330
1F
100
AcDbEntity
  8
1
100
AcDbLine
 10
299.1540720000001
 20
251.529403
 30
0.0
 11
299.143166
 21
251.645621
 31
0.0
  0
LINE
  5
81
330
1F
100
AcDbEntity
  8
1
100
AcDbLine
 10
300.1257339999999
 20
251.606889
 30
0.0
 11
300.131805
 21
251.724461
 31
0.0
  0
LINE
  5
82
330
1F
100
AcDbEntity
  8
1
100
AcDbLine
 10
300.799823
 20
251.564086
 30
0.0
 11
300.822871
 21
251.680496
 31
0.0
  0
LINE
  5
83
330
1F
100
AcDbEntity
  8
1
100
AcDbLine
 10
301.011985
 20
251.393937
 30
0.0
 11
301.129152
 21
251.434868
 31
0.0
  0
LINE
  5
84
330
1F
100
AcDbEntity
  8
1
100
AcDbLine
 10
301.955651
 20
247.688615
 30
0.0
 11
302.079338
 21
247.704334
 31
0.0
  0
LINE
  5
85
330
1F
100
AcDbEntity
  8
1
100
AcDbLine
 10
302.150319
 20
246.707896
 30
0.0
 11
302.025413
 21
246.709286
 31
0.0
  0
LINE
  5
86
330
1F
100
AcDbEntity
  8
1
100
AcDbLine
 10
301.978073
 20
246.029174
 30
0.0
 11
302.101702
 21
246.010652
 31
0.0
  0
LINE
  5
87
330
1F
100
AcDbEntity
  8
1
100
AcDbLine
 10
301.807798
 20
245.813984
 30
0.0
 11
301.855887
 21
245.69999
 31
0.0
  0
LINE
  5
88
330
1F
100
AcDbEntity
  8
1
100
AcDbLine
 10
302.150319
 20
240.754427
 30
0.0
 11
301.992531
 21
240.821578
 31
0.0
  0
LINE
  5
89
330
1F
100
AcDbEntity
  8
1
100
AcDbLine
 10
300.131805
 20
235.737861
 30
0.0
 11
300.305356
 21
236.136706
 31
0.0
  0
LINE
  5
8A
330
1F
100
AcDbEntity
  8
1
100
AcDbLine
 10
296.418766
 20
237.79133
 30
0.0
 11
296.418766
 21
245.728821
 31
0.0
  0
LINE
  5
8C
330
1F
100
AcDbEntity
  8
1
100
AcDbLine
 10
301.463864
 20
241.13514
 30
0.0
 11
301.463864
 21
245.042519
 31
0.0
  0
LINE
  5
8D
330
1F
100
AcDbEntity
  8
1
100
AcDbLine
 10
296.8979950000001
 20
245.733891
 30
0.0
 11
296.8979950000001
 21
237.737402
 31
0.0
  0
LINE
  5
8E
330
1F
100
AcDbEntity
  8
1
100
AcDbLine
 10
300.568208
 20
237.056685
 30
0.0
 11
300.568208
 21
245.81172
 31
0.0
  0
LINE
  5
8F
330
1F
100
AcDbEntity
  8
1
100
AcDbLine
 10
300.892404
 20
245.75743
 30
0.0
 11
300.892404
 21
237.303564
 31
0.0
  0
LINE
  5
90
330
1F
100
AcDbEntity
  8
1
100
AcDbLine
 10
291.420079
 20
236.985947
 30
0.0
 11
291.420079
 21
245.961052
 31
0.0
  0
LINE
  5
91
330
1F
100
AcDbEntity
  8
SK1
100
AcDbLine
 10
157.144248
 20
236.731161
 30
0.0
 11
157.144248
 21
250.731161
 31
0.0
  0
LINE
  5
92
330
1F
100
AcDbEntity
  8
1
100
AcDbLine
 10
237.749141
 20
235.834278
 30
0.0
 11
237.749141
 21
251.628045
 31
0.0
  0
LINE
  5
93
330
1F
100
AcDbEntity
  8
1
100
AcDbLine
 10
297.877961
 20
247.874367
 30
0.0
 11
297.7312
 21
247.929094
 31
0.0
  0
LINE
  5
95
330
1F
100
AcDbEntity
  8
1
100
AcDbLine
 10
299.300024
 20
249.687366
 30
0.0
 11
299.240898
 21
249.709414
 31
0.0
  0
LINE
  5
96
330
1F
100
AcDbEntity
  8
1
100
AcDbLine
 10
298.018004
 20
246.430004
 30
0.0
 11
298.07713
 21
246.407956
 31
0.0
  0
LINE
  5
97
330
1F
100
AcDbEntity
  8
1
100
AcDbLine
 10
298.566975
 20
248.894927
 30
0.0
 11
298.716942
 21
248.839004
 31
0.0
  0
LINE
  5
98
330
1F
100
AcDbEntity
  8
1
100
AcDbLine
 10
298.765567
 20
247.21703
 30
0.0
 11
298.615599
 21
247.272953
 31
0.0
  0
LINE
  5
99
330
1F
100
AcDbEntity
  8
1
100
AcDbLine
 10
299.451374
 20
248.238786
 30
0.0
 11
299.58128
 21
248.190344
 31
0.0
  0
LINE
  5
9A
330
1F
100
AcDbEntity
  8
SK1
100
AcDbLine
 10
157.144248
 20
236.731161
 30
0.0
 11
158.144248
 21
235.731161
 31
0.0
  0
LINE
  5
9B
330
1F
100
AcDbEntity
  8
SK1
100
AcDbLine
 10
158.144248
 20
251.731161
 30
0.0
 11
157.144248
 21
250.731161
 31
0.0
  0
LINE
  5
9C
330
1F
100
AcDbEntity
  8
SK1
100
AcDbLine
 10
237.144248
 20
251.731161
 30
0.0
 11
158.144248
 21
251.731161
 31
0.0
  0
LINE
  5
9D
330
1F
100
AcDbEntity
  8
1
100
AcDbLine
 10
297.638271
 20
248.374375
 30
0.0
 11
297.778656
 21
248.322025
 31
0.0
  0
LINE
  5
9E
330
1F
100
AcDbEntity
  8
1
100
AcDbLine
 10
297.7381689999999
 20
248.407911
 30
0.0
 11
297.882835
 21
248.353965
 31
0.0
  0
LINE
  5
9F
330
1F
100
AcDbEntity
  8
1
100
AcDbLine
 10
297.597772
 20
247.985519
 30
0.0
 11
297.738158
 21
247.933169
 31
0.0
  0
LINE
  5
A0
330
1F
100
AcDbEntity
  8
1
100
AcDbLine
 10
298.016206
 20
248.795859
 30
0.0
 11
298.160872
 21
248.741913
 31
0.0
  0
LINE
  5
A1
330
1F
100
AcDbEntity
  8
1
100
AcDbLine
 10
297.8060200000001
 20
248.412039
 30
0.0
 11
297.953833
 21
248.35692
 31
0.0
  0
LINE
  5
A2
330
1F
100
AcDbEntity
  8
1
100
AcDbLine
 10
298.03375
 20
248.729794
 30
0.0
 11
298.181563
 21
248.674674
 31
0.0
  0
LINE
  5
A3
330
1F
100
AcDbEntity
  8
1
100
AcDbLine
 10
298.016273
 20
248.901805
 30
0.0
 11
298.156658
 21
248.849456
 31
0.0
  0
LINE
  5
A4
330
1F
100
AcDbEntity
  8
1
100
AcDbLine
 10
297.754344
 20
247.915862
 30
0.0
 11
297.902157
 21
247.860742
 31
0.0
  0
LINE
  5
A5
330
1F
100
AcDbEntity
  8
1
100
AcDbLine
 10
298.370215
 20
249.063317
 30
0.0
 11
298.417757
 21
249.045588
 31
0.0
  0
LINE
  5
A6
330
1F
100
AcDbEntity
  8
1
100
AcDbLine
 10
297.911929
 20
247.560098
 30
0.0
 11
298.059742
 21
247.504979
 31
0.0
  0
LINE
  5
A7
330
1F
100
AcDbEntity
  8
1
100
AcDbLine
 10
297.881121
 20
247.498802
 30
0.0
 11
298.025787
 21
247.444856
 31
0.0
  0
LINE
  5
A8
330
1F
100
AcDbEntity
  8
1
100
AcDbLine
 10
299.300024
 20
249.687366
 30
0.0
 11
299.299881
 21
249.687419
 31
0.0
  0
LINE
  5
A9
330
1F
100
AcDbEntity
  8
1
100
AcDbLine
 10
297.859343
 20
247.394998
 30
0.0
 11
297.999728
 21
247.342648
 31
0.0
  0
LINE
  5
AA
330
1F
100
AcDbEntity
  8
1
100
AcDbLine
 10
298.870693
 20
248.897872
 30
0.0
 11
299.018506
 21
248.842753
 31
0.0
  0
LINE
  5
AB
330
1F
100
AcDbEntity
  8
1
100
AcDbLine
 10
298.918768
 20
248.946644
 30
0.0
 11
299.063434
 21
248.892698
 31
0.0
  0
LINE
  5
AC
330
1F
100
AcDbEntity
  8
1
100
AcDbLine
 10
299.009787
 20
249.000227
 30
0.0
 11
299.150172
 21
248.947877
 31
0.0
  0
LINE
  5
AD
330
1F
100
AcDbEntity
  8
1
100
AcDbLine
 10
298.697197
 20
247.231999
 30
0.0
 11
298.84501
 21
247.17688
 31
0.0
  0
LINE
  5
AE
330
1F
100
AcDbEntity
  8
1
100
AcDbLine
 10
298.734239
 20
247.174831
 30
0.0
 11
298.878905
 21
247.120885
 31
0.0
  0
LINE
  5
AF
330
1F
100
AcDbEntity
  8
1
100
AcDbLine
 10
299.493849
 20
248.234725
 30
0.0
 11
299.571087
 21
248.205923
 31
0.0
  0
LINE
  5
B0
330
1F
100
AcDbEntity
  8
1
100
AcDbLine
 10
237.749141
 20
235.834278
 30
0.0
 11
282.138017
 21
236.492849
 31
0.0
  0
LINE
  5
B1
330
1F
100
AcDbEntity
  8
1
100
AcDbLine
 10
282.138017
 20
250.969474
 30
0.0
 11
237.749141
 21
251.628045
 31
0.0
  0
LINE
  5
B2
330
1F
100
AcDbEntity
  8
SK1
100
AcDbLine
 10
237.144248
 20
235.731161
 30
0.0
 11
237.144248
 21
251.731161
 31
0.0
  0
LINE
  5
B3
330
1F
100
AcDbEntity
  8
SK1
100
AcDbLine
 10
158.144248
 20
235.731161
 30
0.0
 11
158.144248
 21
251.731161
 31
0.0
  0
LINE
  5
B4
330
1F
100
AcDbEntity
  8
1
100
AcDbLine
 10
302.079338
 20
239.757988
 30
0.0
 11
302.029594
 21
239.794995
 31
0.0
  0
LINE
  5
B5
330
1F
100
AcDbEntity
  8
1
100
AcDbLine
 10
299.143166
 20
235.816702
 30
0.0
 11
299.214334
 21
235.943991
 31
0.0
  0
LINE
  5
B6
330
1F
100
AcDbEntity
  8
1
100
AcDbLine
 10
301.617583
 20
241.25232
 30
0.0
 11
300.939653
 21
236.940986
 31
0.0
  0
LINE
  5
B7
330
1F
100
AcDbEntity
  8
1
100
AcDbLine
 10
301.480731
 20
241.311493
 30
0.0
 11
301.551624
 21
241.299649
 31
0.0
  0
LINE
  5
B8
330
1F
100
AcDbEntity
  8
1
100
AcDbLine
 10
296.546954
 20
237.637219
 30
0.0
 11
296.570808
 21
237.788924
 31
0.0
  0
LINE
  5
B9
330
1F
100
AcDbEntity
  8
1
100
AcDbLine
 10
300.89323
 20
236.874808
 30
0.0
 11
296.612914
 21
237.58989
 31
0.0
  0
LINE
  5
BA
330
1F
100
AcDbEntity
  8
1
100
AcDbLine
 10
301.494248
 20
245.570432
 30
0.0
 11
301.494248
 21
245.047293
 31
0.0
  0
LINE
  5
BB
330
1F
100
AcDbEntity
  8
1
100
AcDbLine
 10
295.425913
 20
246.7757
 30
0.0
 11
294.849171
 21
250.496097
 31
0.0
  0
LINE
  5
BC
330
1F
100
AcDbEntity
  8
1
100
AcDbLine
 10
295.451692
 20
245.728888
 30
0.0
 11
294.806212
 21
250.567038
 31
0.0
  0
LINE
  5
BD
330
1F
100
AcDbEntity
  8
1
100
AcDbLine
 10
295.580458
 20
246.80117
 30
0.0
 11
295.425913
 21
246.7757
 31
0.0
  0
LINE
  5
BE
330
1F
100
AcDbEntity
  8
1
100
AcDbLine
 10
301.494248
 20
244.963562
 30
0.0
 11
301.494248
 21
245.047289
 31
0.0
  0
LINE
  5
BF
330
1F
100
AcDbEntity
  8
1
100
AcDbLine
 10
301.494248
 20
244.965639
 30
0.0
 11
301.494248
 21
241.547334
 31
0.0
  0
LINE
  5
C0
330
1F
100
AcDbEntity
  8
1
100
AcDbLine
 10
296.418766
 20
245.728821
 30
0.0
 11
294.1146470000001
 21
245.728821
 31
0.0
  0
LINE
  5
C1
330
1F
100
AcDbEntity
  8
1
100
AcDbLine
 10
291.568426
 20
245.935869
 30
0.0
 11
291.568426
 21
236.982719
 31
0.0
  0
LINE
  5
C2
330
1F
100
AcDbEntity
  8
80
100
AcDbLine
 10
204.144675
 20
243.731161
 30
0.0
 11
206.143822
 21
243.731161
 31
0.0
  0
LINE
  5
C3
330
1F
100
AcDbEntity
  8
80
100
AcDbLine
 10
205.144248
 20
242.731588
 30
0.0
 11
205.144248
 21
244.730735
 31
0.0
  0
LINE
  5
C4
330
1F
100
AcDbEntity
  8
SK1
100
AcDbLine
 10
158.144248
 20
235.731161
 30
0.0
 11
237.144248
 21
235.731161
 31
0.0
  0
LINE
  5
C5
330
1F
100
AcDbEntity
  8
81
100
AcDbLine
 10
300.144248
 20
251.731161
 30
0.0
 11
304.144248
 21
251.731161
 31
0.0
  0
LINE
  5
C6
330
1F
100
AcDbEntity
  8
81
100
AcDbLine
 10
302.144248
 20
249.731161
 30
0.0
 11
302.144248
 21
253.731161
 31
0.0
  0
LINE
  5
C7
330
1F
100
AcDbEntity
  8
NOCUT
100
AcDbLine
 10
296.8979950000001
 20
250.85368
 30
0.0
 11
300.568208
 21
251.207082
 31
0.0
  0
LINE
  5
C9
330
1F
100
AcDbEntity
  8
NOCUT
100
AcDbLine
 10
273.587624
 20
243.731161
 30
0.0
 11
301.494248
 21
243.731161
 31
0.0
  0
LINE
  5
CA
330
1F
100
AcDbEntity
  8
NOCUT
100
AcDbLine
 10
273.587624
 20
243.731161
 30
0.0
 11
272.144248
 21
246.231161
 31
0.0
  0
LINE
  5
CB
330
1F
100
AcDbEntity
  8
NOCUT
100
AcDbLine
 10
157.144248
 20
247.097187
 30
0.0
 11
157.144248
 21
250.731161
 31
0.0
  0
LINE
  5
CC
330
1F
100
AcDbEntity
  8
NOCUT
100
AcDbLine
 10
237.749141
 20
251.628045
 30
0.0
 11
291.420079
 21
250.831762
 31
0.0
  0
LINE
  5
CD
330
1F
100
AcDbEntity
  8
NOCUT
100
AcDbLine
 10
291.568426
 20
250.830661
 30
0.0
 11
296.418766
 21
250.830661
 31
0.0
  0
LINE
  5
CE
330
1F
100
AcDbEntity
  8
NOCUT
100
AcDbLine
 10
300.892404
 20
250.960557
 30
0.0
 11
301.463864
 21
247.719647
 31
0.0
  0
LINE
  5
CF
330
1F
100
AcDbEntity
  8
NOCUT
100
AcDbLine
 10
301.494248
 20
247.372351
 30
0.0
 11
301.494248
 21
243.731161
 31
0.0
  0
LINE
  5
D0
330
1F
100
AcDbEntity
  8
NOCUT
100
AcDbLine
 10
272.144248
 20
246.231161
 30
0.0
 11
158.644248
 21
246.231161
 31
0.0
  0
LINE
  5
D1
330
1F
100
AcDbEntity
  8
NOCUT
100
AcDbLine
 10
158.644248
 20
246.231161
 30
0.0
 11
157.144248
 21
247.097187
 31
0.0
  0
LINE
  5
D2
330
1F
100
AcDbEntity
  8
NOCUT
100
AcDbLine
 10
157.144248
 20
250.731161
 30
0.0
 11
158.144248
 21
251.731161
 31
0.0
  0
LINE
  5
D3
330
1F
100
AcDbEntity
  8
NOCUT
100
AcDbLine
 10
158.144248
 20
251.731161
 30
0.0
 11
237.144248
 21
251.731161
 31
0.0
  0
ARC
  5
D4
330
1F
100
AcDbEntity
  8
1
100
AcDbCircle
 10
237.77881
 20
233.834498
 30
0.0
 40
2.0
100
AcDbArc
 50
90.84999999999999
 51
108.498571
  0
ARC
  5
D5
330
1F
100
AcDbEntity
  8
1
100
AcDbCircle
 10
237.77881
 20
253.6278240000001
 30
0.0
 40
2.0
100
AcDbArc
 50
251.501429
 51
269.15
  0
ARC
  5
D6
330
1F
100
AcDbEntity
  8
NOCUT
100
AcDbCircle
 10
296.418766
 20
255.830661
 30
0.0
 40
5.0
100
AcDbArc
 50
270.0
 51
275.5
  0
ARC
  5
D7
330
1F
100
AcDbEntity
  8
NOCUT
100
AcDbCircle
 10
300.596962
 20
250.908463
 30
0.0
 40
0.3
100
AcDbArc
 50
10.0
 51
95.5
  0
ARC
  5
D8
330
1F
100
AcDbEntity
  8
NOCUT
100
AcDbCircle
 10
237.77881
 20
253.6278240000001
 30
0.0
 40
2.0
100
AcDbArc
 50
251.501429
 51
269.15
  0
ARC
  5
D9
330
1F
100
AcDbEntity
  8
NOCUT
100
AcDbCircle
 10
291.568426
 20
260.830661
 30
0.0
 40
10.0
100
AcDbArc
 50
269.15
 51
270.0
  0
ARC
  5
DA
330
1F
100
AcDbEntity
  8
NOCUT
100
AcDbCircle
 10
299.494248
 20
247.372351
 30
0.0
 40
2.0
100
AcDbArc
 50
360.0
 51
10.0
  0
ELLIPSE
  5
DB
330
1F
100
AcDbEntity
  8
1
100
AcDbEllipse
 10
298.591287
 20
248.08394
 30
0.0
 11
-0.4018081403839574
 21
-1.077520402740099
 31
0.0
210
0.0
220
0.0
230
1.0
 40
0.9889370000000001
 41
0.0
 42
6.283185307179585
  0
ELLIPSE
  5
DC
330
1F
100
AcDbEntity
  8
1
100
AcDbEllipse
 10
298.786593
 20
248.127811
 30
0.0
 11
-0.6407304471295241
 21
-1.718233306022919
 31
0.0
210
0.0
220
0.0
230
0.9999999999999998
 40
0.9889370000000001
 41
0.3605863793381857
 42
0.821909637889561
  0
ELLIPSE
  5
DD
330
1F
100
AcDbEntity
  8
1
100
AcDbEllipse
 10
298.786593
 20
248.127811
 30
0.0
 11
-0.6407304471295241
 21
-1.718233306022919
 31
0.0
210
0.0
220
0.0
230
0.9999999999999998
 40
0.9889370000000001
 41
2.319859800116148
 42
4.407644696230462
  0
ELLIPSE
  5
DE
330
1F
100
AcDbEntity
  8
1
100
AcDbEllipse
 10
298.786593
 20
248.127811
 30
0.0
 11
-0.6407304471295241
 21
-1.718233306022919
 31
0.0
210
0.0
220
0.0
230
0.9999999999999998
 40
0.9889370000000001
 41
0.2902928167543015
 42
0.3605858286959526
  0
ELLIPSE
  5
DF
330
1F
100
AcDbEntity
  8
1
100
AcDbEllipse
 10
298.766785
 20
248.135197
 30
0.0
 11
-0.665503019366734
 21
-1.784665389724457
 31
0.0
210
0.0
220
0.0
230
1.0
 40
0.9889370000000001
 41
2.81809706339076
 42
3.501491665966959
  0
ELLIPSE
  5
E0
330
1F
100
AcDbEntity
  8
1
100
AcDbEllipse
 10
298.766785
 20
248.135197
 30
0.0
 11
-0.665503019366734
 21
-1.784665389724457
 31
0.0
210
0.0
220
0.0
230
1.0
 40
0.9889370000000001
 41
3.501491665966955
 42
5.968132736130157
  0
ELLIPSE
  5
E1
330
1F
100
AcDbEntity
  8
1
100
AcDbEllipse
 10
298.766785
 20
248.135197
 30
0.0
 11
-0.665503019366734
 21
-1.784665389724457
 31
0.0
210
0.0
220
0.0
230
1.0
 40
0.9889370000000001
 41
5.968132736130168
 42
6.283185307179585
  0
ELLIPSE
  5
E2
330
1F
100
AcDbEntity
  8
1
100
AcDbEllipse
 10
298.766785
 20
248.135197
 30
0.0
 11
-0.665503019366734
 21
-1.784665389724457
 31
0.0
210
0.0
220
0.0
230
1.0
 40
0.9889370000000001
 41
0.0
 42
0.3234758515949504
  0
ELLIPSE
  5
E3
330
1F
100
AcDbEntity
  8
1
100
AcDbEllipse
 10
298.640293
 20
248.182366
 30
0.0
 11
0.6821681209259875
 21
1.829355840561711
 31
0.0
210
0.0
220
0.0
230
1.0
 40
0.9889370000000001
 41
0.0
 42
6.283185307179585
  0
ELLIPSE
  5
E4
330
1F
100
AcDbEntity
  8
1
100
AcDbEllipse
 10
410.179574
 20
243.083761
 30
0.0
 11
-128.4682357805193
 21
0.9535463560464936
 31
0.0
210
0.0
220
0.0
230
0.9999999999999998
 40
0.101963
 41
0.4919166219934105
 42
0.5494297573350063
  0
ELLIPSE
  5
E5
330
1F
100
AcDbEntity
  8
1
100
AcDbEllipse
 10
286.393978
 20
243.983408
 30
0.0
 11
-77.34862931684412
 21
1.589842813972732
 31
0.0
210
0.0
220
0.0
230
1.0
 40
0.089293
 41
1.54668215924899
 42
1.637657210042175
  0
ELLIPSE
  5
E6
330
1F
100
AcDbEntity
  8
1
100
AcDbEllipse
 10
286.393978
 20
243.478914
 30
0.0
 11
-77.34862933119912
 21
-1.589842814306147
 31
0.0
210
0.0
220
0.0
230
1.0
 40
0.089293
 41
4.645528097144281
 42
4.736503147920592
  0
ELLIPSE
  5
E7
330
1F
100
AcDbEntity
  8
1
100
AcDbEllipse
 10
299.327913
 20
239.653071
 30
0.0
 11
0.2445788680597518
 21
-0.6558819842766014
 31
0.0
210
0.0
220
0.0
230
0.9999999999999998
 40
0.9889370000000001
 41
0.0
 42
6.283185307179585
  0
ELLIPSE
  5
E8
330
1F
100
AcDbEntity
  8
1
100
AcDbEllipse
 10
298.688577
 20
248.047661
 30
0.0
 11
0.6114471701494965
 21
1.639704960691456
 31
0.0
210
0.0
220
0.0
230
1.0
 40
0.9889370000000001
 41
3.141582773081591
 42
6.015452995409451
  0
ELLIPSE
  5
E9
330
1F
100
AcDbEntity
  8
1
100
AcDbEllipse
 10
298.688577
 20
248.047661
 30
0.0
 11
0.6114471701494965
 21
1.639704960691456
 31
0.0
210
0.0
220
0.0
230
1.0
 40
0.9889370000000001
 41
6.015452995409461
 42
6.283185307179585
  0
ELLIPSE
  5
EA
330
1F
100
AcDbEntity
  8
1
100
AcDbEllipse
 10
298.629451
 20
248.069709
 30
0.0
 11
-0.6114471701495006
 21
-1.639704960691455
 31
0.0
210
0.0
220
0.0
230
1.0
 40
0.9889370000000001
 41
0.0
 42
6.283185307179585
  0
ELLIPSE
  5
EB
330
1F
100
AcDbEntity
  8
1
100
AcDbEllipse
 10
298.840901
 20
248.976214
 30
0.0
 11
0.0294277820958358
 21
0.0789158616481806
 31
0.0
210
0.0
220
0.0
230
1.0
 40
0.9889370000000001
 41
3.867427808851426
 42
4.706456001029097
  0
ELLIPSE
  5
EC
330
1F
100
AcDbEntity
  8
1
100
AcDbEllipse
 10
298.996635
 20
248.917074
 30
0.0
 11
0.0294277820958359
 21
0.0789158616481807
 31
0.0
210
0.0
220
0.0
230
0.9999999999999998
 40
0.9889370000000001
 41
0.2022363796634322
 42
1.56486334743943
  0
ELLIPSE
  5
ED
330
1F
100
AcDbEntity
  8
1
100
AcDbEllipse
 10
298.942333
 20
248.573759
 30
0.0
 11
0.1509266977232207
 21
0.4047369372844399
 31
0.0
210
0.0
220
0.0
230
1.0
 40
0.9889370000000001
 41
5.545484193206834
 42
6.485421686842962
  0
ELLIPSE
  5
EE
330
1F
100
AcDbEntity
  8
1
100
AcDbEllipse
 10
299.248963
 20
248.734057
 30
0.0
 11
0.0294277820958358
 21
0.0789158616481805
 31
0.0
210
0.0
220
0.0
230
1.0
 40
0.9889370000000001
 41
4.182857225430768
 42
5.545484193206903
  0
ELLIPSE
  5
EF
330
1F
100
AcDbEntity
  8
1
100
AcDbEllipse
 10
299.353942
 20
248.604099
 30
0.0
 11
0.0294277820958358
 21
0.0789158616481805
 31
0.0
210
0.0
220
0.0
230
0.9999999999999998
 40
0.9889370000000001
 41
1.041264571841017
 42
1.880292764018705
  0
ELLIPSE
  5
F0
330
1F
100
AcDbEntity
  8
1
100
AcDbEllipse
 10
299.697856
 20
248.588891
 30
0.0
 11
0.1509266977232206
 21
0.4047369372844397
 31
0.0
210
0.0
220
0.0
230
1.0
 40
0.9889370000000001
 41
1.880292764018718
 42
2.82023025765482
  0
ELLIPSE
  5
F1
330
1F
100
AcDbEntity
  8
1
100
AcDbEllipse
 10
299.480801
 20
248.317702
 30
0.0
 11
0.0294277820958358
 21
0.0789158616481806
 31
0.0
210
0.0
220
0.0
230
1.0
 40
0.9889370000000001
 41
2.82023025765483
 42
3.659258449832441
  0
ELLIPSE
  5
F2
330
1F
100
AcDbEntity
  8
1
100
AcDbEllipse
 10
299.5068970000001
 20
248.151747
 30
0.0
 11
0.0294277820958359
 21
0.0789158616481807
 31
0.0
210
0.0
220
0.0
230
0.9999999999999998
 40
0.9889370000000001
 41
5.438224135646339
 42
6.800851103422329
  0
ELLIPSE
  5
F3
330
1F
100
AcDbEntity
  8
1
100
AcDbEllipse
 10
299.18525
 20
248.02535
 30
0.0
 11
0.1509266977232207
 21
0.4047369372844399
 31
0.0
210
0.0
220
0.0
230
1.0
 40
0.9889370000000001
 41
4.498286642010212
 42
5.438224135646311
  0
ELLIPSE
  5
F4
330
1F
100
AcDbEntity
  8
1
100
AcDbEllipse
 10
299.474295
 20
247.838711
 30
0.0
 11
0.0294277820958358
 21
0.0789158616481805
 31
0.0
210
0.0
220
0.0
230
1.0
 40
0.9889370000000001
 41
3.135659674234288
 42
4.498286642010202
  0
ELLIPSE
  5
F5
330
1F
100
AcDbEntity
  8
1
100
AcDbEllipse
 10
299.414514
 20
247.681227
 30
0.0
 11
0.0294277820958358
 21
0.0789158616481805
 31
0.0
210
0.0
220
0.0
230
0.9999999999999998
 40
0.9889370000000001
 41
6.277252327823995
 42
7.116280520001793
  0
ELLIPSE
  5
F6
330
1F
100
AcDbEntity
  8
1
100
AcDbEllipse
 10
299.571241
 20
247.373167
 30
0.0
 11
0.1509266977232206
 21
0.4047369372844397
 31
0.0
210
0.0
220
0.0
230
1.0
 40
0.9889370000000001
 41
0.8330952128221341
 42
1.77303270645822
  0
ELLIPSE
  5
F7
330
1F
100
AcDbEntity
  8
1
100
AcDbEllipse
 10
299.231187
 20
247.425429
 30
0.0
 11
0.0294277820958358
 21
0.0789158616481806
 31
0.0
210
0.0
220
0.0
230
1.0
 40
0.9889370000000001
 41
1.773032706458229
 42
2.612060898635856
  0
ELLIPSE
  5
F8
330
1F
100
AcDbEntity
  8
1
100
AcDbEllipse
 10
299.101549
 20
247.318614
 30
0.0
 11
0.0294277820958359
 21
0.0789158616481807
 31
0.0
210
0.0
220
0.0
230
0.9999999999999998
 40
0.9889370000000001
 41
4.391026584449793
 42
5.753653552225745
  0
ELLIPSE
  5
F9
330
1F
100
AcDbEntity
  8
1
100
AcDbEllipse
 10
298.834204
 20
247.535531
 30
0.0
 11
0.1509266977232207
 21
0.4047369372844399
 31
0.0
210
0.0
220
0.0
230
1.0
 40
0.9889370000000001
 41
3.451089090813634
 42
4.391026584449726
  0
ELLIPSE
  5
FA
330
1F
100
AcDbEntity
  8
1
100
AcDbEllipse
 10
298.816619
 20
247.188594
 30
0.0
 11
0.0294277820958358
 21
0.0789158616481805
 31
0.0
210
0.0
220
0.0
230
1.0
 40
0.9889370000000001
 41
2.088462123037622
 42
3.451089090813818
  0
ELLIPSE
  5
FB
330
1F
100
AcDbEntity
  8
1
100
AcDbEllipse
 10
298.651859
 20
247.161069
 30
0.0
 11
0.0294277820958358
 21
0.0789158616481805
 31
0.0
210
0.0
220
0.0
230
0.9999999999999998
 40
0.9889370000000001
 41
5.230054776627452
 42
6.069082968805031
  0
ELLIPSE
  5
FC
330
1F
100
AcDbEntity
  8
1
100
AcDbEllipse
 10
298.464673
 20
246.868216
 30
0.0
 11
0.1509266977232206
 21
0.4047369372844397
 31
0.0
210
0.0
220
0.0
230
1.0
 40
0.9889370000000001
 41
6.069082968805092
 42
7.009020462441223
  0
ELLIPSE
  5
FD
330
1F
100
AcDbEntity
  8
1
100
AcDbEllipse
 10
298.341673
 20
247.191667
 30
0.0
 11
0.0294277820958358
 21
0.0789158616481806
 31
0.0
210
0.0
220
0.0
230
1.0
 40
0.9889370000000001
 41
0.7258351552615695
 42
1.564863347439302
  0
ELLIPSE
  5
FE
330
1F
100
AcDbEntity
  8
1
100
AcDbEllipse
 10
298.185939
 20
247.250806
 30
0.0
 11
0.0294277820958359
 21
0.0789158616481807
 31
0.0
210
0.0
220
0.0
230
0.9999999999999998
 40
0.9889370000000001
 41
3.343829033253299
 42
4.706456001029138
  0
ELLIPSE
  5
FF
330
1F
100
AcDbEntity
  8
1
100
AcDbEllipse
 10
298.240241
 20
247.594122
 30
0.0
 11
0.1509266977232207
 21
0.4047369372844399
 31
0.0
210
0.0
220
0.0
230
1.0
 40
0.9889370000000001
 41
2.403891539617034
 42
3.343829033253133
  0
ELLIPSE
  5
100
330
1F
100
AcDbEntity
  8
1
100
AcDbEllipse
 10
297.933611
 20
247.433823
 30
0.0
 11
0.0294277820958358
 21
0.0789158616481805
 31
0.0
210
0.0
220
0.0
230
1.0
 40
0.9889370000000001
 41
1.041264571841054
 42
2.403891539617011
  0
ELLIPSE
  5
101
330
1F
100
AcDbEntity
  8
1
100
AcDbEllipse
 10
297.828632
 20
247.563782
 30
0.0
 11
0.0294277820958358
 21
0.0789158616481805
 31
0.0
210
0.0
220
0.0
230
0.9999999999999998
 40
0.9889370000000001
 41
4.182857225430803
 42
5.021885417608539
  0
ELLIPSE
  5
102
330
1F
100
AcDbEntity
  8
1
100
AcDbEllipse
 10
297.4847180000001
 20
247.578989
 30
0.0
 11
0.1509266977232206
 21
0.4047369372844397
 31
0.0
210
0.0
220
0.0
230
1.0
 40
0.9889370000000001
 41
5.021885417608519
 42
5.961822911244648
  0
ELLIPSE
  5
103
330
1F
100
AcDbEntity
  8
1
100
AcDbEllipse
 10
297.701773
 20
247.850178
 30
0.0
 11
0.0294277820958358
 21
0.0789158616481806
 31
0.0
210
0.0
220
0.0
230
1.0
 40
0.9889370000000001
 41
5.961822911244597
 42
6.800851103422349
  0
ELLIPSE
  5
104
330
1F
100
AcDbEntity
  8
1
100
AcDbEllipse
 10
297.675677
 20
248.016133
 30
0.0
 11
0.0294277820958359
 21
0.0789158616481807
 31
0.0
210
0.0
220
0.0
230
0.9999999999999998
 40
0.9889370000000001
 41
2.296631482056573
 42
3.659258449832536
  0
ELLIPSE
  5
105
330
1F
100
AcDbEntity
  8
1
100
AcDbEllipse
 10
297.9973240000001
 20
248.142531
 30
0.0
 11
0.1509266977232207
 21
0.4047369372844399
 31
0.0
210
0.0
220
0.0
230
1.0
 40
0.9889370000000001
 41
1.35669398842041
 42
2.296631482056508
  0
ELLIPSE
  5
106
330
1F
100
AcDbEntity
  8
1
100
AcDbEllipse
 10
297.708279
 20
248.32917
 30
0.0
 11
0.0294277820958358
 21
0.0789158616481805
 31
0.0
210
0.0
220
0.0
230
1.0
 40
0.9889370000000001
 41
6.277252327824081
 42
7.639879295600079
  0
ELLIPSE
  5
107
330
1F
100
AcDbEntity
  8
1
100
AcDbEllipse
 10
297.76806
 20
248.486653
 30
0.0
 11
0.0294277820958358
 21
0.0789158616481805
 31
0.0
210
0.0
220
0.0
230
0.9999999999999998
 40
0.9889370000000001
 41
3.135659674234201
 42
3.974687866412028
  0
ELLIPSE
  5
108
330
1F
100
AcDbEntity
  8
1
100
AcDbEllipse
 10
297.611333
 20
248.794713
 30
0.0
 11
0.1509266977232206
 21
0.4047369372844397
 31
0.0
210
0.0
220
0.0
230
1.0
 40
0.9889370000000001
 41
3.974687866411938
 42
4.914625360048034
  0
ELLIPSE
  5
109
330
1F
100
AcDbEntity
  8
1
100
AcDbEllipse
 10
297.951387
 20
248.742452
 30
0.0
 11
0.0294277820958358
 21
0.0789158616481806
 31
0.0
210
0.0
220
0.0
230
1.0
 40
0.9889370000000001
 41
4.914625360048086
 42
5.753653552225745
  0
ELLIPSE
  5
10A
330
1F
100
AcDbEntity
  8
1
100
AcDbEllipse
 10
298.081025
 20
248.849267
 30
0.0
 11
0.0294277820958359
 21
0.0789158616481807
 31
0.0
210
0.0
220
0.0
230
0.9999999999999998
 40
0.9889370000000001
 41
1.249433930859852
 42
2.612060898635951
  0
ELLIPSE
  5
10B
330
1F
100
AcDbEntity
  8
1
100
AcDbEllipse
 10
298.34837
 20
248.632349
 30
0.0
 11
0.1509266977232207
 21
0.4047369372844399
 31
0.0
210
0.0
220
0.0
230
1.0
 40
0.9889370000000001
 41
0.3094964372238391
 42
1.249433930859919
  0
ELLIPSE
  5
10C
330
1F
100
AcDbEntity
  8
1
100
AcDbEllipse
 10
298.365955
 20
248.979286
 30
0.0
 11
0.0294277820958358
 21
0.0789158616481805
 31
0.0
210
0.0
220
0.0
230
1.0
 40
0.9889370000000001
 41
5.230054776627457
 42
6.592681744403437
  0
ELLIPSE
  5
10D
330
1F
100
AcDbEntity
  8
1
100
AcDbEllipse
 10
298.530715
 20
249.006812
 30
0.0
 11
0.0294277820958358
 21
0.0789158616481805
 31
0.0
210
0.0
220
0.0
230
0.9999999999999998
 40
0.9889370000000001
 41
2.088462123037659
 42
2.927490315215338
  0
ELLIPSE
  5
10E
330
1F
100
AcDbEntity
  8
1
100
AcDbEllipse
 10
298.717901
 20
249.299664
 30
0.0
 11
0.1509266977232206
 21
0.4047369372844397
 31
0.0
210
0.0
220
0.0
230
1.0
 40
0.9889370000000001
 41
2.927490315215329
 42
3.867427808851449
  0
ELLIPSE
  5
10F
330
1F
100
AcDbEntity
  8
1
100
AcDbEllipse
 10
294.6581720000001
 20
228.388265
 30
0.0
 11
13.81973939837186
 21
-5.832221100154651
 31
0.0
210
0.0
220
0.0
230
0.9999999999999998
 40
0.9713729999999999
 41
2.948013041576253
 42
2.951172892651518
  0
ELLIPSE
  5
110
330
1F
100
AcDbEntity
  8
1
100
AcDbEllipse
 10
295.853226
 20
242.701335
 30
0.0
 11
-3.520092806321995
 21
7.114321886321278
 31
0.0
210
0.0
220
0.0
230
1.0
 40
0.723603
 41
3.505938679425225
 42
3.973790044892
  0
ELLIPSE
  5
111
330
1F
100
AcDbEntity
  8
1
100
AcDbEllipse
 10
299.6529
 20
240.913368
 30
0.0
 11
-1.354547589501639
 21
2.737623151694405
 31
0.0
210
0.0
220
0.0
230
0.9999999999999998
 40
0.723603
 41
3.973790044914084
 42
4.337005089375348
  0
ELLIPSE
  5
112
330
1F
100
AcDbEntity
  8
1
100
AcDbEllipse
 10
300.356156
 20
240.885777
 30
0.0
 11
-0.9473920417956595
 21
1.914736997437173
 31
0.0
210
0.0
220
0.0
230
0.9999999999999998
 40
0.723603
 41
4.337005088924366
 42
4.502997777941503
  0
ELLIPSE
  5
113
330
1F
100
AcDbEntity
  8
1
100
AcDbEllipse
 10
300.766788
 20
233.945358
 30
0.0
 11
-5.325253448405544
 21
8.162589296482098
 31
0.0
210
0.0
220
0.0
230
1.0
 40
0.5952539999999999
 41
5.349668436517309
 42
5.352219750093984
  0
ELLIPSE
  5
114
330
1F
100
AcDbEntity
  8
1
100
AcDbEllipse
 10
301.248409
 20
240.426482
 30
0.0
 11
-2.600354368056178
 21
-4.297503951669299
 31
0.0
210
0.0
220
0.0
230
0.9999999999999998
 40
0.5018470000000001
 41
0.2322729881756303
 42
0.5954880326260613
  0
ELLIPSE
  5
115
330
1F
100
AcDbEntity
  8
1
100
AcDbEllipse
 10
300.964942
 20
239.137043
 30
0.0
 11
-1.818729035638299
 21
-3.005742340063221
 31
0.0
210
0.0
220
0.0
230
1.0
 40
0.5018470000000001
 41
0.5954880322743077
 42
0.7614792265440162
  0
ELLIPSE
  5
116
330
1F
100
AcDbEntity
  8
1
100
AcDbEllipse
 10
304.50033
 20
247.592739
 30
0.0
 11
-6.757598459485684
 21
-11.16801865160818
 31
0.0
210
0.0
220
0.0
230
1.0
 40
0.5018470000000001
 41
6.047604195784613
 42
6.515458295357867
  0
ELLIPSE
  5
117
330
1F
100
AcDbEntity
  8
1
100
AcDbEllipse
 10
307.651081
 20
243.731173
 30
0.0
 11
-50.58481638018999
 21
-0.3790062457844416
 31
0.0
210
0.0
220
0.0
230
1.0
 40
0.140148
 41
4.958797389302906
 42
4.967199407645361
  0
ELLIPSE
  5
118
330
1F
100
AcDbEntity
  8
1
100
AcDbEllipse
 10
298.764917
 20
243.731161
 30
0.0
 11
-76.53290523666557
 21
-1.573408322978847
 31
0.0
210
0.0
220
0.0
230
1.0
 40
0.090457
 41
4.762277849954648
 42
4.804699605320454
  0
ELLIPSE
  5
119
330
1F
100
AcDbEntity
  8
1
100
AcDbEllipse
 10
295.680004
 20
243.731162
 30
0.0
 11
-1.189932598406489
 21
7.097856372376971
 31
0.0
210
0.0
220
0.0
230
0.9999999999999998
 40
0.128357
 41
5.953449388569557
 42
5.988303147880487
  0
ELLIPSE
  5
11A
330
1F
100
AcDbEntity
  8
1
100
AcDbEllipse
 10
295.217434
 20
246.853442
 30
0.0
 11
-0.2439220612318993
 21
1.480034468532535
 31
0.0
210
0.0
220
0.0
230
1.0
 40
0.129059
 41
3.828295355565845
 42
4.638582661288413
  0
ELLIPSE
  5
11B
330
1F
100
AcDbEntity
  8
1
100
AcDbEllipse
 10
294.805959
 20
258.723867
 30
0.0
 11
-12.34563386254549
 21
-5.2101175161382
 31
0.0
210
0.0
220
0.0
230
0.9999999999999998
 40
0.9713729999999999
 41
0.2856942511917923
 42
0.9935368585214112
  0
ELLIPSE
  5
11C
330
1F
100
AcDbEntity
  8
1
100
AcDbEllipse
 10
308.391798
 20
246.281813
 30
0.0
 11
-11.00198335632485
 21
-1.820377860619441
 31
0.0
210
0.0
220
0.0
230
1.0
 40
0.010606
 41
0.8878738687134186
 42
0.8914274268305016
  0
ELLIPSE
  5
11D
330
1F
100
AcDbEntity
  8
1
100
AcDbEllipse
 10
298.764917
 20
243.731161
 30
0.0
 11
-76.53290497777847
 21
1.573408321232149
 31
0.0
210
0.0
220
0.0
230
1.0
 40
0.090457
 41
1.478485702066004
 42
1.520907457574462
  0
ELLIPSE
  5
11E
330
1F
100
AcDbEntity
  8
1
100
AcDbEllipse
 10
295.680004
 20
243.731165
 30
0.0
 11
-1.18993310117387
 21
-7.097860345817465
 31
0.0
210
0.0
220
0.0
230
0.9999999999999998
 40
0.128357
 41
0.2948820762341334
 42
0.3297358253691605
  0
ELLIPSE
  5
11F
330
1F
100
AcDbEntity
  8
1
100
AcDbEllipse
 10
307.651063
 20
243.73114
 30
0.0
 11
-50.5847788242501
 21
0.3790083748958863
 31
0.0
210
0.0
220
0.0
230
1.0
 40
0.140148
 41
1.31598606824683
 42
1.32818776985628
  0
ELLIPSE
  5
120
330
1F
100
AcDbEntity
  8
1
100
AcDbEllipse
 10
295.682835
 20
243.731161
 30
0.0
 11
-1.8398411340142
 21
-7.040543118147791
 31
0.0
210
0.0
220
0.0
230
0.9999999999999998
 40
0.496263
 41
0.4249831499734486
 42
0.5774283260189211
  0
ELLIPSE
  5
121
330
1F
100
AcDbEntity
  8
1
100
AcDbEllipse
 10
296.6968700000001
 20
243.731161
 30
0.0
 11
-1.189932655521728
 21
-7.097856827566418
 31
0.0
210
0.0
220
0.0
230
1.0
 40
0.128357
 41
0.4699794020289514
 42
0.5616588630829217
  0
SPLINE
  5
122
330
1F
100
AcDbEntity
  8
1
100
AcDbSpline
210
0.0
220
0.0
230
1.0
 70
     8
 71
     3
 72
    19
 73
    15
 74
     0
 42
0.000000001
 43
0.0000000001
 40
0.0
 40
0.0
 40
0.0
 40
0.0
 40
0.2499999999999784
 40
0.2499999999999784
 40
0.3749999999999875
 40
0.3749999999999875
 40
0.4999999999999968
 40
0.6250000000000058
 40
0.6250000000000058
 40
0.6875000000000079
 40
0.6875000000000079
 40
0.7500000000000097
 40
0.7500000000000097
 40
1.0
 40
1.0
 40
1.0
 40
1.0
 10
295.4368340143201
 20
250.6602165177587
 30
0.0
 10
295.4046204673656
 20
250.6472127646648
 30
0.0
 10
295.3747358519814
 20
250.6303341322566
 30
0.0
 10
295.3333173272593
 20
250.5993557811501
 30
0.0
 10
295.3200012794488
 20
250.5879813757605
 30
0.0
 10
295.2952069159892
 20
250.5638351041987
 30
0.0
 10
295.2721494828631
 20
250.5382595630658
 30
0.0
 10
295.2525207514061
 20
250.5098665918938
 30
0.0
 10
295.2391158651817
 20
250.487488492068
 30
0.0
 10
295.2348646316378
 20
250.4798366418144
 30
0.0
 10
295.2269318669694
 20
250.4644028304977
 30
0.0
 10
295.2232325858511
 20
250.456593184646
 30
0.0
 10
295.2060415592232
 20
250.4170917135146
 30
0.0
 10
295.1964011264902
 20
250.3840626716549
 30
0.0
 10
295.1910185055197
 20
250.3495552502732
 30
0.0
  0
SPLINE
  5
123
330
1F
100
AcDbEntity
  8
1
100
AcDbSpline
210
0.0
220
0.0
230
1.0
 70
     8
 71
     3
 72
     8
 73
     4
 74
     0
 42
0.000000001
 43
0.0000000001
 40
0.0
 40
0.0
 40
0.0
 40
0.0
 40
1.0
 40
1.0
 40
1.0
 40
1.0
 10
295.1910185055197
 20
250.3495552502732
 30
0.0
 10
295.1906345010988
 20
250.347079359573
 30
0.0
 10
295.1902705800153
 20
250.344600501521
 30
0.0
 10
295.1899268864692
 20
250.3421192821858
 30
0.0
  0
SPLINE
  5
124
330
1F
100
AcDbEntity
  8
1
100
AcDbSpline
210
0.0
220
0.0
230
1.0
 70
     8
 71
     3
 72
    10
 73
     6
 74
     0
 42
0.000000001
 43
0.0000000001
 40
0.0
 40
0.0
 40
0.0
 40
0.0
 40
0.5
 40
0.5
 40
1.0
 40
1.0
 40
1.0
 40
1.0
 10
295.1899479699539
 20
250.342116918201
 30
0.0
 10
295.1741237275052
 20
250.2278066624108
 30
0.0
 10
295.1622431064437
 20
250.1130995050812
 30
0.0
 10
295.1463772580887
 20
249.8829232648212
 30
0.0
 10
295.142407853632
 20
249.7676188271416
 30
0.0
 10
295.142407853632
 20
249.6523093775395
 30
0.0
  0
SPLINE
  5
125
330
1F
100
AcDbEntity
  8
1
100
AcDbSpline
210
0.0
220
0.0
230
1.0
 70
     8
 71
     3
 72
     8
 73
     4
 74
     0
 42
0.000000001
 43
0.0000000001
 40
0.0
 40
0.0
 40
0.0
 40
0.0
 40
1.0
 40
1.0
 40
1.0
 40
1.0
 10
295.142407853632
 20
249.6523093775395
 30
0.0
 10
295.142407853632
 20
249.3187850433549
 30
0.0
 10
295.1661402718242
 20
248.9856272192073
 30
0.0
 10
295.2133889186108
 20
248.6558707920726
 30
0.0
  0
SPLINE
  5
126
330
1F
100
AcDbEntity
  8
1
100
AcDbSpline
210
0.0
220
0.0
230
1.0
 70
     8
 71
     3
 72
    16
 73
    12
 74
     0
 42
0.000000001
 43
0.0000000001
 40
0.0
 40
0.0
 40
0.0
 40
0.0
 40
0.1600672484073461
 40
0.1600672484073461
 40
0.3201344968146921
 40
0.3201344968146921
 40
0.6402689936293843
 40
0.6402689936293843
 40
0.9604034904440762
 40
0.9604034904440762
 40
1.0
 40
1.0
 40
1.0
 40
1.0
 10
295.2133889186108
 20
248.6558707920726
 30
0.0
 10
295.2361805130862
 20
248.4968043367554
 30
0.0
 10
295.2610872689793
 20
248.3381011535998
 30
0.0
 10
295.3151297045792
 20
248.0214210457487
 30
0.0
 10
295.3442677615282
 20
247.8634388166291
 30
0.0
 10
295.4379373970388
 20
247.3910449489273
 30
0.0
 10
295.5087447434437
 20
247.0780302083255
 30
0.0
 10
295.6671022995045
 20
246.4558344270269
 30
0.0
 10
295.7544939344269
 20
246.1472888188587
 30
0.0
 10
295.8618341083401
 20
245.8036222234168
 30
0.0
 10
295.8737739544334
 20
245.7658345471082
 30
0.0
 10
295.8858385021141
 20
245.7280874739938
 30
0.0
  0
SPLINE
  5
127
330
1F
100
AcDbEntity
  8
1
100
AcDbSpline
210
0.0
220
0.0
230
1.0
 70
     8
 71
     3
 72
     8
 73
     4
 74
     0
 42
0.000000001
 43
0.0000000001
 40
0.0
 40
0.0
 40
0.0
 40
0.0
 40
1.0
 40
1.0
 40
1.0
 40
1.0
 10
295.443377949201
 20
250.66279346374
 30
0.0
 10
295.4411908911707
 20
250.6619518466162
 30
0.0
 10
295.4390094250371
 20
250.6610927860237
 30
0.0
 10
295.4368340143201
 20
250.6602165177587
 30
0.0
  0
SPLINE
  5
128
330
1F
100
AcDbEntity
  8
1
100
AcDbSpline
210
0.0
220
0.0
230
1.0
 70
     8
 71
     3
 72
    16
 73
    12
 74
     0
 42
0.000000001
 43
0.0000000001
 40
0.0
 40
0.0
 40
0.0
 40
0.0
 40
0.1249999999999999
 40
0.1249999999999999
 40
0.2499999999999998
 40
0.2499999999999998
 40
0.5
 40
0.5
 40
0.75
 40
0.75
 40
1.0
 40
1.0
 40
1.0
 40
1.0
 10
299.1431660853148
 20
251.645620998496
 30
0.0
 10
298.9852612868473
 20
251.621477718121
 30
0.0
 10
298.8277012337168
 20
251.5952039653558
 30
0.0
 10
298.5132704601577
 20
251.5383969772843
 30
0.0
 10
298.3563944622448
 20
251.5078613059539
 30
0.0
 10
297.8872607971904
 20
251.4099571676496
 30
0.0
 10
297.5763427066765
 20
251.3362699729375
 30
0.0
 10
296.9581866755849
 20
251.1720390128143
 30
0.0
 10
296.6515800188982
 20
251.0816597938022
 30
0.0
 10
296.0436177266521
 20
250.8845364182539
 30
0.0
 10
295.742207888773
 20
250.7777779198682
 30
0.0
 10
295.4433795553076
 20
250.6627893298303
 30
0.0
  0
SPLINE
  5
129
330
1F
100
AcDbEntity
  8
1
100
AcDbSpline
210
0.0
220
0.0
230
1.0
 70
     8
 71
     3
 72
     8
 73
     4
 74
     0
 42
0.000000001
 43
0.0000000001
 40
0.0
 40
0.0
 40
0.0
 40
0.0
 40
1.0
 40
1.0
 40
1.0
 40
1.0
 10
300.1318047838412
 20
251.724461310191
 30
0.0
 10
299.8010642556496
 20
251.722031935436
 30
0.0
 10
299.470514312609
 20
251.6956717892795
 30
0.0
 10
299.1431660853148
 20
251.645620998496
 30
0.0
  0
SPLINE
  5
12A
330
1F
100
AcDbEntity
  8
1
100
AcDbSpline
210
0.0
220
0.0
230
1.0
 70
     8
 71
     3
 72
     8
 73
     4
 74
     0
 42
0.000000001
 43
0.0000000001
 40
0.0
 40
0.0
 40
0.0
 40
0.0
 40
1.0
 40
1.0
 40
1.0
 40
1.0
 10
300.8228705540994
 20
251.680495859225
 30
0.0
 10
300.8204207191063
 20
251.680866224959
 30
0.0
 10
300.8179664250673
 20
251.6812156755309
 30
0.0
 10
300.8155082678384
 20
251.6815440681043
 30
0.0
  0
SPLINE
  5
12B
330
1F
100
AcDbEntity
  8
1
100
AcDbSpline
210
0.0
220
0.0
230
1.0
 70
     8
 71
     3
 72
    10
 73
     6
 74
     0
 42
0.000000001
 43
0.0000000001
 40
0.0
 40
0.0
 40
0.0
 40
0.0
 40
0.5
 40
0.5
 40
1.0
 40
1.0
 40
1.0
 40
1.0
 10
300.8155074670846
 20
251.6815408253223
 30
0.0
 10
300.7022668953431
 20
251.6966675475266
 30
0.0
 10
300.5886034985768
 20
251.7078136408101
 30
0.0
 10
300.3604643266361
 20
251.7221378556691
 30
0.0
 10
300.246151724585
 20
251.7253012180567
 30
0.0
 10
300.1318047838412
 20
251.724461310191
 30
0.0
  0
SPLINE
  5
12C
330
1F
100
AcDbEntity
  8
1
100
AcDbSpline
210
0.0
220
0.0
230
1.0
 70
     8
 71
     3
 72
    19
 73
    15
 74
     0
 42
0.000000001
 43
0.0000000001
 40
0.0
 40
0.0
 40
0.0
 40
0.0
 40
0.2500000000001063
 40
0.2500000000001063
 40
0.375000000000162
 40
0.375000000000162
 40
0.5000000000002177
 40
0.6250000000002735
 40
0.6250000000002735
 40
0.687500000000259
 40
0.687500000000259
 40
0.7500000000002446
 40
0.7500000000002446
 40
1.0
 40
1.0
 40
1.0
 40
1.0
 10
301.1291518347428
 20
251.4348678127892
 30
0.0
 10
301.1164670141944
 20
251.4672469030697
 30
0.0
 10
301.0999283742935
 20
251.4972655354094
 30
0.0
 10
301.0694747083475
 20
251.5387957825959
 30
0.0
 10
301.0582785545395
 20
251.5521337097764
 30
0.0
 10
301.0344934548802
 20
251.5769442659438
 30
0.0
 10
301.0092824627125
 20
251.5999939273911
 30
0.0
 10
300.981276556408
 20
251.6195938403294
 30
0.0
 10
300.9591916529642
 20
251.6329609119413
 30
0.0
 10
300.9516395919661
 20
251.6371959613974
 30
0.0
 10
300.9364036875468
 20
251.6450901936288
 30
0.0
 10
300.9286922184803
 20
251.6487672167426
 30
0.0
 10
300.8896774861531
 20
251.6658300550964
 30
0.0
 10
300.8570263734837
 20
251.6753103675912
 30
0.0
 10
300.8228705540994
 20
251.680495859225
 30
0.0
  0
SPLINE
  5
12D
330
1F
100
AcDbEntity
  8
1
100
AcDbSpline
210
0.0
220
0.0
230
1.0
 70
     8
 71
     3
 72
     8
 73
     4
 74
     0
 42
0.000000001
 43
0.0000000001
 40
0.0
 40
0.0
 40
0.0
 40
0.0
 40
1.0
 40
1.0
 40
1.0
 40
1.0
 10
302.1503186994728
 20
246.7078956916576
 30
0.0
 10
302.1503186994728
 20
247.0414200258422
 30
0.0
 10
302.1265862812808
 20
247.3745778499899
 30
0.0
 10
302.079337634494
 20
247.7043342771245
 30
0.0
  0
SPLINE
  5
12E
330
1F
100
AcDbEntity
  8
1
100
AcDbSpline
210
0.0
220
0.0
230
1.0
 70
     8
 71
     3
 72
     8
 73
     4
 74
     0
 42
0.000000001
 43
0.0000000001
 40
0.0
 40
0.0
 40
0.0
 40
0.0
 40
1.0
 40
1.0
 40
1.0
 40
1.0
 10
301.1316645942239
 20
251.4282858777937
 30
0.0
 10
301.1308455783982
 20
251.4304863822845
 30
0.0
 10
301.1300079137569
 20
251.4326805154689
 30
0.0
 10
301.1291518347428
 20
251.4348678127892
 30
0.0
  0
SPLINE
  5
12F
330
1F
100
AcDbEntity
  8
1
100
AcDbSpline
210
0.0
220
0.0
230
1.0
 70
     8
 71
     3
 72
    16
 73
    12
 74
     0
 42
0.000000001
 43
0.0000000001
 40
0.0
 40
0.0
 40
0.0
 40
0.0
 40
0.1249999999999998
 40
0.1249999999999998
 40
0.2499999999999995
 40
0.2499999999999995
 40
0.4999999999999998
 40
0.4999999999999998
 40
0.7499999999999999
 40
0.7499999999999999
 40
1.0
 40
1.0
 40
1.0
 40
1.0
 10
302.079337634494
 20
247.7043342771245
 30
0.0
 10
302.0565461349588
 20
247.8634000698386
 30
0.0
 10
302.0316393638278
 20
248.022102641073
 30
0.0
 10
301.9775968448841
 20
248.3387815640008
 30
0.0
 10
301.9484587196107
 20
248.496763221301
 30
0.0
 10
301.8547889809505
 20
248.9691553681739
 30
0.0
 10
301.7839817251688
 20
249.2821689439955
 30
0.0
 10
301.6256250753991
 20
249.9043622097488
 30
0.0
 10
301.5382342472763
 20
250.2129064985842
 30
0.0
 10
301.347186292537
 20
250.8245804767724
 30
0.0
 10
301.2435153359387
 20
251.1277647336284
 30
0.0
 10
301.1316639433018
 20
251.4282855572826
 30
0.0
  0
SPLINE
  5
130
330
1F
100
AcDbEntity
  8
1
100
AcDbSpline
210
0.0
220
0.0
230
1.0
 70
     8
 71
     3
 72
     8
 73
     4
 74
     0
 42
0.000000001
 43
0.0000000001
 40
0.0
 40
0.0
 40
0.0
 40
0.0
 40
1.0
 40
1.0
 40
1.0
 40
1.0
 10
302.1017024743934
 20
246.0106518971715
 30
0.0
 10
302.1020905072867
 20
246.0131262856513
 30
0.0
 10
302.1024564654434
 20
246.0156043840772
 30
0.0
 10
302.1028001983447
 20
246.0180855887367
 30
0.0
  0
SPLINE
  5
131
330
1F
100
AcDbEntity
  8
1
100
AcDbSpline
210
0.0
220
0.0
230
1.0
 70
     8
 71
     3
 72
    10
 73
     6
 74
     0
 42
0.000000001
 43
0.0000000001
 40
0.0
 40
0.0
 40
0.0
 40
0.0
 40
0.5
 40
0.5
 40
1.0
 40
1.0
 40
1.0
 40
1.0
 10
302.1027768242691
 20
246.0180888068824
 30
0.0
 10
302.1186018322066
 20
246.1323987772217
 30
0.0
 10
302.1304822857659
 20
246.2471059970134
 30
0.0
 10
302.1463486308147
 20
246.4772820520566
 30
0.0
 10
302.1503186994728
 20
246.5925862420552
 30
0.0
 10
302.1503186994728
 20
246.7078956916576
 30
0.0
  0
SPLINE
  5
132
330
1F
100
AcDbEntity
  8
1
100
AcDbSpline
210
0.0
220
0.0
230
1.0
 70
     8
 71
     3
 72
    19
 73
    15
 74
     0
 42
0.000000001
 43
0.0000000001
 40
0.0
 40
0.0
 40
0.0
 40
0.0
 40
0.2499999999999494
 40
0.2499999999999494
 40
0.374999999999964
 40
0.374999999999964
 40
0.4999999999999787
 40
0.6249999999999934
 40
0.6249999999999934
 40
0.6875000000000007
 40
0.6875000000000007
 40
0.7500000000000079
 40
0.7500000000000079
 40
1.0
 40
1.0
 40
1.0
 40
1.0
 10
301.8558873601654
 20
245.699990482551
 30
0.0
 10
301.8880647411976
 20
245.7130077219435
 30
0.0
 10
301.9179082538743
 20
245.7299016815811
 30
0.0
 10
301.9592748675419
 20
245.7608993903575
 30
0.0
 10
301.9725747495778
 20
245.7722798239761
 30
0.0
 10
301.9973445391777
 20
245.796435259148
 30
0.0
 10
302.0203851192547
 20
245.8220170510791
 30
0.0
 10
302.0400295674046
 20
245.8504041952007
 30
0.0
 10
302.0534524135797
 20
245.8727755977477
 30
0.0
 10
302.0577107005737
 20
245.8804248177646
 30
0.0
 10
302.0656587856693
 20
245.8958529160827
 30
0.0
 10
302.0693663538814
 20
245.9036594716712
 30
0.0
 10
302.0866009787154
 20
245.9431446849996
 30
0.0
 10
302.0962840425368
 20
245.9761578296953
 30
0.0
 10
302.1017024743934
 20
246.0106518971715
 30
0.0
  0
SPLINE
  5
133
330
1F
100
AcDbEntity
  8
1
100
AcDbSpline
210
0.0
220
0.0
230
1.0
 70
     8
 71
     3
 72
     8
 73
     4
 74
     0
 42
0.000000001
 43
0.0000000001
 40
0.0
 40
0.0
 40
0.0
 40
0.0
 40
1.0
 40
1.0
 40
1.0
 40
1.0
 10
301.1424278794282
 20
245.4423524582999
 30
0.0
 10
301.3796481151624
 20
245.5223351730497
 30
0.0
 10
301.6152895423776
 20
245.6073509033169
 30
0.0
 10
301.849346996434
 20
245.697415739877
 30
0.0
  0
SPLINE
  5
134
330
1F
100
AcDbEntity
  8
1
100
AcDbSpline
210
0.0
220
0.0
230
1.0
 70
     8
 71
     3
 72
     8
 73
     4
 74
     0
 42
0.000000001
 43
0.0000000001
 40
0.0
 40
0.0
 40
0.0
 40
0.0
 40
1.0
 40
1.0
 40
1.0
 40
1.0
 10
301.8493490702335
 20
245.6974114315643
 30
0.0
 10
301.8515361246877
 20
245.6982530500215
 30
0.0
 10
301.8537157072956
 20
245.6991128129821
 30
0.0
 10
301.8558873601654
 20
245.699990482551
 30
0.0
  0
SPLINE
  5
135
330
1F
100
AcDbEntity
  8
1
100
AcDbSpline
210
0.0
220
0.0
230
1.0
 70
     8
 71
     3
 72
    11
 73
     7
 74
     0
 42
0.000000001
 43
0.0000000001
 40
0.0
 40
0.0
 40
0.0
 40
0.0
 40
0.25
 40
0.5
 40
0.7499999999999999
 40
1.0
 40
1.0
 40
1.0
 40
1.0
 10
301.8077983402842
 20
245.8139838486052
 30
0.0
 10
301.8325895388455
 20
245.8237079903064
 30
0.0
 10
301.8729069512046
 20
245.845905122043
 30
0.0
 10
301.9250815478823
 20
245.8958289599767
 30
0.0
 10
301.9617360684285
 20
245.9581151151328
 30
0.0
 10
301.9741937277647
 20
246.0026506772197
 30
0.0
 10
301.9780734065164
 20
246.0291739125559
 30
0.0
  0
SPLINE
  5
136
330
1F
100
AcDbEntity
  8
1
100
AcDbSpline
210
0.0
220
0.0
230
1.0
 70
    12
 71
     3
 72
     8
 73
     4
 74
     0
 42
0.000000001
 43
0.0000000001
 40
0.0
 40
0.0
 40
0.0
 40
0.0
 40
1.0
 40
1.0
 40
1.0
 40
1.0
 10
301.9780734065164
 20
246.0291739125559
 30
0.0
 41
1.0
 10
302.0097954903962
 20
246.2559448629533
 30
0.0
 41
0.9983588147778226
 10
302.0254129644091
 20
246.4800907592326
 30
0.0
 41
0.9983588147778226
 10
302.0254129644091
 20
246.7092864774471
 30
0.0
 41
1.0
  0
SPLINE
  5
137
330
1F
100
AcDbEntity
  8
1
100
AcDbSpline
210
0.0
220
0.0
230
1.0
 70
    12
 71
     3
 72
     8
 73
     4
 74
     0
 42
0.000000001
 43
0.0000000001
 40
0.0
 40
0.0
 40
0.0
 40
0.0
 40
1.0
 40
1.0
 40
1.0
 40
1.0
 10
302.0254129644091
 20
246.7092864774471
 30
0.0
 41
1.0
 10
302.0254129644091
 20
247.0388766714413
 30
0.0
 41
0.9982883558074163
 10
302.0023420732849
 20
247.3627479196988
 30
0.0
 41
0.9982883558074158
 10
301.9556507554514
 20
247.6886146522739
 30
0.0
 41
1.0
  0
SPLINE
  5
138
330
1F
100
AcDbEntity
  8
1
100
AcDbSpline
210
0.0
220
0.0
230
1.0
 70
    12
 71
     3
 72
     8
 73
     4
 74
     0
 42
0.000000001
 43
0.0000000001
 40
0.0
 40
0.0
 40
0.0
 40
0.0
 40
1.0
 40
1.0
 40
1.0
 40
1.0
 10
301.9556507554514
 20
247.6886146522739
 30
0.0
 41
1.0
 10
301.7736290687909
 20
248.9589752897981
 30
0.0
 41
0.9961442649237254
 10
301.4589698706103
 20
250.1944327865563
 30
0.0
 41
0.9961442649237252
 10
301.0119849450638
 20
251.3939372827663
 30
0.0
 41
1.0
  0
SPLINE
  5
139
330
1F
100
AcDbEntity
  8
1
100
AcDbSpline
210
0.0
220
0.0
230
1.0
 70
     8
 71
     3
 72
    13
 73
     9
 74
     0
 42
0.000000001
 43
0.0000000001
 40
0.0
 40
0.0
 40
0.0
 40
0.0
 40
0.1249999999999969
 40
0.2500000000000001
 40
0.5
 40
0.75
 40
0.8750000000000031
 40
1.0
 40
1.0
 40
1.0
 40
1.0
 10
301.0119849450638
 20
251.3939372827663
 30
0.0
 10
301.007217320128
 20
251.4064959879738
 30
0.0
 10
300.9977468834668
 20
251.4275379317448
 30
0.0
 10
300.971965404649
 20
251.4691898780961
 30
0.0
 10
300.9317148664855
 20
251.5114105561386
 30
0.0
 10
300.8815449728012
 20
251.5414767670121
 30
0.0
 10
300.8352985513602
 20
251.5576396036855
 30
0.0
 10
300.8129665515927
 20
251.5622266273521
 30
0.0
 10
300.79982324458
 20
251.5640863453411
 30
0.0
  0
SPLINE
  5
13A
330
1F
100
AcDbEntity
  8
1
100
AcDbSpline
210
0.0
220
0.0
230
1.0
 70
    12
 71
     3
 72
     8
 73
     4
 74
     0
 42
0.000000001
 43
0.0000000001
 40
0.0
 40
0.0
 40
0.0
 40
0.0
 40
1.0
 40
1.0
 40
1.0
 40
1.0
 10
300.79982324458
 20
251.5640863453411
 30
0.0
 41
1.0
 10
300.575174044664
 20
251.5944420595789
 30
0.0
 41
0.9983588124248203
 10
300.3530172377624
 20
251.6085588794622
 30
0.0
 41
0.9983588124248205
 10
300.1257343693607
 20
251.6068894279869
 30
0.0
 41
1.0
  0
SPLINE
  5
13B
330
1F
100
AcDbEntity
  8
1
100
AcDbSpline
210
0.0
220
0.0
230
1.0
 70
    12
 71
     3
 72
     8
 73
     4
 74
     0
 42
0.000000001
 43
0.0000000001
 40
0.0
 40
0.0
 40
0.0
 40
0.0
 40
1.0
 40
1.0
 40
1.0
 40
1.0
 10
300.1257343693607
 20
251.6068894279869
 30
0.0
 41
1.0
 10
299.798895144526
 20
251.6044887093144
 30
0.0
 41
0.9982883558074158
 10
299.4775590842434
 20
251.5788633365779
 30
0.0
 41
0.9982883558074158
 10
299.1540721452033
 20
251.5294029278842
 30
0.0
 41
1.0
  0
SPLINE
  5
13C
330
1F
100
AcDbEntity
  8
1
100
AcDbSpline
210
0.0
220
0.0
230
1.0
 70
    12
 71
     3
 72
     8
 73
     4
 74
     0
 42
0.000000001
 43
0.0000000001
 40
0.0
 40
0.0
 40
0.0
 40
0.0
 40
1.0
 40
1.0
 40
1.0
 40
1.0
 10
299.1540721452033
 20
251.5294029278843
 30
0.0
 41
1.0
 10
297.8929848232913
 20
251.3365855779003
 30
0.0
 41
0.996144240068283
 10
296.6655434114492
 20
251.0102605963109
 30
0.0
 41
0.996144240068283
 10
295.4727873838615
 20
250.5507485445256
 30
0.0
 41
1.0
  0
SPLINE
  5
13D
330
1F
100
AcDbEntity
  8
1
100
AcDbSpline
210
0.0
220
0.0
230
1.0
 70
     8
 71
     3
 72
    11
 73
     7
 74
     0
 42
0.000000001
 43
0.0000000001
 40
0.0
 40
0.0
 40
0.0
 40
0.0
 40
0.2499999999999969
 40
0.5
 40
0.7500000000000031
 40
1.0
 40
1.0
 40
1.0
 40
1.0
 10
295.4727873838615
 20
250.5507485445256
 30
0.0
 10
295.4479961852998
 20
250.5410244028244
 30
0.0
 10
295.40767877294
 20
250.5188272710876
 30
0.0
 10
295.3555041762618
 20
250.468903433154
 30
0.0
 10
295.3188496557152
 20
250.4066172779978
 30
0.0
 10
295.3063919963792
 20
250.362081715911
 30
0.0
 10
295.3025123176276
 20
250.3355584805745
 30
0.0
  0
SPLINE
  5
13E
330
1F
100
AcDbEntity
  8
1
100
AcDbSpline
210
0.0
220
0.0
230
1.0
 70
    12
 71
     3
 72
     8
 73
     4
 74
     0
 42
0.000000001
 43
0.0000000001
 40
0.0
 40
0.0
 40
0.0
 40
0.0
 40
1.0
 40
1.0
 40
1.0
 40
1.0
 10
295.3025123176276
 20
250.3355584805745
 30
0.0
 41
1.0
 10
295.2707902337477
 20
250.1087875301769
 30
0.0
 41
0.998358814777822
 10
295.2551727597346
 20
249.8846416338976
 30
0.0
 41
0.998358814777822
 10
295.2551727597346
 20
249.655445915683
 30
0.0
 41
1.0
  0
SPLINE
  5
13F
330
1F
100
AcDbEntity
  8
1
100
AcDbSpline
210
0.0
220
0.0
230
1.0
 70
    12
 71
     3
 72
     8
 73
     4
 74
     0
 42
0.000000001
 43
0.0000000001
 40
0.0
 40
0.0
 40
0.0
 40
0.0
 40
1.0
 40
1.0
 40
1.0
 40
1.0
 10
295.2551727597346
 20
249.655445915683
 30
0.0
 41
1.0
 10
295.2551727597346
 20
249.3258557216888
 30
0.0
 41
0.9982883558074163
 10
295.2782436508588
 20
249.0019844734313
 30
0.0
 41
0.9982883558074162
 10
295.3249349686923
 20
248.6761177408562
 30
0.0
 41
1.0
  0
SPLINE
  5
140
330
1F
100
AcDbEntity
  8
1
100
AcDbSpline
210
0.0
220
0.0
230
1.0
 70
    12
 71
     3
 72
     8
 73
     4
 74
     0
 42
0.000000001
 43
0.0000000001
 40
0.0
 40
0.0
 40
0.0
 40
0.0
 40
1.0
 40
1.0
 40
1.0
 40
1.0
 10
295.3249349686923
 20
248.6761177408562
 30
0.0
 41
1.0
 10
295.4687155208399
 20
247.6726485540753
 30
0.0
 41
0.9969518415148687
 10
295.6955604973374
 20
246.6897029530592
 30
0.0
 41
0.996313394815486
 10
296.0056343778256
 20
245.7278833866863
 30
0.0
 41
0.9980846599018512
  0
SPLINE
  5
141
330
1F
100
AcDbEntity
  8
1
100
AcDbSpline
210
0.0
220
0.0
230
1.0
 70
    12
 71
     3
 72
     8
 73
     4
 74
     0
 42
0.000000001
 43
0.0000000001
 40
0.0
 40
0.0
 40
0.0
 40
0.0
 40
1.0
 40
1.0
 40
1.0
 40
1.0
 10
301.060643932811
 20
245.545124960646
 30
0.0
 41
0.9980949802339059
 10
301.311503843615
 20
245.6291054496037
 30
0.0
 41
0.9985632964686155
 10
301.5605562527953
 20
245.7187332556239
 30
0.0
 41
0.9991983030573136
 10
301.8077983402842
 20
245.8139838486052
 30
0.0
 41
1.0
  0
SPLINE
  5
142
330
1F
100
AcDbEntity
  8
1
100
AcDbSpline
210
0.0
220
0.0
230
1.0
 70
     8
 71
     3
 72
     8
 73
     4
 74
     0
 42
0.000000001
 43
0.0000000001
 40
0.0
 40
0.0
 40
0.0
 40
0.0
 40
1.0
 40
1.0
 40
1.0
 40
1.0
 10
302.1503186994728
 20
240.7544269287243
 30
0.0
 10
302.1503186994728
 20
240.4209025945397
 30
0.0
 10
302.1265862812808
 20
240.087744770392
 30
0.0
 10
302.079337634494
 20
239.7579883432574
 30
0.0
  0
SPLINE
  5
143
330
1F
100
AcDbEntity
  8
1
100
AcDbSpline
210
0.0
220
0.0
230
1.0
 70
     8
 71
     3
 72
     8
 73
     4
 74
     0
 42
0.000000001
 43
0.0000000001
 40
0.0
 40
0.0
 40
0.0
 40
0.0
 40
1.0
 40
1.0
 40
1.0
 40
1.0
 10
300.1318047838412
 20
235.737861310191
 30
0.0
 10
299.8010642556496
 20
235.740290684946
 30
0.0
 10
299.470514312609
 20
235.7666508311024
 30
0.0
 10
299.1431660853148
 20
235.816701621886
 30
0.0
  0
SPLINE
  5
144
330
1F
100
AcDbEntity
  8
1
100
AcDbSpline
210
0.0
220
0.0
230
1.0
 70
     8
 71
     3
 72
    10
 73
     6
 74
     0
 42
0.000000001
 43
0.0000000001
 40
0.0
 40
0.0
 40
0.0
 40
0.0
 40
0.5
 40
0.5
 40
1.0
 40
1.0
 40
1.0
 40
1.0
 10
302.1027768242691
 20
241.4442338134995
 30
0.0
 10
302.1186018322066
 20
241.3299238431603
 30
0.0
 10
302.1304822857659
 20
241.2152166233685
 30
0.0
 10
302.1463486308148
 20
240.9850405683254
 30
0.0
 10
302.1503186994728
 20
240.8697363783267
 30
0.0
 10
302.1503186994728
 20
240.7544269287243
 30
0.0
  0
SPLINE
  5
145
330
1F
100
AcDbEntity
  8
1
100
AcDbSpline
210
0.0
220
0.0
230
1.0
 70
     8
 71
     3
 72
    10
 73
     6
 74
     0
 42
0.000000001
 43
0.0000000001
 40
0.0
 40
0.0
 40
0.0
 40
0.0
 40
0.5
 40
0.5
 40
1.0
 40
1.0
 40
1.0
 40
1.0
 10
300.8155074670846
 20
235.7807817950596
 30
0.0
 10
300.7022668953431
 20
235.7656550728553
 30
0.0
 10
300.5886034985768
 20
235.7545089795718
 30
0.0
 10
300.3604643266361
 20
235.7401847647127
 30
0.0
 10
300.246151724585
 20
235.7370214023252
 30
0.0
 10
300.1318047838412
 20
235.737861310191
 30
0.0
  0
SPLINE
  5
146
330
1F
100
AcDbEntity
  8
1
100
AcDbSpline
210
0.0
220
0.0
230
1.0
 70
     8
 71
     3
 72
     8
 73
     4
 74
     0
 42
0.000000001
 43
0.0000000001
 40
0.0
 40
0.0
 40
0.0
 40
0.0
 40
1.0
 40
1.0
 40
1.0
 40
1.0
 10
301.4961709462873
 20
241.8965449271111
 30
0.0
 10
301.6142938807782
 20
241.8539329580562
 30
0.0
 10
301.7320194476731
 20
241.8100542847854
 30
0.0
 10
301.849346996434
 20
241.7649068805049
 30
0.0
  0
SPLINE
  5
147
330
1F
100
AcDbEntity
  8
1
100
AcDbSpline
210
0.0
220
0.0
230
1.0
 70
     8
 71
     3
 72
    16
 73
    12
 74
     0
 42
0.000000001
 43
0.0000000001
 40
0.0
 40
0.0
 40
0.0
 40
0.0
 40
0.1164001393918213
 40
0.2314779140844527
 40
0.3452333439861199
 40
0.4576664655147402
 40
0.5687773325417951
 40
0.678566017372845
 40
0.7870326117681401
 40
0.8941772280069951
 40
1.0
 40
1.0
 40
1.0
 40
1.0
 10
302.1027768244004
 20
241.4442338137027
 30
0.0
 10
302.0956265084958
 20
241.4331944612619
 30
0.0
 10
302.0814071079071
 20
241.4112411690306
 30
0.0
 10
302.0598645301961
 20
241.3784527597538
 30
0.0
 10
302.0383182073913
 20
241.3460086749781
 30
0.0
 10
302.0167449273987
 20
241.3139071109489
 30
0.0
 10
301.9951502674917
 20
241.2821501641896
 30
0.0
 10
301.9735348444589
 20
241.2507388121815
 30
0.0
 10
301.9518918405003
 20
241.2196729474448
 30
0.0
 10
301.9302492500374
 20
241.1889560745636
 30
0.0
 10
301.9156634394978
 20
241.1685767577257
 30
0.0
 10
301.9084157997729
 20
241.1584503443954
 30
0.0
  0
SPLINE
  5
148
330
1F
100
AcDbEntity
  8
1
100
AcDbSpline
210
0.0
220
0.0
230
1.0
 70
     8
 71
     3
 72
     8
 73
     4
 74
     0
 42
0.000000001
 43
0.0000000001
 40
0.0
 40
0.0
 40
0.0
 40
0.0
 40
1.0
 40
1.0
 40
1.0
 40
1.0
 10
302.1017024743934
 20
241.4516707232105
 30
0.0
 10
302.1020905072867
 20
241.4491963347306
 30
0.0
 10
302.1024564654434
 20
241.4467182363048
 30
0.0
 10
302.1028001983447
 20
241.4442370316452
 30
0.0
  0
SPLINE
  5
149
330
1F
100
AcDbEntity
  8
1
100
AcDbSpline
210
0.0
220
0.0
230
1.0
 70
     8
 71
     3
 72
    19
 73
    15
 74
     0
 42
0.000000001
 43
0.0000000001
 40
0.0
 40
0.0
 40
0.0
 40
0.0
 40
0.2500000000000271
 40
0.2500000000000271
 40
0.3750000000000006
 40
0.3750000000000006
 40
0.4999999999999741
 40
0.6249999999999477
 40
0.6249999999999477
 40
0.6874999999999359
 40
0.6874999999999359
 40
0.749999999999924
 40
0.749999999999924
 40
1.0
 40
1.0
 40
1.0
 40
1.0
 10
301.8558873601654
 20
241.762332137831
 30
0.0
 10
301.8880647411976
 20
241.7493148984384
 30
0.0
 10
301.9179082538744
 20
241.7324209388009
 30
0.0
 10
301.9592748675418
 20
241.7014232300245
 30
0.0
 10
301.9725747495778
 20
241.6900427964058
 30
0.0
 10
301.9973445391776
 20
241.665887361234
 30
0.0
 10
302.0203850470519
 20
241.6403055086625
 30
0.0
 10
302.0400295674046
 20
241.6119184251812
 30
0.0
 10
302.0534524135797
 20
241.5895470226342
 30
0.0
 10
302.0577107005737
 20
241.5818978026173
 30
0.0
 10
302.0656587856693
 20
241.5664697042992
 30
0.0
 10
302.0693663538813
 20
241.5586631487107
 30
0.0
 10
302.0866009787154
 20
241.5191779353823
 30
0.0
 10
302.0962840425368
 20
241.4861647906866
 30
0.0
 10
302.1017024743934
 20
241.4516707232105
 30
0.0
  0
SPLINE
  5
14A
330
1F
100
AcDbEntity
  8
1
100
AcDbSpline
210
0.0
220
0.0
230
1.0
 70
     8
 71
     3
 72
     8
 73
     4
 74
     0
 42
0.000000001
 43
0.0000000001
 40
0.0
 40
0.0
 40
0.0
 40
0.0
 40
1.0
 40
1.0
 40
1.0
 40
1.0
 10
301.8493490702335
 20
241.7649111888177
 30
0.0
 10
301.8515361246877
 20
241.7640695703604
 30
0.0
 10
301.8537157072956
 20
241.7632098073998
 30
0.0
 10
301.8558873601654
 20
241.762332137831
 30
0.0
  0
SPLINE
  5
14B
330
1F
100
AcDbEntity
  8
1
100
AcDbSpline
210
0.0
220
0.0
230
1.0
 70
     8
 71
     3
 72
     8
 73
     4
 74
     0
 42
0.000000001
 43
0.0000000001
 40
0.0
 40
0.0
 40
0.0
 40
0.0
 40
1.0
 40
1.0
 40
1.0
 40
1.0
 10
296.8979948018718
 20
245.7338907215586
 30
0.0
 10
296.738621921407
 20
245.7305107764217
 30
0.0
 10
296.5788790122482
 20
245.7288207236475
 30
0.0
 10
296.4187660392707
 20
245.7288207236475
 30
0.0
  0
SPLINE
  5
14C
330
1F
100
AcDbEntity
  8
1
100
AcDbSpline
210
0.0
220
0.0
230
1.0
 70
     8
 71
     3
 72
     8
 73
     4
 74
     0
 42
0.000000001
 43
0.0000000001
 40
0.0
 40
0.0
 40
0.0
 40
0.0
 40
1.0
 40
1.0
 40
1.0
 40
1.0
 10
296.8979948018718
 20
237.7374023298776
 30
0.0
 10
296.7788921162366
 20
237.760982630594
 30
0.0
 10
296.6591618157556
 20
237.7798938438312
 30
0.0
 10
296.5387811376551
 20
237.7939666278616
 30
0.0
  0
SPLINE
  5
14D
330
1F
100
AcDbEntity
  8
1
100
AcDbSpline
210
0.0
220
0.0
230
1.0
 70
     8
 71
     3
 72
    12
 73
     8
 74
     0
 42
0.000000001
 43
0.0000000001
 40
0.0
 40
0.0
 40
0.0
 40
0.0
 40
0.4999999999999144
 40
0.4999999999999144
 40
0.7499999999999572
 40
0.7499999999999572
 40
1.0
 40
1.0
 40
1.0
 40
1.0
 10
296.4187660392707
 20
237.791330137314
 30
0.0
 10
296.4383419249201
 20
237.7944369588357
 30
0.0
 10
296.4581816023871
 20
237.796264497374
 30
0.0
 10
296.4883558801126
 20
237.7969755533024
 30
0.0
 10
296.4985147120251
 20
237.7968707628754
 30
0.0
 10
296.5188475261054
 20
237.7959407385543
 30
0.0
 10
296.5288797434315
 20
237.7951241241034
 30
0.0
 10
296.538781137655
 20
237.7939666278614
 30
0.0
  0
SPLINE
  5
14E
330
1F
100
AcDbEntity
  8
1
100
AcDbSpline
210
0.0
220
0.0
230
1.0
 70
     8
 71
     3
 72
    14
 73
    10
 74
     0
 42
0.000000001
 43
0.0000000001
 40
0.0
 40
0.0
 40
0.0
 40
0.0
 40
0.25
 40
0.25
 40
0.5
 40
0.5
 40
0.75
 40
0.75
 40
1.0
 40
1.0
 40
1.0
 40
1.0
 10
301.4638637910168
 20
241.1351396551459
 30
0.0
 10
301.4240786280536
 20
240.8145969464851
 30
0.0
 10
301.3808939103537
 20
240.4945942203158
 30
0.0
 10
301.290517304911
 20
239.8552252635864
 30
0.0
 10
301.2433023667805
 20
239.5358626943312
 30
0.0
 10
301.1463871619629
 20
238.897532323374
 30
0.0
 10
301.0966730989014
 20
238.578566713077
 30
0.0
 10
300.995628438544
 20
237.9408922614575
 30
0.0
 10
300.9442905857805
 20
237.6221845725875
 30
0.0
 10
300.8924039022911
 20
237.3035640595407
 30
0.0
  0
SPLINE
  5
14F
330
1F
100
AcDbEntity
  8
1
100
AcDbSpline
210
0.0
220
0.0
230
1.0
 70
     8
 71
     3
 72
    10
 73
     6
 74
     0
 42
0.000000001
 43
0.0000000001
 40
0.0
 40
0.0
 40
0.0
 40
0.0
 40
0.5
 40
0.5
 40
1.0
 40
1.0
 40
1.0
 40
1.0
 10
301.4638637910167
 20
245.0425186032996
 30
0.0
 10
301.3688879854628
 20
245.1616804686725
 30
0.0
 10
301.2736900072165
 20
245.2808340282805
 30
0.0
 10
301.0831483909352
 20
245.5191357021112
 30
0.0
 10
300.9877947837446
 20
245.6382834436441
 30
0.0
 10
300.8924039022911
 20
245.7574297917057
 30
0.0
  0
SPLINE
  5
150
330
1F
100
AcDbEntity
  8
1
100
AcDbSpline
210
0.0
220
0.0
230
1.0
 70
     9
 71
     3
 72
   132
 73
   128
 74
     0
 42
0.000000001
 43
0.0000000001
 40
0.0
 40
0.0
 40
0.0
 40
0.0
 40
0.0312499999999767
 40
0.0312499999999767
 40
0.046874999999965
 40
0.046874999999965
 40
0.0546874999999605
 40
0.0546874999999605
 40
0.062499999999956
 40
0.062499999999956
 40
0.0937499999999415
 40
0.0937499999999415
 40
0.1015624999999366
 40
0.1015624999999366
 40
0.1093749999999318
 40
0.1093749999999318
 40
0.1249999999999222
 40
0.1249999999999222
 40
0.1406249999999125
 40
0.1406249999999125
 40
0.1562499999999029
 40
0.1562499999999029
 40
0.1718749999998932
 40
0.1718749999998932
 40
0.1874999999998836
 40
0.1874999999998836
 40
0.2187499999998675
 40
0.2187499999998675
 40
0.2265624999998635
 40
0.2265624999998635
 40
0.2343749999998595
 40
0.2499999999998546
 40
0.2499999999998546
 40
0.2578124999998537
 40
0.2578124999998537
 40
0.2656249999998526
 40
0.2656249999998526
 40
0.2812499999998507
 40
0.2812499999998507
 40
0.312499999999849
 40
0.312499999999849
 40
0.3203124999998486
 40
0.3203124999998486
 40
0.3281249999998481
 40
0.343749999999849
 40
0.3593749999998498
 40
0.3593749999998498
 40
0.3671874999998503
 40
0.3671874999998503
 40
0.3749999999998507
 40
0.3749999999998507
 40
0.4062499999998502
 40
0.4062499999998502
 40
0.4374999999998498
 40
0.4374999999998498
 40
0.4687499999998493
 40
0.4687499999998493
 40
0.4999999999998489
 40
0.4999999999998489
 40
0.5078124999998489
 40
0.5078124999998489
 40
0.5156249999998487
 40
0.5156249999998487
 40
0.5312499999998491
 40
0.5312499999998491
 40
0.5624999999998503
 40
0.5624999999998503
 40
0.5703124999998512
 40
0.5703124999998512
 40
0.5781249999998519
 40
0.5781249999998519
 40
0.5937499999998552
 40
0.5937499999998552
 40
0.6093749999998584
 40
0.6093749999998584
 40
0.6249999999998616
 40
0.6249999999998616
 40
0.6406249999998649
 40
0.6406249999998649
 40
0.648437499999865
 40
0.648437499999865
 40
0.6562499999998652
 40
0.6562499999998652
 40
0.6718749999998687
 40
0.6718749999998687
 40
0.6796874999998687
 40
0.6796874999998687
 40
0.6874999999998688
 40
0.6874999999998688
 40
0.703124999999869
 40
0.703124999999869
 40
0.7109374999998707
 40
0.7109374999998707
 40
0.7187499999998725
 40
0.7187499999998725
 40
0.7499999999998762
 40
0.7499999999998762
 40
0.7578124999998758
 40
0.7578124999998758
 40
0.7656249999998752
 40
0.7812499999998792
 40
0.7812499999998792
 40
0.8124999999998873
 40
0.8124999999998873
 40
0.8203124999998914
 40
0.8203124999998914
 40
0.8281249999998955
 40
0.8281249999998955
 40
0.843749999999904
 40
0.843749999999904
 40
0.8749999999999207
 40
0.8749999999999207
 40
0.8906249999999308
 40
0.8906249999999308
 40
0.8984374999999358
 40
0.8984374999999358
 40
0.906249999999941
 40
0.906249999999941
 40
0.9374999999999607
 40
0.9374999999999607
 40
0.9687499999999808
 40
0.9687499999999808
 40
0.9843749999999905
 40
0.9843749999999905
 40
0.9921874999999952
 40
0.9921874999999952
 40
1.0
 40
1.0
 40
1.0
 40
1.0
 10
300.2942963496296
 20
239.8923460347365
 30
0.0
 10
300.2862373911767
 20
239.9495811674878
 30
0.0
 10
300.2723502662875
 20
240.0061103173166
 30
0.0
 10
300.2417006413038
 20
240.0895372767673
 30
0.0
 10
300.2298371778843
 20
240.1171163936943
 30
0.0
 10
300.2093033739782
 20
240.1580743912048
 30
0.0
 10
300.2020175933722
 20
240.1716181636985
 30
0.0
 10
300.1867034222806
 20
240.1981942859164
 30
0.0
 10
300.1786547177084
 20
240.2112681279804
 30
0.0
 10
300.1364334731217
 20
240.2755444721685
 30
0.0
 10
300.0964053962075
 20
240.3235142940301
 30
0.0
 10
300.0375378973676
 20
240.3784016620881
 30
0.0
 10
300.0252748258574
 20
240.3891530911084
 30
0.0
 10
300.0002252931715
 20
240.4097792551424
 30
0.0
 10
299.9874024082876
 20
240.4196922369208
 30
0.0
 10
299.9480503620513
 20
240.4482403960579
 30
0.0
 10
299.9206406028745
 20
240.4656884652751
 30
0.0
 10
299.8634619782599
 20
240.4973791073797
 30
0.0
 10
299.8336536047876
 20
240.5116384447699
 30
0.0
 10
299.7717376164069
 20
240.536723267024
 30
0.0
 10
299.7402851606783
 20
240.5472893815061
 30
0.0
 10
299.6764427589447
 20
240.5646723407419
 30
0.0
 10
299.6440525965423
 20
240.5714883282382
 30
0.0
 10
299.5783467220197
 20
240.5814174516504
 30
0.0
 10
299.5448779158571
 20
240.5845157211184
 30
0.0
 10
299.4456057493389
 20
240.588142820393
 30
0.0
 10
299.3801969664892
 20
240.5832466235691
 30
0.0
 10
299.2993463066912
 20
240.5686357994814
 30
0.0
 10
299.2832996831481
 20
240.5652965936161
 30
0.0
 10
299.2516180505922
 20
240.5578549882843
 30
0.0
 10
299.2046311095725
 20
240.5455283866307
 30
0.0
 10
299.1591888915142
 20
240.5298589723917
 30
0.0
 10
299.1147342846313
 20
240.5120776934413
 30
0.0
 10
299.1000810599946
 20
240.5057978490145
 30
0.0
 10
299.0711016619742
 20
240.4925436863958
 30
0.0
 10
299.0567455690628
 20
240.4855536086392
 30
0.0
 10
299.0143892748184
 20
240.4636671755486
 30
0.0
 10
298.9872106621079
 20
240.4479237393651
 30
0.0
 10
298.9086410936359
 20
240.3975194634187
 30
0.0
 10
298.8601937454043
 20
240.3597086103616
 30
0.0
 10
298.8042878527206
 20
240.3076526231531
 30
0.0
 10
298.7933663836733
 20
240.2970214730262
 30
0.0
 10
298.7721553148786
 20
240.2754611165963
 30
0.0
 10
298.7412300689317
 20
240.2426169400428
 30
0.0
 10
298.6939933612098
 20
240.1854783430829
 30
0.0
 10
298.660606268578
 20
240.1373806334155
 30
0.0
 10
298.6371824913996
 20
240.1004538629296
 30
0.0
 10
298.6296443577456
 20
240.0880024672123
 30
0.0
 10
298.6151062511419
 20
240.0628190860243
 30
0.0
 10
298.6080961449013
 20
240.0500661336253
 30
0.0
 10
298.5746186162211
 20
239.9860511812961
 30
0.0
 10
298.5526805588315
 20
239.9338118438273
 30
0.0
 10
298.5178245182239
 20
239.8275913268942
 30
0.0
 10
298.5049016724995
 20
239.7735664306852
 30
0.0
 10
298.4882416379258
 20
239.6640215723126
 30
0.0
 10
298.484669390453
 20
239.609655971692
 30
0.0
 10
298.4867824751176
 20
239.5017276536728
 30
0.0
 10
298.492460589963
 20
239.4481652135779
 30
0.0
 10
298.5057975507956
 20
239.3816922579325
 30
0.0
 10
298.5087797858678
 20
239.3684215963719
 30
0.0
 10
298.5153984962774
 20
239.341927234716
 30
0.0
 10
298.5190319952507
 20
239.3287218843297
 30
0.0
 10
298.5308451766671
 20
239.2895074665349
 30
0.0
 10
298.5399598588668
 20
239.2637950238085
 30
0.0
 10
298.5711756735399
 20
239.1879528703191
 30
0.0
 10
298.5970772137487
 20
239.1391025457591
 30
0.0
 10
298.6371655210609
 20
239.080380631989
 30
0.0
 10
298.6455983614806
 20
239.0687254568861
 30
0.0
 10
298.6631312781111
 20
239.045884915813
 30
0.0
 10
298.6722398464108
 20
239.0346833025703
 30
0.0
 10
298.7006292209061
 20
239.0017469236874
 30
0.0
 10
298.7209685734703
 20
238.980677810981
 30
0.0
 10
298.7647793339795
 20
238.9404422385978
 30
0.0
 10
298.7882782420941
 20
238.9212524748378
 30
0.0
 10
298.8387838346919
 20
238.8850960566145
 30
0.0
 10
298.8652761093147
 20
238.8684973229732
 30
0.0
 10
298.9208846325129
 20
238.8383693588832
 30
0.0
 10
298.9499997741058
 20
238.8248388825065
 30
0.0
 10
298.9958375756537
 20
238.8070344916867
 30
0.0
 10
299.0114777719734
 20
238.8015239297363
 30
0.0
 10
299.0428888127466
 20
238.7915585797297
 30
0.0
 10
299.0587336252431
 20
238.7870733882887
 30
0.0
 10
299.1066788173642
 20
238.7750810977298
 30
0.0
 10
299.1391888151214
 20
238.7690328877368
 30
0.0
 10
299.1887666550112
 20
238.7628471626788
 30
0.0
 10
299.2055011302427
 20
238.7612637385573
 30
0.0
 10
299.2388492383891
 20
238.7590908003717
 30
0.0
 10
299.2554361305795
 20
238.758497519517
 30
0.0
 10
299.3049512215626
 20
238.7581090867814
 30
0.0
 10
299.3376345970286
 20
238.7597001735226
 30
0.0
 10
299.3862165036201
 20
238.7646221779925
 30
0.0
 10
299.4023815193669
 20
238.766694084557
 30
0.0
 10
299.434352026549
 20
238.771625841262
 30
0.0
 10
299.4501028020232
 20
238.7744742435068
 30
0.0
 10
299.5277824471416
 20
238.7904823624432
 30
0.0
 10
299.5865409691374
 20
238.8088535770323
 30
0.0
 10
299.656683362016
 20
238.83749660214
 30
0.0
 10
299.6705724020756
 20
238.8435275295016
 30
0.0
 10
299.6978858569398
 20
238.8560856509837
 30
0.0
 10
299.7380712739359
 20
238.8756264465478
 30
0.0
 10
299.7760807255044
 20
238.8971474047065
 30
0.0
 10
299.8495125268915
 20
238.9426145795375
 30
0.0
 10
299.8950428042552
 20
238.9761379265706
 30
0.0
 10
299.9481916016651
 20
239.0217869578686
 30
0.0
 10
299.9586310177585
 20
239.0311058484346
 30
0.0
 10
299.9791341660634
 20
239.0501219482808
 30
0.0
 10
299.9892015446235
 20
239.0598242117801
 30
0.0
 10
300.0186564352069
 20
239.0893067490137
 30
0.0
 10
300.0373659561488
 20
239.1095224569304
 30
0.0
 10
300.0908421681685
 20
239.1718197263353
 30
0.0
 10
300.1229782611755
 20
239.2155398168399
 30
0.0
 10
300.1659810620026
 20
239.2845030798774
 30
0.0
 10
300.179442847287
 20
239.3080576146831
 30
0.0
 10
300.19828427338
 20
239.3442801056118
 30
0.0
 10
300.2043331096445
 20
239.3564937194601
 30
0.0
 10
300.2158919070219
 20
239.381051554465
 30
0.0
 10
300.2214126590084
 20
239.3934160970523
 30
0.0
 10
300.2477231128424
 20
239.4556697291449
 30
0.0
 10
300.2646645217051
 20
239.5068440582793
 30
0.0
 10
300.2898342120743
 20
239.612123732829
 30
0.0
 10
300.2980758218034
 20
239.6662254889769
 30
0.0
 10
300.3028125806155
 20
239.7498923389595
 30
0.0
 10
300.3031000818055
 20
239.778278958225
 30
0.0
 10
300.3014157116613
 20
239.8209173662752
 30
0.0
 10
300.3005038888192
 20
239.8351606593496
 30
0.0
 10
300.2979533470418
 20
239.8637079163644
 30
0.0
 10
300.2963110892428
 20
239.8780372515487
 30
0.0
 10
300.2942963496296
 20
239.8923460347366
 30
0.0
  0
SPLINE
  5
151
330
1F
100
AcDbEntity
  8
1
100
AcDbSpline
210
0.0
220
0.0
230
1.0
 70
     8
 71
     3
 72
     8
 73
     4
 74
     0
 42
0.000000001
 43
0.0000000001
 40
0.0
 40
0.0
 40
0.0
 40
0.0
 40
1.0
 40
1.0
 40
1.0
 40
1.0
 10
296.8979948018718
 20
245.7338907215586
 30
0.0
 10
298.1213980765472
 20
245.7598363902111
 30
0.0
 10
299.34480247723
 20
245.7857794936747
 30
0.0
 10
300.5682078506313
 20
245.8117203805394
 30
0.0
  0
SPLINE
  5
152
330
1F
100
AcDbEntity
  8
1
100
AcDbSpline
210
0.0
220
0.0
230
1.0
 70
     8
 71
     3
 72
    28
 73
    24
 74
     0
 42
0.000000001
 43
0.0000000001
 40
0.0
 40
0.0
 40
0.0
 40
0.0
 40
0.125000000000117
 40
0.125000000000117
 40
0.1875000000001304
 40
0.1875000000001304
 40
0.2500000000001437
 40
0.2500000000001437
 40
0.3750000000001704
 40
0.3750000000001704
 40
0.5000000000001971
 40
0.5000000000001971
 40
0.5625000000001733
 40
0.5625000000001733
 40
0.6250000000001494
 40
0.6250000000001494
 40
0.7500000000000976
 40
0.7500000000000976
 40
0.8125000000000717
 40
0.8125000000000717
 40
0.8750000000000458
 40
0.8750000000000458
 40
1.0
 40
1.0
 40
1.0
 40
1.0
 10
300.5682078506313
 20
237.0566852435721
 30
0.0
 10
300.5869023882505
 20
237.0534294818623
 30
0.0
 10
300.605709980799
 20
237.0520728293923
 30
0.0
 10
300.6340968403329
 20
237.0529854271446
 30
0.0
 10
300.6436455788709
 20
237.0537940535242
 30
0.0
 10
300.6624591034566
 20
237.0564038450273
 30
0.0
 10
300.6717267195381
 20
237.0581972630063
 30
0.0
 10
300.6991206497698
 20
237.0650131689544
 30
0.0
 10
300.7168779903566
 20
237.0714756635635
 30
0.0
 10
300.7511159721871
 20
237.0882906744455
 30
0.0
 10
300.7670608740489
 20
237.0983701103332
 30
0.0
 10
300.7893219817722
 20
237.1158477961264
 30
0.0
 10
300.7964642763413
 20
237.1220696762687
 30
0.0
 10
300.8101871648655
 20
237.1353133114487
 30
0.0
 10
300.8167108321546
 20
237.1422853043613
 30
0.0
 10
300.8350845799067
 20
237.1639589708305
 30
0.0
 10
300.8458496007929
 20
237.1795096680093
 30
0.0
 10
300.859860535362
 20
237.204421574083
 30
0.0
 10
300.8641772291143
 20
237.2130126458821
 30
0.0
 10
300.8719490804026
 20
237.2303988643567
 30
0.0
 10
300.8754273735647
 20
237.2392308362549
 30
0.0
 10
300.8846908459219
 20
237.2661257994202
 30
0.0
 10
300.8893182816623
 20
237.2846161915776
 30
0.0
 10
300.8924039022911
 20
237.3035640595407
 30
0.0
  0
SPLINE
  5
153
330
1F
100
AcDbEntity
  8
1
100
AcDbSpline
210
0.0
220
0.0
230
1.0
 70
     8
 71
     3
 72
    30
 73
    26
 74
     0
 42
0.000000001
 43
0.0000000001
 40
0.0
 40
0.0
 40
0.0
 40
0.0
 40
0.062500000000021
 40
0.062500000000021
 40
0.125000000000042
 40
0.125000000000042
 40
0.2500000000000505
 40
0.2500000000000505
 40
0.3125000000000572
 40
0.3125000000000572
 40
0.3750000000000638
 40
0.3750000000000638
 40
0.5000000000000768
 40
0.5000000000000768
 40
0.5625000000000461
 40
0.5625000000000461
 40
0.6250000000000153
 40
0.6250000000000153
 40
0.7500000000000375
 40
0.7500000000000375
 40
0.8125000000000049
 40
0.8125000000000049
 40
0.8749999999999722
 40
0.8749999999999722
 40
1.0
 40
1.0
 40
1.0
 40
1.0
 10
300.8924039022911
 20
245.7574297917057
 30
0.0
 10
300.8907723781403
 20
245.759467619026
 30
0.0
 10
300.8887124775683
 20
245.7614819125588
 30
0.0
 10
300.8837414289371
 20
245.7654637344977
 30
0.0
 10
300.8808172251962
 20
245.7674376040639
 30
0.0
 10
300.8708894467828
 20
245.7732094966103
 30
0.0
 10
300.862729714926
 20
245.7768776677453
 30
0.0
 10
300.848219276858
 20
245.7821150681431
 30
0.0
 10
300.843001569368
 20
245.7838164431392
 30
0.0
 10
300.8317809992697
 20
245.7871276176541
 30
0.0
 10
300.8258111317214
 20
245.7887262234246
 30
0.0
 10
300.8070838340966
 20
245.7932911593487
 30
0.0
 10
300.7934259397504
 20
245.796055555009
 30
0.0
 10
300.7711757000035
 20
245.7997828896743
 30
0.0
 10
300.7634254836343
 20
245.8009600227906
 30
0.0
 10
300.7474957084978
 20
245.8031429248524
 30
0.0
 10
300.7393539670919
 20
245.8041447389892
 30
0.0
 10
300.7144129075528
 20
245.8068887345652
 30
0.0
 10
300.6971021717954
 20
245.8083717082428
 30
0.0
 10
300.6700880903017
 20
245.810065009914
 30
0.0
 10
300.6608893944745
 20
245.8105399485646
 30
0.0
 10
300.6425216656276
 20
245.8112906419273
 30
0.0
 10
300.6333062862514
 20
245.8115697860829
 30
0.0
 10
300.6055673066655
 20
245.8121238107727
 30
0.0
 10
300.5869516965664
 20
245.8121178219741
 30
0.0
 10
300.5682078506313
 20
245.8117203805394
 30
0.0
  0
SPLINE
  5
154
330
1F
100
AcDbEntity
  8
1
100
AcDbSpline
210
0.0
220
0.0
230
1.0
 70
     8
 71
     3
 72
    28
 73
    24
 74
     0
 42
0.000000001
 43
0.0000000001
 40
0.0
 40
0.0
 40
0.0
 40
0.0
 40
0.1226542683125669
 40
0.1226542683125669
 40
0.2453085366251339
 40
0.2453085366251339
 40
0.3066356707814174
 40
0.3066356707814174
 40
0.367962804937701
 40
0.367962804937701
 40
0.490617073250268
 40
0.6132713415628351
 40
0.7359256098754022
 40
0.7359256098754022
 40
0.7665891769535436
 40
0.7665891769535436
 40
0.797252744031685
 40
0.797252744031685
 40
0.8585798781879677
 40
0.8585798781879677
 40
0.9812341465005324
 40
0.9812341465005324
 40
1.0
 40
1.0
 40
1.0
 40
1.0
 10
282.1604957176407
 20
236.655865354804
 30
0.0
 10
282.1464026107977
 20
236.6217314417416
 30
0.0
 10
282.1358499832824
 20
236.5928479587892
 30
0.0
 10
282.1220020526821
 20
236.5457305177506
 30
0.0
 10
282.1187057642198
 20
236.5274959047794
 30
0.0
 10
282.1195145714562
 20
236.5083605562888
 30
0.0
 10
282.1207525205414
 20
236.5033497574331
 30
0.0
 10
282.1251772381397
 20
236.4961699842509
 30
0.0
 10
282.1283604134059
 20
236.4939858004768
 30
0.0
 10
282.140834450876
 20
236.491570397231
 30
0.0
 10
282.165252097961
 20
236.4993724033586
 30
0.0
 10
282.2259152215748
 20
236.5432290783515
 30
0.0
 10
282.2832563355264
 20
236.5935719773459
 30
0.0
 10
282.3247875706681
 20
236.6316058837303
 30
0.0
 10
282.3333790393348
 20
236.6395414363625
 30
0.0
 10
282.3511450701228
 20
236.6560705919093
 30
0.0
 10
282.3603292713039
 20
236.6646733611447
 30
0.0
 10
282.3886438112414
 20
236.6913442276424
 30
0.0
 10
282.4085651056299
 20
236.7103014173403
 30
0.0
 10
282.471489987443
 20
236.7705580701204
 30
0.0
 10
282.5176505575947
 20
236.8152392633153
 30
0.0
 10
282.5758689977552
 20
236.8715670858852
 30
0.0
 10
282.5836954325364
 20
236.8791390542657
 30
0.0
 10
282.5916237212557
 20
236.8868075425108
 30
0.0
  0
SPLINE
  5
155
330
1F
100
AcDbEntity
  8
1
100
AcDbSpline
210
0.0
220
0.0
230
1.0
 70
     8
 71
     3
 72
    46
 73
    42
 74
     0
 42
0.000000001
 43
0.0000000001
 40
0.0
 40
0.0
 40
0.0
 40
0.0
 40
0.0312499999999939
 40
0.0312499999999939
 40
0.0624999999999878
 40
0.0624999999999878
 40
0.1249999999999756
 40
0.1249999999999756
 40
0.2499999999999513
 40
0.2499999999999513
 40
0.312499999999939
 40
0.312499999999939
 40
0.3437499999999363
 40
0.3437499999999363
 40
0.3749999999999336
 40
0.3749999999999336
 40
0.4999999999999359
 40
0.4999999999999359
 40
0.5624999999999371
 40
0.5624999999999371
 40
0.5937499999999406
 40
0.5937499999999406
 40
0.6249999999999442
 40
0.6249999999999442
 40
0.6874999999999516
 40
0.6874999999999516
 40
0.749999999999959
 40
0.749999999999959
 40
0.781249999999965
 40
0.781249999999965
 40
0.8124999999999708
 40
0.8124999999999708
 40
0.8749999999999831
 40
0.8749999999999831
 40
0.9062499999999877
 40
0.9062499999999877
 40
0.92187499999999
 40
0.92187499999999
 40
0.9374999999999925
 40
0.9374999999999925
 40
1.0
 40
1.0
 40
1.0
 40
1.0
 10
284.3870402592999
 20
237.117075685822
 30
0.0
 10
284.3568880759089
 20
237.1177604084594
 30
0.0
 10
284.3266428071061
 20
237.118235606826
 30
0.0
 10
284.2659648612633
 20
237.1187613230085
 30
0.0
 10
284.2354961963792
 20
237.1188116095193
 30
0.0
 10
284.1440477492422
 20
237.1183168110273
 30
0.0
 10
284.0833886137086
 20
237.1171308594549
 30
0.0
 10
283.9023079795175
 20
237.1110743538966
 30
0.0
 10
283.7827762475492
 20
237.1037146622715
 30
0.0
 10
283.6052964364188
 20
237.0877971828774
 30
0.0
 10
283.5464411452973
 20
237.0816760616175
 30
0.0
 10
283.4586371383353
 20
237.0712609219345
 30
0.0
 10
283.429449093673
 20
237.0675834520418
 30
0.0
 10
283.3712384462593
 20
237.0598127927932
 30
0.0
 10
283.3422598819725
 20
237.0557244846511
 30
0.0
 10
283.1989947258868
 20
237.0344229753925
 30
0.0
 10
283.0886518308854
 20
237.0145260297043
 30
0.0
 10
282.9301383633633
 20
236.9807200394998
 30
0.0
 10
282.8784753630912
 20
236.9687887396121
 30
0.0
 10
282.8029160914789
 20
236.9499117437297
 30
0.0
 10
282.7780092337873
 20
236.9434439613419
 30
0.0
 10
282.7290820634658
 20
236.9302347548417
 30
0.0
 10
282.7051582533597
 20
236.9235203372716
 30
0.0
 10
282.6350444015289
 20
236.9030712694811
 30
0.0
 10
282.5905057363057
 20
236.8890312319104
 30
0.0
 10
282.5061726792397
 20
236.8602510157962
 30
0.0
 10
282.4663752670672
 20
236.8455107766211
 30
0.0
 10
282.4106618599066
 20
236.8229513241164
 30
0.0
 10
282.3926978980261
 20
236.8153292926295
 30
0.0
 10
282.3585864898772
 20
236.8001213518347
 30
0.0
 10
282.342421625415
 20
236.7925313703568
 30
0.0
 10
282.2966563938032
 20
236.7698369076795
 30
0.0
 10
282.269774382611
 20
236.7548078569332
 30
0.0
 10
282.2352983889818
 20
236.7325474141681
 30
0.0
 10
282.2247834647287
 20
236.7251744502447
 30
0.0
 10
282.2105548660403
 20
236.7142026347294
 30
0.0
 10
282.2060604929177
 20
236.7105520073694
 30
0.0
 10
282.1976514710481
 20
236.7033256297441
 30
0.0
 10
282.1937393380759
 20
236.6997531683018
 30
0.0
 10
282.1756288671652
 20
236.6820973060256
 30
0.0
 10
282.1657672865413
 20
236.6686332474024
 30
0.0
 10
282.1604957176408
 20
236.655865354804
 30
0.0
  0
SPLINE
  5
156
330
1F
100
AcDbEntity
  8
1
100
AcDbSpline
210
0.0
220
0.0
230
1.0
 70
     8
 71
     3
 72
    59
 73
    55
 74
     0
 42
0.000000001
 43
0.0000000001
 40
0.0
 40
0.0
 40
0.0
 40
0.0
 40
0.0291096402300945
 40
0.0637842959361676
 40
0.0984589516422406
 40
0.0984589516422406
 40
0.1071276155687587
 40
0.1071276155687587
 40
0.1157962794952767
 40
0.1157962794952767
 40
0.1331336073483131
 40
0.1331336073483131
 40
0.167808263054386
 40
0.167808263054386
 40
0.2371575744665317
 40
0.2371575744665317
 40
0.2458262383930495
 40
0.2458262383930495
 40
0.2544949023195672
 40
0.2544949023195672
 40
0.2718322301726026
 40
0.3065068858786733
 40
0.3065068858786733
 40
0.3758561972908148
 40
0.3758561972908148
 40
0.3845248612173321
 40
0.3845248612173321
 40
0.3931935251438494
 40
0.3931935251438494
 40
0.4105308529968827
 40
0.4105308529968827
 40
0.4452055087029486
 40
0.4452055087029486
 40
0.514554820115079
 40
0.514554820115079
 40
0.5839041315272093
 40
0.5839041315272093
 40
0.6012414593802418
 40
0.6012414593802418
 40
0.6185787872332739
 40
0.6532534429393399
 40
0.6532534429393399
 40
0.7226027543514716
 40
0.7226027543514716
 40
0.7919520657636036
 40
0.7919520657636036
 40
0.8613013771757353
 40
0.8613013771757353
 40
0.8786387050287681
 40
0.8786387050287681
 40
0.8959760328818012
 40
0.9306506885878668
 40
0.9306506885878668
 40
1.0
 40
1.0
 40
1.0
 40
1.0
 10
282.1368071302058
 20
250.9694922811683
 30
0.0
 10
282.144834684811
 20
250.9693676257629
 30
0.0
 10
282.1684618428228
 20
250.9606242170826
 30
0.0
 10
282.2258501283787
 20
250.9191460892191
 30
0.0
 10
282.2831633085785
 20
250.868833466524
 30
0.0
 10
282.3246744820978
 20
250.8308208896474
 30
0.0
 10
282.3332618078047
 20
250.8228897234539
 30
0.0
 10
282.3510192800942
 20
250.8063695841709
 30
0.0
 10
282.3601991998162
 20
250.7977713205273
 30
0.0
 10
282.3885011396017
 20
250.7711136914436
 30
0.0
 10
282.4084136376764
 20
250.7521656358756
 30
0.0
 10
282.471310893311
 20
250.6919372679089
 30
0.0
 10
282.5174513985378
 20
250.647276107102
 30
0.0
 10
282.6688650885621
 20
250.50077933303
 30
0.0
 10
282.7870751086189
 20
250.3864577082017
 30
0.0
 10
282.9413966971046
 20
250.2415787738415
 30
0.0
 10
282.9588410226394
 20
250.2252545956282
 30
0.0
 10
282.9943332365127
 20
250.1921609100232
 30
0.0
 10
283.0123992506145
 20
250.1753747094701
 30
0.0
 10
283.0672991754576
 20
250.124559845256
 30
0.0
 10
283.1800330988336
 20
250.0209853442766
 30
0.0
 10
283.3015412251112
 20
249.9120814455597
 30
0.0
 10
283.5562650113278
 20
249.6883682047193
 30
0.0
 10
283.7416735930062
 20
249.5313763010402
 30
0.0
 10
283.9681296493891
 20
249.3490433484452
 30
0.0
 10
283.9935400164456
 20
249.3287042068524
 30
0.0
 10
284.0448596572455
 20
249.2878760898865
 30
0.0
 10
284.0707928371838
 20
249.2673684191195
 30
0.0
 10
284.1491136872957
 20
249.2058155595343
 30
0.0
 10
284.2020384105647
 20
249.1647270035374
 30
0.0
 10
284.3629090644427
 20
249.0414121083265
 30
0.0
 10
284.472950401968
 20
248.9591387439689
 30
0.0
 10
284.8112131720859
 20
248.7129217975122
 30
0.0
 10
285.0475612794819
 20
248.5496024746205
 30
0.0
 10
285.5409948538441
 20
248.2281495232161
 30
0.0
 10
285.7980838353883
 20
248.0700042165547
 30
0.0
 10
286.132042126363
 20
247.8774124580321
 30
0.0
 10
286.1992610666204
 20
247.8392655028832
 30
0.0
 10
286.3343557367702
 20
247.7638388355339
 30
0.0
 10
286.5380719789818
 20
247.6519482748693
 30
0.0
 10
286.7449508266189
 20
247.5438856680733
 30
0.0
 10
287.1627906451656
 20
247.3330602065523
 30
0.0
 10
287.446786425645
 20
247.1995777317357
 30
0.0
 10
288.0251207032825
 20
246.9477113917305
 30
0.0
 10
288.3194604076643
 20
246.8293245380441
 30
0.0
 10
288.9181652250731
 20
246.6085906636205
 30
0.0
 10
289.2225307588547
 20
246.5062414846911
 30
0.0
 10
289.6091701746
 20
246.3889567154955
 30
0.0
 10
289.6867555193304
 20
246.3660491003485
 30
0.0
 10
289.8421741956696
 20
246.3214165422731
 30
0.0
 10
290.0757914501623
 20
246.2562060753999
 30
0.0
 10
290.3108672177653
 20
246.1962268401825
 30
0.0
 10
290.7829467952988
 20
246.0832999110635
 30
0.0
 10
291.1002346370315
 20
246.0173856687155
 30
0.0
 10
291.4200785939253
 20
245.9610519684309
 30
0.0
  0
SPLINE
  5
157
330
1F
100
AcDbEntity
  8
1
100
AcDbSpline
210
0.0
220
0.0
230
1.0
 70
     8
 71
     3
 72
    26
 73
    22
 74
     0
 42
0.000000001
 43
0.0000000001
 40
0.0
 40
0.0
 40
0.0
 40
0.0
 40
0.1869114610567001
 40
0.1869114610567001
 40
0.2803671915850556
 40
0.2803671915850556
 40
0.3270950568492334
 40
0.3270950568492334
 40
0.3738229221134112
 40
0.3738229221134112
 40
0.5607343831700911
 40
0.5607343831700911
 40
0.7476458442267708
 40
0.7476458442267708
 40
0.7943737094909409
 40
0.7943737094909409
 40
0.8411015747551109
 40
0.8411015747551109
 40
0.9345573052834595
 40
0.9345573052834595
 40
1.0
 40
1.0
 40
1.0
 40
1.0
 10
284.3870402592981
 20
250.3452469345596
 30
0.0
 10
284.2663698268132
 20
250.3425066428961
 30
0.0
 10
284.1457033700883
 20
250.3431453603122
 30
0.0
 10
283.9647101668674
 20
250.3491426999575
 30
0.0
 10
283.9043801444442
 20
250.3519837677955
 30
0.0
 10
283.8138864182914
 20
250.3575254902014
 30
0.0
 10
283.7837220584964
 20
250.3595862412988
 30
0.0
 10
283.7233936964908
 20
250.364139728664
 30
0.0
 10
283.693347255419
 20
250.3666240791771
 30
0.0
 10
283.5442090004008
 20
250.3800221670706
 30
0.0
 10
283.4278587834829
 20
250.3938903728321
 30
0.0
 10
283.2012873791943
 20
250.427539338961
 30
0.0
 10
283.0910542325138
 20
250.4473169072293
 30
0.0
 10
282.9576980125983
 20
250.4757170617303
 30
0.0
 10
282.9311822464476
 20
250.4815983575153
 30
0.0
 10
282.8790239890365
 20
250.4936424458733
 30
0.0
 10
282.8533894178091
 20
250.4998018007987
 30
0.0
 10
282.777848269852
 20
250.5186722012228
 30
0.0
 10
282.7292994818562
 20
250.5317750273913
 30
0.0
 10
282.6500532966826
 20
250.5548645876397
 30
0.0
 10
282.6183659412286
 20
250.5646080814502
 30
0.0
 10
282.5877039176317
 20
250.5745731474717
 30
0.0
  0
SPLINE
  5
170
330
1F
100
AcDbEntity
  8
1
100
AcDbSpline
210
0.0
220
0.0
230
1.0
 70
     8
 71
     3
 72
    18
 73
    14
 74
     0
 42
0.000000001
 43
0.0000000001
 40
0.0
 40
0.0
 40
0.0
 40
0.0
 40
0.1250000000000414
 40
0.1250000000000414
 40
0.2500000000000828
 40
0.2500000000000828
 40
0.3750000000001242
 40
0.3750000000001242
 40
0.5000000000001657
 40
0.5000000000001657
 40
0.7500000000000828
 40
0.7500000000000828
 40
1.0
 40
1.0
 40
1.0
 40
1.0
 10
297.7786558261523
 20
248.3220248828317
 30
0.0
 10
297.7814114678189
 20
248.3262034373425
 30
0.0
 10
297.7845064471982
 20
248.3300681462019
 30
0.0
 10
297.7913399687521
 20
248.3372018673791
 30
0.0
 10
297.7951206084272
 20
248.3404977523022
 30
0.0
 10
297.8031036829873
 20
248.3463034096405
 30
0.0
 10
297.8072997410551
 20
248.3488227470682
 30
0.0
 10
297.816081466951
 20
248.353129240799
 30
0.0
 10
297.8207128370071
 20
248.354928032374
 30
0.0
 10
297.8348553583257
 20
248.3590847251409
 30
0.0
 10
297.8445655571521
 20
248.3602425596466
 30
0.0
 10
297.8641687833513
 20
248.3594058825455
 30
0.0
 10
297.8736575512308
 20
248.3574473352507
 30
0.0
 10
297.8828353660205
 20
248.3539653236846
 30
0.0
  0
SPLINE
  5
171
330
1F
100
AcDbEntity
  8
1
100
AcDbSpline
210
0.0
220
0.0
230
1.0
 70
     8
 71
     3
 72
    19
 73
    15
 74
     0
 42
0.000000001
 43
0.0000000001
 40
0.0
 40
0.0
 40
0.0
 40
0.0
 40
0.24999999999999
 40
0.24999999999999
 40
0.3749999999999848
 40
0.3749999999999848
 40
0.4999999999999797
 40
0.6249999999999744
 40
0.6249999999999744
 40
0.687499999999975
 40
0.687499999999975
 40
0.7499999999999753
 40
0.7499999999999753
 40
1.0
 40
1.0
 40
1.0
 40
1.0
 10
297.7381575549622
 20
247.933168944847
 30
0.0
 10
297.7256582207231
 20
247.9649852665105
 30
0.0
 10
297.7171196666768
 20
247.9977379603565
 30
0.0
 10
297.7102144017128
 20
248.0482634183425
 30
0.0
 10
297.7089213737035
 20
248.0653650780486
 30
0.0
 10
297.7083971123903
 20
248.0991938999253
 30
0.0
 10
297.7098955965949
 20
248.1328603925639
 30
0.0
 10
297.7153941015536
 20
248.1662060224263
 30
0.0
 10
297.721064160442
 20
248.1910911605478
 30
0.0
 10
297.723216556846
 20
248.1993717018916
 30
0.0
 10
297.7279806611089
 20
248.2156666416673
 30
0.0
 10
297.7305980965156
 20
248.2237094771277
 30
0.0
 10
297.7448393240829
 20
248.2634105072253
 30
0.0
 10
297.7598777864218
 20
248.2935505483154
 30
0.0
 10
297.7786558261523
 20
248.3220248828317
 30
0.0
  0
SPLINE
  5
172
330
1F
100
AcDbEntity
  8
1
100
AcDbSpline
210
0.0
220
0.0
230
1.0
 70
     8
 71
     3
 72
    14
 73
    10
 74
     0
 42
0.000000001
 43
0.0000000001
 40
0.0
 40
0.0
 40
0.0
 40
0.0
 40
0.25
 40
0.25
 40
0.5
 40
0.5
 40
0.75
 40
0.75
 40
1.0
 40
1.0
 40
1.0
 40
1.0
 10
297.9538327865782
 20
248.3569196110841
 30
0.0
 10
297.9482745333258
 20
248.3541911900575
 30
0.0
 10
297.9424238961855
 20
248.3520806409053
 30
0.0
 10
297.9305976760429
 20
248.3491539474689
 30
0.0
 10
297.9246013327152
 20
248.3483167942516
 30
0.0
 10
297.9124448496001
 20
248.3478598854423
 30
0.0
 10
297.9062991489851
 20
248.3482582662076
 30
0.0
 10
297.8943870174058
 20
248.3502298011717
 30
0.0
 10
297.888549905639
 20
248.3517972593356
 30
0.0
 10
297.8828353660205
 20
248.3539653236846
 30
0.0
  0
SPLINE
  5
173
330
1F
100
AcDbEntity
  8
1
100
AcDbSpline
210
0.0
220
0.0
230
1.0
 70
     8
 71
     3
 72
     8
 73
     4
 74
     0
 42
0.000000001
 43
0.0000000001
 40
0.0
 40
0.0
 40
0.0
 40
0.0
 40
1.0
 40
1.0
 40
1.0
 40
1.0
 10
297.7423899481664
 20
247.9240581833333
 30
0.0
 10
297.7408058813696
 20
247.9269896610033
 30
0.0
 10
297.739392641925
 20
247.9300251034763
 30
0.0
 10
297.7381575549622
 20
247.933168944847
 30
0.0
  0
SPLINE
  5
174
330
1F
100
AcDbEntity
  8
1
100
AcDbSpline
210
0.0
220
0.0
230
1.0
 70
     8
 71
     3
 72
    20
 73
    16
 74
     0
 42
0.000000001
 43
0.0000000001
 40
0.0
 40
0.0
 40
0.0
 40
0.0
 40
0.2500000000000147
 40
0.2500000000000147
 40
0.3750000000000122
 40
0.3750000000000122
 40
0.5000000000000098
 40
0.5000000000000098
 40
0.6250000000000073
 40
0.6250000000000073
 40
0.7500000000000049
 40
0.7500000000000049
 40
0.8750000000000024
 40
0.8750000000000024
 40
1.0
 40
1.0
 40
1.0
 40
1.0
 10
298.1608720466953
 20
248.7419132494902
 30
0.0
 10
298.1545303117885
 20
248.7493521104915
 30
0.0
 10
298.1495436174931
 20
248.7575604541909
 30
0.0
 10
298.1440942144719
 20
248.7710231472233
 30
0.0
 10
298.1426370370222
 20
248.775695415313
 30
0.0
 10
298.1405414265579
 20
248.7851056411473
 30
0.0
 10
298.1398849778635
 20
248.7898834260673
 30
0.0
 10
298.1393911846849
 20
248.7995898525814
 30
0.0
 10
298.1395635016199
 20
248.8044891957188
 30
0.0
 10
298.1407429199179
 20
248.8140947287182
 30
0.0
 10
298.1417465109408
 20
248.8188415665913
 30
0.0
 10
298.1446302781056
 20
248.8282155355123
 30
0.0
 10
298.1464919887001
 20
248.8327633553347
 30
0.0
 10
298.1509782256578
 20
248.8414102555441
 30
0.0
 10
298.1536107821226
 20
248.8455375786955
 30
0.0
 10
298.1566579030193
 20
248.8494557287002
 30
0.0
  0
SPLINE
  5
175
330
1F
100
AcDbEntity
  8
1
100
AcDbSpline
210
0.0
220
0.0
230
1.0
 70
     8
 71
     3
 72
    14
 73
    10
 74
     0
 42
0.000000001
 43
0.0000000001
 40
0.0
 40
0.0
 40
0.0
 40
0.0
 40
0.25
 40
0.25
 40
0.5
 40
0.5
 40
0.75
 40
0.75
 40
1.0
 40
1.0
 40
1.0
 40
1.0
 10
298.1608720466953
 20
248.7419132494902
 30
0.0
 10
298.1648188849285
 20
248.7372836045362
 30
0.0
 10
298.1682923354819
 20
248.7322643707938
 30
0.0
 10
298.1741273581326
 20
248.7217093249812
 30
0.0
 10
298.176484855409
 20
248.7162024122574
 30
0.0
 10
298.1800636408943
 20
248.7047213341084
 30
0.0
 10
298.1812719536813
 20
248.6987228203277
 30
0.0
 10
298.1823835355298
 20
248.6867660472764
 30
0.0
 10
298.1823136633599
 20
248.6807444694523
 30
0.0
 10
298.181562974172
 20
248.6746742818202
 30
0.0
  0
SPLINE
  5
176
330
1F
100
AcDbEntity
  8
1
100
AcDbSpline
210
0.0
220
0.0
230
1.0
 70
     8
 71
     3
 72
    20
 73
    16
 74
     0
 42
0.000000001
 43
0.0000000001
 40
0.0
 40
0.0
 40
0.0
 40
0.0
 40
0.1250000000000061
 40
0.1250000000000061
 40
0.2500000000000124
 40
0.3125000000000093
 40
0.3125000000000093
 40
0.3750000000000063
 40
0.3750000000000063
 40
0.5000000000000059
 40
0.6250000000000055
 40
0.6250000000000055
 40
0.7500000000000052
 40
0.7500000000000052
 40
1.0
 40
1.0
 40
1.0
 40
1.0
 10
298.1815629741724
 20
248.6746742818205
 30
0.0
 10
298.1794893934578
 20
248.6579069908947
 30
0.0
 10
298.1763936640291
 20
248.6412437116202
 30
0.0
 10
298.1682322571472
 20
248.6085999103271
 30
0.0
 10
298.1606259505774
 20
248.584536025329
 30
0.0
 10
298.1507258895494
 20
248.5611069396015
 30
0.0
 10
298.1435982783208
 20
248.5456325000455
 30
0.0
 10
298.1397547220747
 20
248.5379389145577
 30
0.0
 10
298.1275539822294
 20
248.5153564447404
 30
0.0
 10
298.1095068911706
 20
248.4865289558975
 30
0.0
 10
298.0879924058274
 20
248.4601989837491
 30
0.0
 10
298.0647217097782
 20
248.4351347527037
 30
0.0
 10
298.0521522129123
 20
248.4232100707476
 30
0.0
 10
298.0129426057936
 20
248.3903764334621
 30
0.0
 10
297.9845044716567
 20
248.3719756487796
 30
0.0
 10
297.9538327865782
 20
248.3569196110841
 30
0.0
  0
SPLINE
  5
177
330
1F
100
AcDbEntity
  8
1
100
AcDbSpline
210
0.0
220
0.0
230
1.0
 70
     8
 71
     3
 72
    10
 73
     6
 74
     0
 42
0.000000001
 43
0.0000000001
 40
0.0
 40
0.0
 40
0.0
 40
0.0
 40
0.3418068066031
 40
0.3418068066031
 40
1.0
 40
1.0
 40
1.0
 40
1.0
 10
297.8779113290336
 20
247.8743829276316
 30
0.0
 10
297.8808959975811
 20
247.8732721766885
 30
0.0
 10
297.8838246693448
 20
247.8720043641737
 30
0.0
 10
297.8921155842548
 20
247.8678722117753
 30
0.0
 10
297.8972897558427
 20
247.8646050420159
 30
0.0
 10
297.9021572961954
 20
247.8607423498537
 30
0.0
  0
SPLINE
  5
178
330
1F
100
AcDbEntity
  8
1
100
AcDbSpline
210
0.0
220
0.0
230
1.0
 70
     8
 71
     3
 72
    19
 73
    15
 74
     0
 42
0.000000001
 43
0.0000000001
 40
0.0
 40
0.0
 40
0.0
 40
0.0
 40
0.2929114251283854
 40
0.2929114251283854
 40
0.4393671376926014
 40
0.4393671376926014
 40
0.5858228502568175
 40
0.7322785628210335
 40
0.7322785628210335
 40
0.8055064191031698
 40
0.8055064191031698
 40
0.878734275385306
 40
0.878734275385306
 40
1.0
 40
1.0
 40
1.0
 40
1.0
 10
298.1566579030193
 20
248.8494557287002
 30
0.0
 10
298.1774254869739
 20
248.8761597919545
 30
0.0
 10
298.2010514569473
 20
248.8999609318346
 30
0.0
 10
298.2407422429893
 20
248.9313302758386
 30
0.0
 10
298.2547176824017
 20
248.9410573288724
 30
0.0
 10
298.2834149038683
 20
248.9585628189965
 30
0.0
 10
298.3130198348616
 20
248.9742599740677
 30
0.0
 10
298.3444193843366
 20
248.9863809110585
 30
0.0
 10
298.3686628529169
 20
248.9940894177242
 30
0.0
 10
298.3768675769367
 20
248.9964277427441
 30
0.0
 10
298.3932869446715
 20
249.0005782403186
 30
0.0
 10
298.4015288696357
 20
249.0023998589002
 30
0.0
 10
298.4235035070777
 20
249.0065776196675
 30
0.0
 10
298.4372902052892
 20
249.0085092277341
 30
0.0
 10
298.4511636589669
 20
249.0097606822223
 30
0.0
  0
SPLINE
  5
179
330
1F
100
AcDbEntity
  8
1
100
AcDbSpline
210
0.0
220
0.0
230
1.0
 70
     8
 71
     3
 72
    20
 73
    16
 74
     0
 42
0.000000001
 43
0.0000000001
 40
0.0
 40
0.0
 40
0.0
 40
0.0
 40
0.1249999999999886
 40
0.1249999999999886
 40
0.2499999999999771
 40
0.3124999999999689
 40
0.3124999999999689
 40
0.3749999999999607
 40
0.3749999999999607
 40
0.4999999999999705
 40
0.62499999999998
 40
0.62499999999998
 40
0.7499999999999867
 40
0.7499999999999867
 40
1.0
 40
1.0
 40
1.0
 40
1.0
 10
297.9021572961954
 20
247.8607423498539
 30
0.0
 10
297.9156018932523
 20
247.850073236521
 30
0.0
 10
297.9284308902562
 20
247.8386165306333
 30
0.0
 10
297.9524830356208
 20
247.8144547471531
 30
0.0
 10
297.9693943217466
 20
247.7953409848915
 30
0.0
 10
297.9845725143789
 20
247.7746999424569
 30
0.0
 10
297.9942934405626
 20
247.7605884325438
 30
0.0
 10
297.9989717063481
 20
247.7533288000433
 30
0.0
 10
298.0122290138495
 20
247.7312742867817
 30
0.0
 10
298.0278755223979
 20
247.7011153347338
 30
0.0
 10
298.039567392985
 20
247.6694938722302
 30
0.0
 10
298.0492559102628
 20
247.6371292922142
 30
0.0
 10
298.0530916703838
 20
247.6205160916261
 30
0.0
 10
298.0612788706697
 20
247.5710302716739
 30
0.0
 10
298.0625310959137
 20
247.538038928007
 30
0.0
 10
298.0597424204694
 20
247.5049787791754
 30
0.0
  0
SPLINE
  5
17A
330
1F
100
AcDbEntity
  8
1
100
AcDbSpline
210
0.0
220
0.0
230
1.0
 70
     8
 71
     3
 72
    14
 73
    10
 74
     0
 42
0.000000001
 43
0.0000000001
 40
0.0
 40
0.0
 40
0.0
 40
0.0
 40
0.25
 40
0.25
 40
0.5
 40
0.5
 40
0.75
 40
0.75
 40
1.0
 40
1.0
 40
1.0
 40
1.0
 10
298.0597424204694
 20
247.5049787791754
 30
0.0
 10
298.0592370654371
 20
247.49898772252
 30
0.0
 10
298.0580484640419
 20
247.4930743464901
 30
0.0
 10
298.0544909754475
 20
247.4818104915171
 30
0.0
 10
298.0521295324313
 20
247.4764320621849
 30
0.0
 10
298.0462730687402
 20
247.4661646991455
 30
0.0
 10
298.0427698379834
 20
247.4612969777606
 30
0.0
 10
298.034945936048
 20
247.4524762785319
 30
0.0
 10
298.0305938322498
 20
247.4484620531557
 30
0.0
 10
298.0257871649282
 20
247.4448564403087
 30
0.0
  0
SPLINE
  5
17B
330
1F
100
AcDbEntity
  8
1
100
AcDbSpline
210
0.0
220
0.0
230
1.0
 70
     8
 71
     3
 72
    18
 73
    14
 74
     0
 42
0.000000001
 43
0.0000000001
 40
0.0
 40
0.0
 40
0.0
 40
0.0
 40
0.1249999999999863
 40
0.1249999999999863
 40
0.2499999999999727
 40
0.2499999999999727
 40
0.3749999999999589
 40
0.3749999999999589
 40
0.4999999999999454
 40
0.4999999999999454
 40
0.7499999999999727
 40
0.7499999999999727
 40
1.0
 40
1.0
 40
1.0
 40
1.0
 10
297.9997280779057
 20
247.3426483379352
 30
0.0
 10
297.9975467134552
 20
247.3470450314326
 30
0.0
 10
297.9958098412328
 20
247.3515634903991
 30
0.0
 10
297.9931796628911
 20
247.3608305406578
 30
0.0
 10
297.9922848520908
 20
247.3656275841946
 30
0.0
 10
297.9913889679981
 20
247.3751710485396
 30
0.0
 10
297.9913763781627
 20
247.3799170383375
 30
0.0
 10
297.9921820791223
 20
247.3893583238751
 30
0.0
 10
297.9930138437854
 20
247.3940972706343
 30
0.0
 10
297.9967047250323
 20
247.4078874629724
 30
0.0
 10
298.0006999257831
 20
247.4164913663472
 30
0.0
 10
298.0115006956099
 20
247.4322380633745
 30
0.0
 10
298.0180674053638
 20
247.4390656371599
 30
0.0
 10
298.0257871649282
 20
247.4448564403087
 30
0.0
  0
SPLINE
  5
17C
330
1F
100
AcDbEntity
  8
1
100
AcDbSpline
210
0.0
220
0.0
230
1.0
 70
     8
 71
     3
 72
    17
 73
    13
 74
     0
 42
0.000000001
 43
0.0000000001
 40
0.0
 40
0.0
 40
0.0
 40
0.0
 40
0.0029905869862249
 40
0.0029905869862249
 40
0.2023924695889434
 40
0.4017943521916619
 40
0.4017943521916619
 40
0.5014952934930522
 40
0.5014952934930522
 40
0.6011962347944425
 40
0.6011962347944425
 40
1.0
 40
1.0
 40
1.0
 40
1.0
 10
298.1706136528007
 20
247.1641817637085
 30
0.0
 10
298.1703933428141
 20
247.1643041484366
 30
0.0
 10
298.1701731862589
 20
247.1644267083339
 30
0.0
 10
298.155284234505
 20
247.1727329420822
 30
0.0
 10
298.1271201962364
 20
247.1907238377915
 30
0.0
 10
298.1012772232858
 20
247.2119266272098
 30
0.0
 10
298.0827922538698
 20
247.2290699692041
 30
0.0
 10
298.0767771246195
 20
247.2349983976353
 30
0.0
 10
298.0652104387783
 20
247.2471099880509
 30
0.0
 10
298.0596373868301
 20
247.2533120901327
 30
0.0
 10
298.0328033167749
 20
247.2850395154519
 30
0.0
 10
298.0145932240342
 20
247.3126865902279
 30
0.0
 10
297.9997280779056
 20
247.3426483379352
 30
0.0
  0
SPLINE
  5
17D
330
1F
100
AcDbEntity
  8
1
100
AcDbSpline
210
0.0
220
0.0
230
1.0
 70
     8
 71
     3
 72
    20
 73
    16
 74
     0
 42
0.000000001
 43
0.0000000001
 40
0.0
 40
0.0
 40
0.0
 40
0.0
 40
0.1623180769052039
 40
0.1623180769052039
 40
0.3246361538104076
 40
0.405795192262978
 40
0.405795192262978
 40
0.4869542307155485
 40
0.4869542307155485
 40
0.6492723076206244
 40
0.8115903845257001
 40
0.8115903845257001
 40
0.9739084614307763
 40
0.9739084614307763
 40
1.0
 40
1.0
 40
1.0
 40
1.0
 10
299.0185056039493
 20
248.842752584656
 30
0.0
 10
299.0035337401471
 20
248.8364506910259
 30
0.0
 10
298.9881048114034
 20
248.8310592873815
 30
0.0
 10
298.9567555980873
 20
248.8222549774656
 30
0.0
 10
298.932794007719
 20
248.8170974915477
 30
0.0
 10
298.9081185631928
 20
248.814159206406
 30
0.0
 10
298.8915024057205
 20
248.8127096062379
 30
0.0
 10
298.8830789777957
 20
248.8122389626721
 30
0.0
 10
298.8578565511348
 20
248.8116231348967
 30
0.0
 10
298.8243186871551
 20
248.8128964884206
 30
0.0
 10
298.7909547870458
 20
248.8182466796562
 30
0.0
 10
298.7576817655094
 20
248.8256641158273
 30
0.0
 10
298.7410396546092
 20
248.8304409336932
 30
0.0
 10
298.7223485698509
 20
248.8370153107858
 30
0.0
 10
298.719770762543
 20
248.8379489346804
 30
0.0
 10
298.717203520765
 20
248.8389056937166
 30
0.0
  0
SPLINE
  5
17E
330
1F
100
AcDbEntity
  8
1
100
AcDbSpline
210
0.0
220
0.0
230
1.0
 70
     8
 71
     3
 72
    14
 73
    10
 74
     0
 42
0.000000001
 43
0.0000000001
 40
0.0
 40
0.0
 40
0.0
 40
0.0
 40
0.25
 40
0.25
 40
0.5
 40
0.5
 40
0.75
 40
0.75
 40
1.0
 40
1.0
 40
1.0
 40
1.0
 10
299.0634341835744
 20
248.8926978101065
 30
0.0
 10
299.0616517009481
 20
248.8871110051918
 30
0.0
 10
299.0593009929193
 20
248.8817404817363
 30
0.0
 10
299.0535941331393
 20
248.8716980234991
 30
0.0
 10
299.0502599290033
 20
248.8670437380266
 30
0.0
 10
299.0426137881639
 20
248.8584779689671
 30
0.0
 10
299.0382747303524
 20
248.8545656197428
 30
0.0
 10
299.0289498624635
 20
248.8478702574999
 30
0.0
 10
299.0239256485669
 20
248.8450339669278
 30
0.0
 10
299.0185056039485
 20
248.842752584656
 30
0.0
  0
SPLINE
  5
17F
330
1F
100
AcDbEntity
  8
1
100
AcDbSpline
210
0.0
220
0.0
230
1.0
 70
     8
 71
     3
 72
    20
 73
    16
 74
     0
 42
0.000000001
 43
0.0000000001
 40
0.0
 40
0.0
 40
0.0
 40
0.0
 40
0.2500000000000016
 40
0.2500000000000016
 40
0.3750000000000012
 40
0.3750000000000012
 40
0.500000000000001
 40
0.500000000000001
 40
0.6250000000000008
 40
0.6250000000000008
 40
0.7500000000000005
 40
0.7500000000000005
 40
0.8750000000000001
 40
0.8750000000000001
 40
1.0
 40
1.0
 40
1.0
 40
1.0
 10
299.0634341835744
 20
248.8926978101065
 30
0.0
 10
299.066298272603
 20
248.9016746755325
 30
0.0
 10
299.0705030429093
 20
248.9098665918985
 30
0.0
 10
299.0788152752845
 20
248.9209758056438
 30
0.0
 10
299.0819255642326
 20
248.9244616968965
 30
0.0
 10
299.088624572048
 20
248.9307663502963
 30
0.0
 10
299.0922369437899
 20
248.933619689202
 30
0.0
 10
299.1000101310995
 20
248.9386995633152
 30
0.0
 10
299.104152216181
 20
248.9409040698254
 30
0.0
 10
299.1127075140836
 20
248.944507014255
 30
0.0
 10
299.1171526422935
 20
248.9459280498113
 30
0.0
 10
299.1263958322246
 20
248.947963320765
 30
0.0
 10
299.131119516856
 20
248.9485553631726
 30
0.0
 10
299.140587716946
 20
248.9488712475959
 30
0.0
 10
299.145360041142
 20
248.9486018613121
 30
0.0
 10
299.1501724869694
 20
248.9478772637293
 30
0.0
  0
SPLINE
  5
180
330
1F
100
AcDbEntity
  8
1
100
AcDbSpline
210
0.0
220
0.0
230
1.0
 70
     8
 71
     3
 72
     8
 73
     4
 74
     0
 42
0.000000001
 43
0.0000000001
 40
0.0
 40
0.0
 40
0.0
 40
0.0
 40
1.0
 40
1.0
 40
1.0
 40
1.0
 10
298.7658434432876
 20
247.2169281200418
 30
0.0
 10
298.7940221465668
 20
247.2064267509337
 30
0.0
 10
298.8203718192232
 20
247.1930626592659
 30
0.0
 10
298.845009559863
 20
247.1768798207808
 30
0.0
  0
SPLINE
  5
181
330
1F
100
AcDbEntity
  8
1
100
AcDbSpline
210
0.0
220
0.0
230
1.0
 70
     8
 71
     3
 72
    14
 73
    10
 74
     0
 42
0.000000001
 43
0.0000000001
 40
0.0
 40
0.0
 40
0.0
 40
0.0
 40
0.25
 40
0.25
 40
0.5
 40
0.5
 40
0.75
 40
0.75
 40
1.0
 40
1.0
 40
1.0
 40
1.0
 10
298.845009559863
 20
247.1768798207808
 30
0.0
 10
298.8498646052179
 20
247.1736908751722
 30
0.0
 10
298.8543023394247
 20
247.1699716860423
 30
0.0
 10
298.8620918377554
 20
247.161812736875
 30
0.0
 10
298.8654706579591
 20
247.1573668491325
 30
0.0
 10
298.8712285336626
 20
247.147759187166
 30
0.0
 10
298.8735860465854
 20
247.1425988049769
 30
0.0
 10
298.8771003582443
 20
247.1320202591461
 30
0.0
 10
298.8782934721983
 20
247.1265476093286
 30
0.0
 10
298.8789048034133
 20
247.1208852586129
 30
0.0
  0
SPLINE
  5
183
330
1F
100
AcDbEntity
  8
1
100
AcDbSpline
210
0.0
220
0.0
230
1.0
 70
     8
 71
     3
 72
    24
 73
    20
 74
     0
 42
0.000000001
 43
0.0000000001
 40
0.0
 40
0.0
 40
0.0
 40
0.0
 40
0.0549546209824731
 40
0.1103919402534601
 40
0.1663121591845137
 40
0.2227154734456225
 40
0.2796020731999952
 40
0.3369721432908277
 40
0.3948258634204377
 40
0.4531634083221301
 40
0.5119849479251352
 40
0.5712906475129715
 40
0.6310806678755085
 40
0.6913551654550659
 40
0.7521142924867866
 40
0.8133581971335772
 40
0.8750870236158464
 40
0.9373009123363033
 40
1.0
 40
1.0
 40
1.0
 40
1.0
 10
301.5033221195382
 20
241.3498808317498
 30
0.0
 10
301.5102921973276
 20
241.3573883201441
 30
0.0
 10
301.5242935751397
 20
241.3724692395548
 30
0.0
 10
301.5450670527664
 20
241.3952379689232
 30
0.0
 10
301.5657921469515
 20
241.4182396278102
 30
0.0
 10
301.5864462555287
 20
241.4414776913616
 30
0.0
 10
301.6070368883401
 20
241.4649510821232
 30
0.0
 10
301.6275633605449
 20
241.4886599615849
 30
0.0
 10
301.6480271901781
 20
241.5126041583401
 30
0.0
 10
301.6684292768914
 20
241.5367835947423
 30
0.0
 10
301.6887706651323
 20
241.5611981716389
 30
0.0
 10
301.7090523464315
 20
241.5858477983947
 30
0.0
 10
301.7292752777783
 20
241.6107323901818
 30
0.0
 10
301.7494405100118
 20
241.6358518488732
 30
0.0
 10
301.7695486493223
 20
241.6612061438619
 30
0.0
 10
301.7896019058737
 20
241.6867950051336
 30
0.0
 10
301.8095963528394
 20
241.7126190835792
 30
0.0
 10
301.8295511606496
 20
241.7386755695415
 30
0.0
 10
301.8427313192983
 20
241.7561404972076
 30
0.0
 10
301.8493469964399
 20
241.7649068805128
 30
0.0
  0
SPLINE
  5
184
330
1F
100
AcDbEntity
  8
1
100
AcDbSpline
210
0.0
220
0.0
230
1.0
 70
     8
 71
     3
 72
    16
 73
    12
 74
     0
 42
0.000000001
 43
0.0000000001
 40
0.0
 40
0.0
 40
0.0
 40
0.0
 40
0.1249999999999998
 40
0.1249999999999998
 40
0.2499999999999995
 40
0.2499999999999995
 40
0.4999999999999998
 40
0.4999999999999998
 40
0.7499999999999999
 40
0.7499999999999999
 40
1.0
 40
1.0
 40
1.0
 40
1.0
 10
302.079337634494
 20
239.7579883432574
 30
0.0
 10
302.0565461349587
 20
239.5989225505434
 30
0.0
 10
302.0316393638278
 20
239.4402199793089
 30
0.0
 10
301.9775968448841
 20
239.1235410563812
 30
0.0
 10
301.9484587196107
 20
238.9655593990809
 30
0.0
 10
301.8547889809505
 20
238.493167252208
 30
0.0
 10
301.7839817251689
 20
238.1801536763864
 30
0.0
 10
301.6256250753991
 20
237.5579604106331
 30
0.0
 10
301.5382342472763
 20
237.2494161217977
 30
0.0
 10
301.347186292537
 20
236.6377421436096
 30
0.0
 10
301.2435153359387
 20
236.3345578867535
 30
0.0
 10
301.1316639433018
 20
236.0340370630993
 30
0.0
  0
SPLINE
  5
185
330
1F
100
AcDbEntity
  8
1
100
AcDbSpline
210
0.0
220
0.0
230
1.0
 70
     8
 71
     3
 72
    24
 73
    20
 74
     0
 42
0.000000001
 43
0.0000000001
 40
0.0
 40
0.0
 40
0.0
 40
0.0
 40
0.0312499999999971
 40
0.0312499999999971
 40
0.0624999999999943
 40
0.0624999999999943
 40
0.1249999999999938
 40
0.1249999999999938
 40
0.1874999999999933
 40
0.1874999999999933
 40
0.2499999999999928
 40
0.2499999999999928
 40
0.3749999999999919
 40
0.3749999999999919
 40
0.4999999999999911
 40
0.4999999999999911
 40
0.7499999999999956
 40
0.7499999999999956
 40
1.0
 40
1.0
 40
1.0
 40
1.0
 10
301.9087127086796
 20
241.1586440447837
 30
0.0
 10
301.906658831791
 20
241.165073055627
 30
0.0
 10
301.9044070485508
 20
241.1704934836269
 30
0.0
 10
301.8996876511809
 20
241.1802344847362
 30
0.0
 10
301.8972160043349
 20
241.1845344819359
 30
0.0
 10
301.8895807339672
 20
241.1963116421656
 30
0.0
 10
301.8842010366744
 20
241.2026876632915
 30
0.0
 10
301.8731222364589
 20
241.2138119701528
 30
0.0
 10
301.8674185642317
 20
241.2185265289066
 30
0.0
 10
301.8558719309242
 20
241.2267907808543
 30
0.0
 10
301.850015313172
 20
241.2303446321205
 30
0.0
 10
301.8322661562174
 20
241.2397614630156
 30
0.0
 10
301.820197506029
 20
241.2444018834171
 30
0.0
 10
301.7957704325515
 20
241.2516711246877
 30
0.0
 10
301.7834087167614
 20
241.2542770890743
 30
0.0
 10
301.7460091562789
 20
241.259912332237
 30
0.0
 10
301.7206623333696
 20
241.2607966899276
 30
0.0
 10
301.6694596017533
 20
241.2590313410894
 30
0.0
 10
301.6435966159648
 20
241.256337032571
 30
0.0
 10
301.6175780316787
 20
241.252348988912
 30
0.0
  0
SPLINE
  5
186
330
1F
100
AcDbEntity
  8
1
100
AcDbSpline
210
0.0
220
0.0
230
1.0
 70
     8
 71
     3
 72
    12
 73
     8
 74
     0
 42
0.000000001
 43
0.0000000001
 40
0.0
 40
0.0
 40
0.0
 40
0.0
 40
0.5
 40
0.5
 40
0.75
 40
0.75
 40
1.0
 40
1.0
 40
1.0
 40
1.0
 10
300.9396518112897
 20
236.9409910262879
 30
0.0
 10
300.9454776819043
 20
236.9412517135134
 30
0.0
 10
300.9513981071652
 20
236.9423913323565
 30
0.0
 10
300.9605560961921
 20
236.9466788748775
 30
0.0
 10
300.9636555930442
 20
236.9485433991595
 30
0.0
 10
300.970008699286
 20
236.9537049990329
 30
0.0
 10
300.973257143203
 20
236.9569540590286
 30
0.0
 10
300.9766623816243
 20
236.9616606005181
 30
0.0
  0
SPLINE
  5
187
330
1F
100
AcDbEntity
  8
1
100
AcDbSpline
210
0.0
220
0.0
230
1.0
 70
     8
 71
     3
 72
    16
 73
    12
 74
     0
 42
0.000000001
 43
0.0000000001
 40
0.0
 40
0.0
 40
0.0
 40
0.0
 40
0.1163944876925929
 40
0.2314680280303255
 40
0.3452206391271646
 40
0.4576523555409024
 40
0.5687632292165229
 40
0.6785533304659582
 40
0.7870227489876508
 40
0.8941715949296133
 40
1.0
 40
1.0
 40
1.0
 40
1.0
 10
300.8155074670863
 20
235.780781795052
 30
0.0
 10
300.810672178122
 20
235.8017803573676
 30
0.0
 10
300.8010564753194
 20
235.8435391717841
 30
0.0
 10
300.7866585534531
 20
235.9061416171573
 30
0.0
 10
300.7723859490505
 20
235.9682665436108
 30
0.0
 10
300.7582361955224
 20
236.0299362378315
 30
0.0
 10
300.7442115959412
 20
236.0911453626993
 30
0.0
 10
300.7303131810227
 20
236.1518933356586
 30
0.0
 10
300.7165406787089
 20
236.2121866927397
 30
0.0
 10
300.7028984513754
 20
236.2719985965056
 30
0.0
 10
300.6938246959459
 20
236.3118637496019
 30
0.0
 10
300.6893159464877
 20
236.331672745868
 30
0.0
  0
SPLINE
  5
188
330
1F
100
AcDbEntity
  8
1
100
AcDbSpline
210
0.0
220
0.0
230
1.0
 70
     8
 71
     3
 72
     8
 73
     4
 74
     0
 42
0.000000001
 43
0.0000000001
 40
0.0
 40
0.0
 40
0.0
 40
0.0
 40
1.0
 40
1.0
 40
1.0
 40
1.0
 10
300.8228705540994
 20
235.781826761157
 30
0.0
 10
300.8204207191063
 20
235.7814563954229
 30
0.0
 10
300.8179664250673
 20
235.781106944851
 30
0.0
 10
300.8155082678384
 20
235.7807785522776
 30
0.0
  0
SPLINE
  5
189
330
1F
100
AcDbEntity
  8
1
100
AcDbSpline
210
0.0
220
0.0
230
1.0
 70
     8
 71
     3
 72
    19
 73
    15
 74
     0
 42
0.000000001
 43
0.0000000001
 40
0.0
 40
0.0
 40
0.0
 40
0.0
 40
0.2499999999999566
 40
0.2499999999999566
 40
0.3749999999999374
 40
0.3749999999999374
 40
0.4999999999999183
 40
0.6249999999998991
 40
0.6249999999998991
 40
0.6874999999998864
 40
0.6874999999998864
 40
0.7499999999998737
 40
0.7499999999998737
 40
1.0
 40
1.0
 40
1.0
 40
1.0
 10
301.1291518347428
 20
236.0274548075928
 30
0.0
 10
301.1164670141944
 20
235.9950757173122
 30
0.0
 10
301.0999283742934
 20
235.9650570849726
 30
0.0
 10
301.0694747083475
 20
235.9235268377861
 30
0.0
 10
301.0582785545393
 20
235.9101889106055
 30
0.0
 10
301.0344934548802
 20
235.8853783544381
 30
0.0
 10
301.0092824627124
 20
235.8623286929909
 30
0.0
 10
300.981276556408
 20
235.8427287800525
 30
0.0
 10
300.9591916529642
 20
235.8293617084406
 30
0.0
 10
300.9516395919661
 20
235.8251266589845
 30
0.0
 10
300.9364036875468
 20
235.8172324267531
 30
0.0
 10
300.9286922184803
 20
235.8135554036393
 30
0.0
 10
300.8896774861531
 20
235.7964925652855
 30
0.0
 10
300.8570263734837
 20
235.7870122527907
 30
0.0
 10
300.8228705540994
 20
235.781826761157
 30
0.0
  0
SPLINE
  5
18A
330
1F
100
AcDbEntity
  8
1
100
AcDbSpline
210
0.0
220
0.0
230
1.0
 70
     8
 71
     3
 72
     8
 73
     4
 74
     0
 42
0.000000001
 43
0.0000000001
 40
0.0
 40
0.0
 40
0.0
 40
0.0
 40
1.0
 40
1.0
 40
1.0
 40
1.0
 10
301.1316645942239
 20
236.0340367425883
 30
0.0
 10
301.1308455783982
 20
236.0318362380975
 30
0.0
 10
301.1300079137569
 20
236.0296421049131
 30
0.0
 10
301.1291518347428
 20
236.0274548075928
 30
0.0
  0
SPLINE
  5
18B
330
1F
100
AcDbEntity
  8
1
100
AcDbSpline
210
0.0
220
0.0
230
1.0
 70
     8
 71
     3
 72
    24
 73
    20
 74
     0
 42
0.000000001
 43
0.0000000001
 40
0.0
 40
0.0
 40
0.0
 40
0.0
 40
0.0549531386250686
 40
0.1103891671077049
 40
0.1663082854430209
 40
0.2227106879624673
 40
0.2795965635273166
 40
0.3369660957141611
 40
0.3948194629928362
 40
0.453156838897101
 40
0.5119783921884656
 40
0.5712842870134361
 40
0.6310746830545502
 40
0.6913497356754461
 40
0.7521095960602621
 40
0.8133544113476327
 40
0.8750843247595152
 40
0.9372994757250971
 40
1.0
 40
1.0
 40
1.0
 40
1.0
 10
300.9766603265607
 20
236.9616641184281
 30
0.0
 10
300.9794236788674
 20
236.9440669995236
 30
0.0
 10
300.9849746658939
 20
236.9087181305059
 30
0.0
 10
300.9933762117851
 20
236.8557695676861
 30
0.0
 10
301.0018785955964
 20
236.802579194873
 30
0.0
 10
301.0104845651017
 20
236.7491685803656
 30
0.0
 10
301.0191932362793
 20
236.6955304731563
 30
0.0
 10
301.0280047138397
 20
236.6416654660244
 30
0.0
 10
301.0369188372237
 20
236.5875720440418
 30
0.0
 10
301.0459355210143
 20
236.5332492848081
 30
0.0
 10
301.0550546629993
 20
236.4786961280086
 30
0.0
 10
301.0642761681412
 20
236.4239115646201
 30
0.0
 10
301.0735999464555
 20
236.3688946194262
 30
0.0
 10
301.0830258977126
 20
236.3136442277238
 30
0.0
 10
301.092553976227
 20
236.2581597522683
 30
0.0
 10
301.1021839449128
 20
236.2024390166686
 30
0.0
 10
301.1119163051538
 20
236.1464857364501
 30
0.0
 10
301.1217487856048
 20
236.0902814550447
 30
0.0
 10
301.1283503403855
 20
236.0528336961809
 30
0.0
 10
301.1316639433018
 20
236.034037063099
 30
0.0
  0
SPLINE
  5
18C
330
1F
100
AcDbEntity
  8
1
100
AcDbSpline
210
0.0
220
0.0
230
1.0
 70
     8
 71
     3
 72
    12
 73
     8
 74
     0
 42
0.000000001
 43
0.0000000001
 40
0.0
 40
0.0
 40
0.0
 40
0.0
 40
0.5000000000000038
 40
0.5000000000000038
 40
0.7500000000000019
 40
0.7500000000000019
 40
1.0
 40
1.0
 40
1.0
 40
1.0
 10
301.5516379663223
 20
241.2996394138246
 30
0.0
 10
301.5466177791779
 20
241.3077058518045
 30
0.0
 10
301.5407611332623
 20
241.3158575459469
 30
0.0
 10
301.5295222578631
 20
241.3283352018844
 30
0.0
 10
301.5253615971987
 20
241.3325366551279
 30
0.0
 10
301.5156765974305
 20
241.3410785547064
 30
0.0
 10
301.5101979937513
 20
241.345414339453
 30
0.0
 10
301.5033317447163
 20
241.3498915601225
 30
0.0
  0
SPLINE
  5
18D
330
1F
100
AcDbEntity
  8
1
100
AcDbSpline
210
0.0
220
0.0
230
1.0
 70
     8
 71
     3
 72
    24
 73
    20
 74
     0
 42
0.000000001
 43
0.0000000001
 40
0.0
 40
0.0
 40
0.0
 40
0.0
 40
0.0312499999999947
 40
0.0312499999999947
 40
0.0624999999999893
 40
0.0624999999999893
 40
0.1249999999999898
 40
0.1249999999999898
 40
0.1874999999999903
 40
0.1874999999999903
 40
0.2499999999999908
 40
0.2499999999999908
 40
0.3749999999999918
 40
0.3749999999999918
 40
0.4999999999999929
 40
0.4999999999999929
 40
0.7499999999999965
 40
0.7499999999999965
 40
1.0
 40
1.0
 40
1.0
 40
1.0
 10
300.6893730606317
 20
236.3316819133781
 30
0.0
 10
300.696886624672
 20
236.3362063378059
 30
0.0
 10
300.7034051637897
 20
236.3409723640044
 30
0.0
 10
300.7153605361572
 20
236.3507670626524
 30
0.0
 10
300.7207768957079
 20
236.3558007071092
 30
0.0
 10
300.7359229233766
 20
236.3711694711352
 30
0.0
 10
300.744570834979
 20
236.3817672508729
 30
0.0
 10
300.7602701879031
 20
236.4033504476271
 30
0.0
 10
300.7672874583227
 20
236.4143400024976
 30
0.0
 10
300.7801475204562
 20
236.4364324379871
 30
0.0
 10
300.7859996641178
 20
236.4475609153774
 30
0.0
 10
300.8023129136784
 20
236.4811233087883
 30
0.0
 10
300.8115529965343
 20
236.5037310318939
 30
0.0
 10
300.8280254386333
 20
236.5492322684436
 30
0.0
 10
300.8352349081984
 20
236.5721290401294
 30
0.0
 10
300.8546854921831
 20
236.6411293586504
 30
0.0
 10
300.8647864597493
 20
236.6875375456725
 30
0.0
 10
300.8814630761053
 20
236.7808557328387
 30
0.0
 10
300.8879940960136
 20
236.8277715191563
 30
0.0
 10
300.8932232782662
 20
236.8748143547625
 30
0.0
  0
SPLINE
  5
18E
330
1F
100
AcDbEntity
  8
1
100
AcDbSpline
210
0.0
220
0.0
230
1.0
 70
     8
 71
     3
 72
    16
 73
    12
 74
     0
 42
0.000000001
 43
0.0000000001
 40
0.0
 40
0.0
 40
0.0
 40
0.0
 40
0.1250000000000001
 40
0.1250000000000001
 40
0.2500000000000001
 40
0.2500000000000001
 40
0.5000000000000001
 40
0.5000000000000001
 40
0.7500000000000001
 40
0.7500000000000001
 40
1.0
 40
1.0
 40
1.0
 40
1.0
 10
299.1431660853148
 20
235.816701621886
 30
0.0
 10
298.9852612868473
 20
235.840844902261
 30
0.0
 10
298.8277012337167
 20
235.8671186550262
 30
0.0
 10
298.5132704601576
 20
235.9239256430976
 30
0.0
 10
298.3563944622448
 20
235.9544613144281
 30
0.0
 10
297.8872607971904
 20
236.0523654527323
 30
0.0
 10
297.5763427066765
 20
236.1260526474445
 30
0.0
 10
296.9581866755849
 20
236.2902836075676
 30
0.0
 10
296.6515800188982
 20
236.3806628265797
 30
0.0
 10
296.0436177266521
 20
236.577786202128
 30
0.0
 10
295.742207888773
 20
236.6845447005137
 30
0.0
 10
295.4433795553076
 20
236.7995332905516
 30
0.0
  0
SPLINE
  5
18F
330
1F
100
AcDbEntity
  8
1
100
AcDbSpline
210
0.0
220
0.0
230
1.0
 70
     8
 71
     2
 72
     7
 73
     4
 74
     0
 42
0.000000001
 43
0.0000000001
 40
0.0
 40
0.0
 40
0.0
 40
0.376016849189758
 40
1.0
 40
1.0
 40
1.0
 10
301.6175735253584
 20
241.2523283644623
 30
0.0
 10
301.6059528693753
 20
241.2625717908791
 30
0.0
 10
301.5735736275892
 20
241.2871412169101
 30
0.0
 10
301.5516300137833
 20
241.2996453539071
 30
0.0
  0
SPLINE
  5
190
330
1F
100
AcDbEntity
  8
1
100
AcDbSpline
210
0.0
220
0.0
230
1.0
 70
     8
 71
     2
 72
     8
 73
     5
 74
     0
 42
0.000000001
 43
0.0000000001
 40
0.0
 40
0.0
 40
0.0
 40
0.3809847559250121
 40
0.9925842274251884
 40
1.0
 40
1.0
 40
1.0
 10
300.8932301095837
 20
236.8748082055362
 30
0.0
 10
300.9030817100698
 20
236.8862086928075
 30
0.0
 10
300.9265374938004
 20
236.9177787421727
 30
0.0
 10
300.9395192156229
 20
236.9407490027981
 30
0.0
 10
300.9396525552286
 20
236.9409859412259
 30
0.0
  0
SPLINE
  5
191
330
1F
100
AcDbEntity
  8
1
100
AcDbSpline
210
0.0
220
0.0
230
1.0
 70
     8
 71
     3
 72
    12
 73
     8
 74
     0
 42
0.000000001
 43
0.0000000001
 40
0.0
 40
0.0
 40
0.0
 40
0.0
 40
0.1788559624894835
 40
0.1788559624894835
 40
0.5894279812447419
 40
0.5894279812447419
 40
1.0
 40
1.0
 40
1.0
 40
1.0
 10
296.1406493818812
 20
237.5578766251822
 30
0.0
 10
296.1645226421145
 20
237.5598585046708
 30
0.0
 10
296.1884923931833
 20
237.5625874089627
 30
0.0
 10
296.2677195175503
 20
237.573390053544
 30
0.0
 10
296.3232748364015
 20
237.5837704659192
 30
0.0
 10
296.4348392961695
 20
237.608044747003
 30
0.0
 10
296.4908555896613
 20
237.6219832458531
 30
0.0
 10
296.5469707845467
 20
237.6371943374524
 30
0.0
  0
SPLINE
  5
192
330
1F
100
AcDbEntity
  8
1
100
AcDbSpline
210
0.0
220
0.0
230
1.0
 70
     8
 71
     3
 72
    13
 73
     9
 74
     0
 42
0.000000001
 43
0.0000000001
 40
0.0
 40
0.0
 40
0.0
 40
0.0
 40
0.4435073081147348
 40
0.4435073081147348
 40
0.6652609621720698
 40
0.6652609621720698
 40
0.8870146162294048
 40
1.0
 40
1.0
 40
1.0
 40
1.0
 10
295.4368340143201
 20
236.8021061026232
 30
0.0
 10
295.4046204673656
 20
236.8151098557171
 30
0.0
 10
295.3747358519814
 20
236.8319884881253
 30
0.0
 10
295.3333173272593
 20
236.8629668392319
 30
0.0
 10
295.3200012794488
 20
236.8743412446215
 30
0.0
 10
295.2952069159892
 20
236.8984875161832
 30
0.0
 10
295.2778042197129
 20
236.9177907652484
 30
0.0
 10
295.2623546971229
 20
236.938698974659
 30
0.0
 10
295.2573652239757
 20
236.9459413965875
 30
0.0
  0
SPLINE
  5
193
330
1F
100
AcDbEntity
  8
1
100
AcDbSpline
210
0.0
220
0.0
230
1.0
 70
     8
 71
     3
 72
     8
 73
     4
 74
     0
 42
0.000000001
 43
0.0000000001
 40
0.0
 40
0.0
 40
0.0
 40
0.0
 40
1.0
 40
1.0
 40
1.0
 40
1.0
 10
295.443377949201
 20
236.7995291566419
 30
0.0
 10
295.4411908911707
 20
236.8003707737657
 30
0.0
 10
295.4390094250371
 20
236.8012298343582
 30
0.0
 10
295.4368340143201
 20
236.8021061026232
 30
0.0
  0
SPLINE
  5
194
330
1F
100
AcDbEntity
  8
1
100
AcDbSpline
210
0.0
220
0.0
230
1.0
 70
     8
 71
     3
 72
    24
 73
    20
 74
     0
 42
0.000000001
 43
0.0000000001
 40
0.0
 40
0.0
 40
0.0
 40
0.0
 40
0.0549546209746047
 40
0.1103919402387067
 40
0.1663121591638595
 40
0.2227154734200503
 40
0.2796020731704866
 40
0.3369721432583679
 40
0.3948258633860076
 40
0.4531634082867131
 40
0.5119849478897175
 40
0.5712906474785357
 40
0.6310806678430378
 40
0.6913551654255475
 40
0.7521142924612021
 40
0.813358197112911
 40
0.8750870236010847
 40
0.9373009123284308
 40
1.0
 40
1.0
 40
1.0
 40
1.0
 10
296.6212049152316
 20
237.5247383432566
 30
0.0
 10
296.5990373635765
 20
237.5115637058261
 30
0.0
 10
296.5545075498109
 20
237.4850987104881
 30
0.0
 10
296.4877204411991
 20
237.4451714647243
 30
0.0
 10
296.4205662276343
 20
237.4048563535177
 30
0.0
 10
296.3530659735552
 20
237.3641493283028
 30
0.0
 10
296.2852125863506
 20
237.3230516221194
 30
0.0
 10
296.2170066374501
 20
237.2815630311866
 30
0.0
 10
296.1484466394274
 20
237.2396837383248
 30
0.0
 10
296.0795316841924
 20
237.197413818034
 30
0.0
 10
296.0102607293451
 20
237.1547533702305
 30
0.0
 10
295.9406327829996
 20
237.1117024854167
 30
0.0
 10
295.8706468868243
 20
237.0682612479201
 30
0.0
 10
295.8003019951203
 20
237.0244297577845
 30
0.0
 10
295.7295974816305
 20
236.980208038134
 30
0.0
 10
295.6585312115523
 20
236.9355963870851
 30
0.0
 10
295.5871068266344
 20
236.8905940474413
 30
0.0
 10
295.515306232542
 20
236.8452042301366
 30
0.0
 10
295.4674171195309
 20
236.8147963081916
 30
0.0
 10
295.443379555286
 20
236.7995332905379
 30
0.0
  0
SPLINE
  5
195
330
1F
100
AcDbEntity
  8
1
100
AcDbSpline
210
0.0
220
0.0
230
1.0
 70
     8
 71
     3
 72
    12
 73
     8
 74
     0
 42
0.000000001
 43
0.0000000001
 40
0.0
 40
0.0
 40
0.0
 40
0.0
 40
0.5000000000000072
 40
0.5000000000000072
 40
0.7500000000000036
 40
0.7500000000000036
 40
1.0
 40
1.0
 40
1.0
 40
1.0
 10
296.6129059257395
 20
237.5899020763158
 30
0.0
 10
296.6110680114502
 20
237.5792782473328
 30
0.0
 10
296.6101182543821
 20
237.5685884405767
 30
0.0
 10
296.6112991922727
 20
237.5523601724408
 30
0.0
 10
296.6121328177213
 20
237.5469180653501
 30
0.0
 10
296.6152480310234
 20
237.5359262876291
 30
0.0
 10
296.6174810567131
 20
237.5303802244941
 30
0.0
 10
296.6211874930312
 20
237.5247247073686
 30
0.0
  0
SPLINE
  5
196
330
1F
100
AcDbEntity
  8
1
100
AcDbSpline
210
0.0
220
0.0
230
1.0
 70
     8
 71
     2
 72
     7
 73
     4
 74
     0
 42
0.000000001
 43
0.0000000001
 40
0.0
 40
0.0
 40
0.0
 40
0.3760168491812106
 40
1.0
 40
1.0
 40
1.0
 10
296.5469635145194
 20
237.6372105704936
 30
0.0
 10
296.5585841705021
 20
237.626967144077
 30
0.0
 10
296.5909634122882
 20
237.6023977180459
 30
0.0
 10
296.6129070260943
 20
237.5898935810488
 30
0.0
  0
SPLINE
  5
197
330
1F
100
AcDbEntity
  8
1
100
AcDbSpline
210
0.0
220
0.0
230
1.0
 70
     8
 71
     3
 72
     8
 73
     4
 74
     0
 42
0.000000001
 43
0.0000000001
 40
0.0
 40
0.0
 40
0.0
 40
0.0
 40
1.0
 40
1.0
 40
1.0
 40
1.0
 10
291.4200785939253
 20
250.4763760909162
 30
0.0
 10
291.4695282810762
 20
250.477096738456
 30
0.0
 10
291.5189774624959
 20
250.4781726929401
 30
0.0
 10
291.5684261386667
 20
250.4796036154574
 30
0.0
  0
SPLINE
  5
198
330
1F
100
AcDbEntity
  8
1
100
AcDbSpline
210
0.0
220
0.0
230
1.0
 70
     8
 71
     3
 72
    18
 73
    14
 74
     0
 42
0.000000001
 43
0.0000000001
 40
0.0
 40
0.0
 40
0.0
 40
0.0
 40
0.0736395492354303
 40
0.0736395492354303
 40
0.1802096586664431
 40
0.1802096586664431
 40
0.2867797680974558
 40
0.2867797680974558
 40
0.499919986959481
 40
0.499919986959481
 40
0.9262004246835388
 40
0.9262004246835388
 40
1.0
 40
1.0
 40
1.0
 40
1.0
 10
295.7533901007561
 20
246.173883677908
 30
0.0
 10
295.7497406818894
 20
246.1616082647227
 30
0.0
 10
295.7461763928566
 20
246.1493863388067
 30
0.0
 10
295.7376446317972
 20
246.119615646278
 30
0.0
 10
295.7327628466032
 20
246.1021290831066
 30
0.0
 10
295.7232835075425
 20
246.0674141963042
 30
0.0
 10
295.7186804529183
 20
246.0501634104809
 30
0.0
 10
295.7053539111911
 20
245.9993036783063
 30
0.0
 10
295.6970690675248
 20
245.9664351019769
 30
0.0
 10
295.6733848568291
 20
245.8709795501765
 30
0.0
 10
295.65914794732
 20
245.8115298296819
 30
0.0
 10
295.6425158023992
 20
245.746968141657
 30
0.0
 10
295.6400607864669
 20
245.7375635585494
 30
0.0
 10
295.6376038429111
 20
245.7283062352636
 30
0.0
  0
SPLINE
  5
199
330
1F
100
AcDbEntity
  8
1
100
AcDbSpline
210
0.0
220
0.0
230
1.0
 70
     8
 71
     3
 72
     8
 73
     4
 74
     0
 42
0.000000001
 43
0.0000000001
 40
0.0
 40
0.0
 40
0.0
 40
0.0
 40
1.0
 40
1.0
 40
1.0
 40
1.0
 10
301.4638637910167
 20
245.0425186032996
 30
0.0
 10
301.484289006021
 20
245.0168920060166
 30
0.0
 10
301.4942482849923
 20
244.9912654087337
 30
0.0
 10
301.4942482849923
 20
244.9656388114508
 30
0.0
  0
SPLINE
  5
19A
330
1F
100
AcDbEntity
  8
1
100
AcDbSpline
210
0.0
220
0.0
230
1.0
 70
     8
 71
     3
 72
     8
 73
     4
 74
     0
 42
0.000000001
 43
0.0000000001
 40
0.0
 40
0.0
 40
0.0
 40
0.0
 40
1.0
 40
1.0
 40
1.0
 40
1.0
 10
301.4638637910168
 20
241.1351396551459
 30
0.0
 10
301.4723858514439
 20
241.2038005359672
 30
0.0
 10
301.4788953671732
 20
241.2726005771041
 30
0.0
 10
301.4836642792725
 20
241.341520974798
 30
0.0
  0
SPLINE
  5
19B
330
1F
100
AcDbEntity
  8
1
100
AcDbSpline
210
0.0
220
0.0
230
1.0
 70
     8
 71
     3
 72
    18
 73
    14
 74
     0
 42
0.000000001
 43
0.0000000001
 40
0.0
 40
0.0
 40
0.0
 40
0.0
 40
0.2500000000000053
 40
0.2500000000000053
 40
0.3750000000000037
 40
0.3750000000000037
 40
0.5000000000000023
 40
0.5000000000000023
 40
0.7499999999999992
 40
0.7499999999999992
 40
0.8749999999999996
 40
0.8749999999999996
 40
1.0
 40
1.0
 40
1.0
 40
1.0
 10
301.4942482849923
 20
241.5473343190081
 30
0.0
 10
301.4942482849923
 20
241.5342176090812
 30
0.0
 10
301.4939562883003
 20
241.5198377026073
 30
0.0
 10
301.4931414537871
 20
241.4965581589657
 30
0.0
 10
301.4928069320209
 20
241.4885051253384
 30
0.0
 10
301.4920215145902
 20
241.4717988793049
 30
0.0
 10
301.4915681444276
 20
241.4631074739852
 30
0.0
 10
301.4900821375491
 20
241.4366650719628
 30
0.0
 10
301.4889187403778
 20
241.4184096994
 30
0.0
 10
301.4870214178734
 20
241.3900884170806
 30
0.0
 10
301.4863619585598
 20
241.3804684547466
 30
0.0
 10
301.4850160977888
 20
241.3609940601376
 30
0.0
 10
301.4843379944062
 20
241.3512575172167
 30
0.0
 10
301.4836642792726
 20
241.341520974798
 30
0.0
  0
SPLINE
  5
19C
330
1F
100
AcDbEntity
  8
1
100
AcDbSpline
210
0.0
220
0.0
230
1.0
 70
     8
 71
     3
 72
    10
 73
     6
 74
     0
 42
0.000000001
 43
0.0000000001
 40
0.0
 40
0.0
 40
0.0
 40
0.0
 40
0.5
 40
0.5
 40
1.0
 40
1.0
 40
1.0
 40
1.0
 10
291.5684261386667
 20
245.9358689027999
 30
0.0
 10
291.9897081006447
 20
245.867037647414
 30
0.0
 10
292.4125509568906
 20
245.8153308541722
 30
0.0
 10
293.2612975136382
 20
245.7462216860432
 30
0.0
 10
293.6872014376187
 20
245.7288207236475
 30
0.0
 10
294.1146471072757
 20
245.7288207236475
 30
0.0
  0
SPLINE
  5
19D
330
1F
100
AcDbEntity
  8
1
100
AcDbSpline
210
0.0
220
0.0
230
1.0
 70
     8
 71
     3
 72
    24
 73
    20
 74
     0
 42
0.000000001
 43
0.0000000001
 40
0.0
 40
0.0
 40
0.0
 40
0.0
 40
0.2499999999999697
 40
0.2499999999999697
 40
0.3749999999999546
 40
0.3749999999999546
 40
0.4374999999999444
 40
0.4374999999999444
 40
0.4999999999999342
 40
0.4999999999999342
 40
0.6249999999999511
 40
0.6249999999999511
 40
0.6874999999999593
 40
0.6874999999999593
 40
0.7499999999999674
 40
0.7499999999999674
 40
0.8749999999999836
 40
0.8749999999999836
 40
1.0
 40
1.0
 40
1.0
 40
1.0
 10
296.1749660638843
 20
237.642382471407
 30
0.0
 10
296.1813465019662
 20
237.6589642861366
 30
0.0
 10
296.1916514696625
 20
237.6748911592148
 30
0.0
 10
296.2125585975678
 20
237.6978154778197
 30
0.0
 10
296.2204506025527
 20
237.7052929366819
 30
0.0
 10
296.2337543799913
 20
237.7162361786154
 30
0.0
 10
296.2384369854033
 20
237.719837656493
 30
0.0
 10
296.2481487556932
 20
237.7268283023123
 30
0.0
 10
296.2531955012403
 20
237.7302326043846
 30
0.0
 10
296.2689067356236
 20
237.7401694844098
 30
0.0
 10
296.280138855522
 20
237.7464277569422
 30
0.0
 10
296.298175537526
 20
237.755224779289
 30
0.0
 10
296.3043866505547
 20
237.7580583158516
 30
0.0
 10
296.3172264099004
 20
237.7635152037194
 30
0.0
 10
296.3238846213202
 20
237.7661489464724
 30
0.0
 10
296.3442709971973
 20
237.7736170149704
 30
0.0
 10
296.3583901828895
 20
237.7780222361881
 30
0.0
 10
296.3877248730133
 20
237.7856223322734
 30
0.0
 10
296.4029393884416
 20
237.788818343963
 30
0.0
 10
296.4187660392707
 20
237.791330137314
 30
0.0
  0
SPLINE
  5
19E
330
1F
100
AcDbEntity
  8
1
100
AcDbSpline
210
0.0
220
0.0
230
1.0
 70
     8
 71
     3
 72
     8
 73
     4
 74
     0
 42
0.000000001
 43
0.0000000001
 40
0.0
 40
0.0
 40
0.0
 40
0.0
 40
1.0
 40
1.0
 40
1.0
 40
1.0
 10
291.4200785939253
 20
245.9610519684309
 30
0.0
 10
291.4694882848128
 20
245.9523495038146
 30
0.0
 10
291.5189374359177
 20
245.9439546264839
 30
0.0
 10
291.5684261386666
 20
245.9358689027998
 30
0.0
  0
SPLINE
  5
19F
330
1F
100
AcDbEntity
  8
1
100
AcDbSpline
210
0.0
220
0.0
230
1.0
 70
     8
 71
     3
 72
     8
 73
     4
 74
     0
 42
0.000000001
 43
0.0000000001
 40
0.0
 40
0.0
 40
0.0
 40
0.0
 40
1.0
 40
1.0
 40
1.0
 40
1.0
 10
291.4200785939253
 20
236.9859465294658
 30
0.0
 10
291.4695282810762
 20
236.9852258819259
 30
0.0
 10
291.5189774624959
 20
236.9841499274418
 30
0.0
 10
291.5684261386667
 20
236.9827190049245
 30
0.0
  0
LINE
  5
1A0
330
1F
100
AcDbEntity
  8
4
100
AcDbLine
 10
303.144248
 20
243.731161
 30
0.0
 11
229.244248
 21
243.731161
 31
0.0
  0
LINE
  5
1A1
330
1F
100
AcDbEntity
  8
SK4
100
AcDbLine
 10
155.144248
 20
243.731161
 30
0.0
 11
240.144248
 21
243.731161
 31
0.0
  0
MTEXT
  5
1A2
330
1F
100
AcDbEntity
  8
SK6
100
AcDbMText
 10
192.513213
 20
212.002455
 30
0.0
 40
3.5
 41
0.0
 71
     7
 72
     5
  1
\W0.7493;16E2R065A16-SZD07
  7
cesky
 73
     2
 44
0.8433729999999998
  0
MTEXT
  5
29B
330
1F
100
AcDbEntity
  8
2
100
AcDbMText
 10
267.829748
 20
276.518751
 30
0.0
 40
3.5
 41
0.0
 71
     7
 72
     5
  1
\W0.7045;65
  7
cesky
 73
     2
 44
0.8433729999999998
  0
LINE
  5
29C
330
1F
100
AcDbEntity
  8
2
100
AcDbLine
 10
237.144248
 20
243.731161
 30
0.0
 11
237.144248
 21
277.644584
 31
0.0
  0
LINE
  5
29D
330
1F
100
AcDbEntity
  8
2
100
AcDbLine
 10
302.144248
 20
253.731161
 30
0.0
 11
302.144248
 21
277.644584
 31
0.0
  0
LINE
  5
29E
330
1F
100
AcDbEntity
  8
2
100
AcDbLine
 10
237.144248
 20
276.644584
 30
0.0
 11
302.144248
 21
276.644584
 31
0.0
  0
SOLID
  5
29F
330
1F
100
AcDbEntity
  8
2
100
AcDbTrace
 10
237.144248
 20
276.644584
 30
0.0
 11
240.644246
 21
277.261729
 31
0.0
 12
240.644251
 22
276.02744
 32
0.0
 13
240.644251
 23
276.02744
 33
0.0
  0
SOLID
  5
2A0
330
1F
100
AcDbEntity
  8
2
100
AcDbTrace
 10
302.144248
 20
276.644584
 30
0.0
 11
298.644251
 21
276.02744
 31
0.0
 12
298.644246
 22
277.261729
 32
0.0
 13
298.644246
 23
277.261729
 33
0.0
  0
MTEXT
  5
2A1
330
1F
100
AcDbEntity
  8
2
100
AcDbMText
 10
293.339652
 20
260.082815
 30
0.0
 40
3.5
 41
0.0
 71
     7
 72
     5
  1
\W1.7063;1
  7
cesky
 73
     2
 44
0.8433729999999998
  0
LINE
  5
2A2
330
1F
100
AcDbEntity
  8
2
100
AcDbLine
 10
302.144248
 20
253.731161
 30
0.0
 11
302.144248
 21
261.208648
 31
0.0
  0
LINE
  5
2A3
330
1F
100
AcDbEntity
  8
2
100
AcDbLine
 10
301.129152
 20
251.436772
 30
0.0
 11
301.129152
 21
261.208648
 31
0.0
  0
LINE
  5
2A4
330
1F
100
AcDbEntity
  8
2
100
AcDbLine
 10
293.154152
 20
260.208648
 30
0.0
 11
310.894248
 21
260.208648
 31
0.0
  0
SOLID
  5
2A5
330
1F
100
AcDbEntity
  8
2
100
AcDbTrace
 10
302.144248
 20
260.208648
 30
0.0
 11
305.644246
 21
260.825792
 31
0.0
 12
305.644251
 22
259.591504
 32
0.0
 13
305.644251
 23
259.591504
 33
0.0
  0
SOLID
  5
2A6
330
1F
100
AcDbEntity
  8
2
100
AcDbTrace
 10
301.129152
 20
260.208648
 30
0.0
 11
297.629154
 21
259.591504
 31
0.0
 12
297.62915
 22
260.825792
 32
0.0
 13
297.62915
 23
260.825792
 33
0.0
  0
MTEXT
  5
2A7
330
1F
100
AcDbEntity
  8
2
100
AcDbMText
 10
313.105985
 20
243.259304
 30
0.0
 40
3.5
 41
0.0
 71
     7
 72
     5
  1
\W0.8260;16
  7
cesky
 11
0.0000000000000001
 21
1.0
 31
0.0
 73
     2
 44
0.8433729999999998
  0
MTEXT
  5
2A8
330
1F
100
AcDbEntity
  8
2
100
AcDbMText
 10
313.105985
 20
236.521804
 30
0.0
 40
3.5
 41
0.0
 71
     7
 72
     5
  1
\W3.0115;\H2.63;%%c\H3.50;
  7
cesky
 11
0.0000000000000001
 21
1.0
 31
0.0
 73
     2
 44
0.8433729999999998
  0
LINE
  5
2A9
330
1F
100
AcDbEntity
  8
2
100
AcDbLine
 10
304.144248
 20
251.731161
 30
0.0
 11
314.293402
 21
251.731161
 31
0.0
  0
LINE
  5
2AA
330
1F
100
AcDbEntity
  8
2
100
AcDbLine
 10
313.293402
 20
251.731161
 30
0.0
 11
313.293402
 21
236.364304
 31
0.0
  0
SOLID
  5
2AB
330
1F
100
AcDbEntity
  8
2
100
AcDbTrace
 10
313.293402
 20
251.731161
 30
0.0
 11
313.910546
 21
248.231164
 31
0.0
 12
312.676257
 22
248.231159
 32
0.0
 13
312.676257
 23
248.231159
 33
0.0
  0
MTEXT
  5
2AC
330
1F
100
AcDbEntity
  8
SK2
100
AcDbMText
 10
226.567248
 20
299.059456
 30
0.0
 40
3.5
 41
0.0
 71
     7
 72
     5
  1
\W0.7809;145
  7
cesky
 73
     2
 44
0.8433729999999998
  0
LINE
  5
2AD
330
1F
100
AcDbEntity
  8
SK2
100
AcDbLine
 10
157.144248
 20
250.731161
 30
0.0
 11
157.144248
 21
300.185289
 31
0.0
  0
LINE
  5
2AE
330
1F
100
AcDbEntity
  8
SK2
100
AcDbLine
 10
302.144248
 20
253.731161
 30
0.0
 11
302.144248
 21
300.185289
 31
0.0
  0
LINE
  5
2AF
330
1F
100
AcDbEntity
  8
SK2
100
AcDbLine
 10
157.144248
 20
299.185289
 30
0.0
 11
302.144248
 21
299.185289
 31
0.0
  0
SOLID
  5
2B0
330
1F
100
AcDbEntity
  8
SK2
100
AcDbTrace
 10
157.144248
 20
299.185289
 30
0.0
 11
160.644246
 21
299.802434
 31
0.0
 12
160.644251
 22
298.568145
 32
0.0
 13
160.644251
 23
298.568145
 33
0.0
  0
SOLID
  5
2B1
330
1F
100
AcDbEntity
  8
SK2
100
AcDbTrace
 10
302.144248
 20
299.185289
 30
0.0
 11
298.644251
 21
298.568145
 31
0.0
 12
298.644246
 22
299.802434
 32
0.0
 13
298.644246
 23
299.802434
 33
0.0
  0
MTEXT
  5
2B2
330
1F
100
AcDbEntity
  8
SK2
100
AcDbMText
 10
251.829748
 20
285.667092
 30
0.0
 40
3.5
 41
0.0
 71
     7
 72
     5
  1
\W0.7045;97
  7
cesky
 73
     2
 44
0.8433729999999998
  0
LINE
  5
2B3
330
1F
100
AcDbEntity
  8
SK2
100
AcDbLine
 10
302.144248
 20
253.731161
 30
0.0
 11
302.144248
 21
286.792925
 31
0.0
  0
LINE
  5
2B4
330
1F
100
AcDbEntity
  8
SK2
100
AcDbLine
 10
205.144248
 20
244.730735
 30
0.0
 11
205.144248
 21
286.792925
 31
0.0
  0
LINE
  5
2B5
330
1F
100
AcDbEntity
  8
SK2
100
AcDbLine
 10
302.144248
 20
285.792925
 30
0.0
 11
205.144248
 21
285.792925
 31
0.0
  0
SOLID
  5
2B6
330
1F
100
AcDbEntity
  8
SK2
100
AcDbTrace
 10
302.144248
 20
285.792925
 30
0.0
 11
298.644251
 21
285.17578
 31
0.0
 12
298.644246
 22
286.410069
 32
0.0
 13
298.644246
 23
286.410069
 33
0.0
  0
SOLID
  5
2B7
330
1F
100
AcDbEntity
  8
SK2
100
AcDbTrace
 10
205.144248
 20
285.792925
 30
0.0
 11
208.644246
 21
286.410069
 31
0.0
 12
208.644251
 22
285.17578
 32
0.0
 13
208.644251
 23
285.17578
 33
0.0
  0
MTEXT
  5
2B8
330
1F
100
AcDbEntity
  8
SK2
100
AcDbMText
 10
146.989238
 20
245.257411
 30
0.0
 40
3.5
 41
0.0
 71
     7
 72
     5
  1
\W0.8260;16
  7
cesky
 11
0.0000000000000001
 21
1.0
 31
0.0
 73
     2
 44
0.8433729999999998
  0
MTEXT
  5
2B9
330
1F
100
AcDbEntity
  8
SK2
100
AcDbMText
 10
146.989238
 20
238.519911
 30
0.0
 40
3.5
 41
0.0
 71
     7
 72
     5
  1
\W3.0115;\H2.63;%%c\H3.50;
  7
cesky
 11
0.0000000000000001
 21
1.0
 31
0.0
 73
     2
 44
0.8433729999999998
  0
LINE
  5
2BA
330
1F
100
AcDbEntity
  8
SK2
100
AcDbLine
 10
158.144248
 20
251.731161
 30
0.0
 11
146.176654
 21
251.731161
 31
0.0
  0
LINE
  5
2BB
330
1F
100
AcDbEntity
  8
SK2
100
AcDbLine
 10
158.144248
 20
235.731161
 30
0.0
 11
146.176654
 21
235.731161
 31
0.0
  0
LINE
  5
2BC
330
1F
100
AcDbEntity
  8
SK2
100
AcDbLine
 10
147.176654
 20
260.481161
 30
0.0
 11
147.176654
 21
226.981161
 31
0.0
  0
SOLID
  5
2BD
330
1F
100
AcDbEntity
  8
SK2
100
AcDbTrace
 10
147.176654
 20
251.731161
 30
0.0
 11
146.55951
 21
255.231159
 31
0.0
 12
147.793799
 22
255.231164
 32
0.0
 13
147.793799
 23
255.231164
 33
0.0
  0
SOLID
  5
2BE
330
1F
100
AcDbEntity
  8
SK2
100
AcDbTrace
 10
147.176654
 20
235.731161
 30
0.0
 11
147.793799
 21
232.231164
 31
0.0
 12
146.55951
 22
232.231159
 32
0.0
 13
146.55951
 23
232.231159
 33
0.0
  0
LINE
  5
2D7
330
1F
100
AcDbEntity
  8
CUT
100
AcDbLine
 10
300.1318047838412
 20
251.7311326500107
 30
0.0
 11
300.1318047838412
 21
251.7311326500107
 31
0.0
  0
ARC
  5
2D8
330
1F
100
AcDbEntity
  8
CUT
100
AcDbCircle
 10
300.13975961944
 20
246.7789314205066
 30
0.0
 40
4.952207618518404
100
AcDbArc
 50
82.157301996761
 51
90.09203545926329
  0
LINE
  5
2D9
330
1F
100
AcDbEntity
  8
CUT
100
AcDbLine
 10
299.1431660853148
 20
251.6590623177831
 30
0.0
 11
299.1431660853148
 21
251.6590623177831
 31
0.0
  0
ARC
  5
2DA
330
1F
100
AcDbEntity
  8
CUT
100
AcDbCircle
 10
300.1432113890445
 20
244.7577040519404
 30
0.0
 40
6.973437927093578
100
AcDbArc
 50
90.09372000367591
 51
98.24508853964466
  0
LINE
  5
2DB
330
1F
100
AcDbEntity
  8
CUT
100
AcDbLine
 10
300.8155082678384
 20
251.684821483723
 30
0.0
 11
300.8155082678384
 21
251.684821483723
 31
0.0
  0
ARC
  5
2DC
330
1F
100
AcDbEntity
  8
CUT
100
AcDbCircle
 10
300.7570786821917
 20
251.2607231505514
 30
0.0
 40
0.4281044413198711
100
AcDbArc
 50
81.15964555945183
 51
82.15553462983212
  0
LINE
  5
2DD
330
1F
100
AcDbEntity
  8
CUT
100
AcDbLine
 10
295.2133889186108
 20
248.7298934758632
 30
0.0
 11
295.2133889186108
 21
248.7298934758632
 31
0.0
  0
ARC
  5
2DE
330
1F
100
AcDbEntity
  8
CUT
100
AcDbCircle
 10
302.1317634562495
 20
249.7234655903037
 30
0.0
 40
6.989355606180073
100
AcDbArc
 50
180.0018293731866
 51
188.1725682778403
  0
LINE
  5
2DF
330
1F
100
AcDbEntity
  8
CUT
100
AcDbLine
 10
295.4433795553076
 20
250.7248883309621
 30
0.0
 11
295.4433795553076
 21
250.7248883309621
 31
0.0
  0
ARC
  5
2E0
330
1F
100
AcDbEntity
  8
CUT
100
AcDbCircle
 10
301.8017130144398
 20
233.3363439999089
 30
0.0
 40
18.51458555654216
100
AcDbArc
 50
98.25575527372192
 51
110.0855560349179
  0
ARC
  5
2E1
330
1F
100
AcDbEntity
  8
CUT
100
AcDbCircle
 10
301.7674221332977
 20
246.0780218052026
 30
0.0
 40
0.3385692291195681
100
AcDbArc
 50
351.1824845190119
 51
352.1272217680769
  0
ARC
  5
2E2
330
1F
100
AcDbEntity
  8
CUT
100
AcDbCircle
 10
301.619656721719
 20
246.1006150247086
 30
0.0
 40
0.48805166086332
100
AcDbArc
 50
351.0021147508039
 51
351.2205741405754
  0
ARC
  5
2E3
330
1F
100
AcDbEntity
  8
CUT
100
AcDbCircle
 10
300.3956694315399
 20
249.7181829181949
 30
0.0
 40
5.253264014361327
100
AcDbArc
 50
174.7793614330388
 51
179.9448174086296
  0
ARC
  5
2E4
330
1F
100
AcDbEntity
  8
CUT
100
AcDbCircle
 10
299.1172049407783
 20
249.8236948658956
 30
0.0
 40
3.97051827637764
100
AcDbArc
 50
172.1323257117884
 51
174.6169496274494
  0
ARC
  5
2E5
330
1F
100
AcDbEntity
  8
CUT
100
AcDbCircle
 10
302.3964602315407
 20
249.3933626474075
 30
0.0
 40
7.277846864039642
100
AcDbArc
 50
171.9713619123675
 51
172.3102606235479
  0
ARC
  5
2E6
330
1F
100
AcDbEntity
  8
CUT
100
AcDbCircle
 10
296.5490229421831
 20
245.2042872886175
 30
0.0
 40
0.4211232998832207
100
AcDbArc
 50
211.3019487407383
 51
259.1633749554716
  0
ARC
  5
2E7
330
1F
100
AcDbEntity
  8
CUT
100
AcDbCircle
 10
296.5165433735564
 20
245.1809300947326
 30
0.0
 40
0.3812486950007707
100
AcDbArc
 50
202.2054936847232
 51
210.8386695065137
  0
ARC
  5
2E8
330
1F
100
AcDbEntity
  8
CUT
100
AcDbCircle
 10
295.5600039596622
 20
250.3588370477944
 30
0.0
 40
0.3735762795572961
100
AcDbArc
 50
171.2923672145366
 51
172.1518375270159
  0
ARC
  5
2E9
330
1F
100
AcDbEntity
  8
CUT
100
AcDbCircle
 10
295.7227494400545
 20
250.3342399412231
 30
0.0
 40
0.5381698267753693
100
AcDbArc
 50
171.1280824684522
 51
171.3269523072926
  0
LINE
  5
2EA
330
1F
100
AcDbEntity
  8
CUT
100
AcDbLine
 10
296.4772150709177
 20
244.7892571438842
 30
0.0
 11
296.4772150709177
 21
244.7892571438842
 31
0.0
  0
ARC
  5
2EB
330
1F
100
AcDbEntity
  8
CUT
100
AcDbCircle
 10
296.5792481597911
 20
245.3397472382757
 30
0.0
 40
0.559866140473082
100
AcDbArc
 50
258.7316559861359
 51
259.4994183354975
  0
LINE
  5
2EC
330
1F
100
AcDbEntity
  8
CUT
100
AcDbLine
 10
300.8228705540994
 20
251.6837418762228
 30
0.0
 11
300.8228705540994
 21
251.6837418762228
 31
0.0
  0
ARC
  5
2ED
330
1F
100
AcDbEntity
  8
CUT
100
AcDbCircle
 10
300.7596893890932
 20
251.2919842753945
 30
0.0
 40
0.3968197039189027
100
AcDbArc
 50
21.3995439461779
 51
80.83844333966702
  0
LINE
  5
2EE
330
1F
100
AcDbEntity
  8
CUT
100
AcDbLine
 10
301.1316639433018
 20
251.4301759561244
 30
0.0
 11
301.1316639433018
 21
251.4301759561244
 31
0.0
  0
ARC
  5
2EF
330
1F
100
AcDbEntity
  8
CUT
100
AcDbCircle
 10
284.1802621814872
 20
245.1329565324117
 30
0.0
 40
18.08327940836054
100
AcDbArc
 50
8.18498445618305
 51
20.37935930284062
  0
ARC
  5
2F0
330
1F
100
AcDbEntity
  8
CUT
100
AcDbCircle
 10
295.6817282635496
 20
261.2356585957163
 30
0.0
 40
16.70502583995948
100
AcDbArc
 50
285.9113753551434
 51
291.6667423305228
  0
ARC
  5
2F1
330
1F
100
AcDbEntity
  8
CUT
100
AcDbCircle
 10
296.509952902658
 20
258.266104919638
 30
0.0
 40
13.62219844302593
100
AcDbArc
 50
276.9130481096858
 51
285.9854475149079
  0
LINE
  5
2F2
330
1F
100
AcDbEntity
  8
CUT
100
AcDbLine
 10
297.1609217692636
 20
244.7095032436283
 30
0.0
 11
297.1609217692636
 21
244.7095032436283
 31
0.0
  0
ARC
  5
2F3
330
1F
100
AcDbEntity
  8
CUT
100
AcDbCircle
 10
297.3999951454178
 20
249.7284087684172
 30
0.0
 40
5.024596376420946
100
AcDbArc
 50
259.417451552831
 51
267.2728019981178
  0
LINE
  5
2F4
330
1F
100
AcDbEntity
  8
CUT
100
AcDbLine
 10
295.1910185055197
 20
250.4172397948982
 30
0.0
 11
295.1910185055197
 21
250.4172397948982
 31
0.0
  0
ARC
  5
2F5
330
1F
100
AcDbEntity
  8
CUT
100
AcDbCircle
 10
295.5798916457782
 20
250.3556254474923
 30
0.0
 40
0.3937240747284981
100
AcDbArc
 50
111.3057599795126
 51
170.9967096041276
  0
LINE
  5
2F6
330
1F
100
AcDbEntity
  8
CUT
100
AcDbLine
 10
296.1635702350357
 20
245.0368449430943
 30
0.0
 11
296.1635702350357
 21
245.0368449430943
 31
0.0
  0
ARC
  5
2F7
330
1F
100
AcDbEntity
  8
CUT
100
AcDbCircle
 10
296.5875017909031
 20
245.2089509925459
 30
0.0
 40
0.4575351968078297
100
AcDbArc
 50
201.2461419357006
 51
202.0959733414009
  0
LINE
  5
2F8
330
1F
100
AcDbEntity
  8
CUT
100
AcDbLine
 10
302.079337634494
 20
247.7074646579387
 30
0.0
 11
302.079337634494
 21
247.7074646579387
 31
0.0
  0
ARC
  5
2F9
330
1F
100
AcDbEntity
  8
CUT
100
AcDbCircle
 10
295.1811705274891
 20
246.715337014781
 30
0.0
 40
6.969148204514137
100
AcDbArc
 50
0.0055359567927155
 51
8.184429923142324
  0
LINE
  5
2FA
330
1F
100
AcDbEntity
  8
CUT
100
AcDbLine
 10
295.4368340143201
 20
250.7224403341891
 30
0.0
 11
295.4368340143201
 21
250.7224403341891
 31
0.0
  0
ARC
  5
2FB
330
1F
100
AcDbEntity
  8
CUT
100
AcDbCircle
 10
295.5892303252446
 20
250.3257427171253
 30
0.0
 40
0.4249630983596863
100
AcDbArc
 50
110.0726793025086
 51
111.0148983761187
  0
LINE
  5
2FC
330
1F
100
AcDbEntity
  8
CUT
100
AcDbLine
 10
298.1495604677899
 20
244.7429404433203
 30
0.0
 11
298.1495604677899
 21
244.7429404433203
 31
0.0
  0
ARC
  5
2FD
330
1F
100
AcDbEntity
  8
CUT
100
AcDbCircle
 10
297.4526327903585
 20
250.7167484340976
 30
0.0
 40
6.014323744050059
100
AcDbArc
 50
267.2199084638238
 51
276.6542680826263
  0
ARC
  5
2FE
330
1F
100
AcDbEntity
  8
CUT
100
AcDbCircle
 10
296.9320092149796
 20
246.7209409949805
 30
0.0
 40
5.218311813884764
100
AcDbArc
 50
354.7626538214814
 51
359.945863037179
  0
ARC
  5
2FF
330
1F
100
AcDbEntity
  8
CUT
100
AcDbCircle
 10
298.204881589196
 20
246.6155766433159
 30
0.0
 40
3.941151804381394
100
AcDbArc
 50
352.1038824690919
 51
354.5988780550152
  0
ARC
  5
300
330
1F
100
AcDbEntity
  8
CUT
100
AcDbCircle
 10
294.9855294920673
 20
247.0395840761486
 30
0.0
 40
7.188264073654403
100
AcDbArc
 50
351.9394572088675
 51
352.2814627349689
  0
LINE
  5
301
330
1F
100
AcDbEntity
  8
CUT
100
AcDbLine
 10
301.1291518347428
 20
251.4367716321385
 30
0.0
 11
301.1291518347428
 21
251.4367716321385
 31
0.0
  0
ARC
  5
302
330
1F
100
AcDbEntity
  8
CUT
100
AcDbCircle
 10
300.7365202560964
 20
251.2834067923952
 30
0.0
 40
0.4215214474019346
100
AcDbArc
 50
20.3766379627139
 51
21.33598940101026
  0
LINE
  5
303
330
1F
100
AcDbEntity
  8
CUT
100
AcDbLine
 10
301.8558873601654
 20
245.7135431577502
 30
0.0
 11
301.8558873601654
 21
245.7135431577502
 31
0.0
  0
ARC
  5
304
330
1F
100
AcDbEntity
  8
CUT
100
AcDbCircle
 10
301.6966211998719
 20
246.0963440826172
 30
0.0
 40
0.4146109717477494
100
AcDbArc
 50
291.6147732560589
 51
292.5899868375745
  0
ARC
  5
305
330
1F
100
AcDbEntity
  8
CUT
100
AcDbCircle
 10
310.4509697056054
 20
250.5657146080731
 30
0.0
 40
15.31992094760158
100
AcDbArc
 50
195.7803864523187
 51
201.12982371537
  0
ARC
  5
306
330
1F
100
AcDbEntity
  8
CUT
100
AcDbCircle
 10
312.7641092264884
 20
251.2403434047235
 30
0.0
 40
17.72935819962648
100
AcDbArc
 50
188.1403531666189
 51
195.845480981023
  0
LINE
  5
307
330
1F
100
AcDbEntity
  8
CUT
100
AcDbLine
 10
302.1017024743934
 20
246.0242847161798
 30
0.0
 11
302.1017024743934
 21
246.0242847161798
 31
0.0
  0
ARC
  5
308
330
1F
100
AcDbEntity
  8
CUT
100
AcDbCircle
 10
301.6980235346624
 20
246.0910208538471
 30
0.0
 40
0.4091581582383817
100
AcDbArc
 50
292.6950243647305
 51
350.6127760351747
  0
ENDSEC
  0
SECTION
  2
OBJECTS
  0
DICTIONARY
  5
C
330
0
100
AcDbDictionary
281
     1
  3
ACAD_CIP_PREVIOUS_PRODUCT_INFO
350
298
  3
ACAD_COLOR
350
293
  3
ACAD_DETAILVIEWSTYLE
350
28F
  3
ACAD_GROUP
350
D
  3
ACAD_LAYOUT
350
1A
  3
ACAD_MATERIAL
350
43
  3
ACAD_MLEADERSTYLE
350
6B
  3
ACAD_MLINESTYLE
350
17
  3
ACAD_PLOTSETTINGS
350
19
  3
ACAD_PLOTSTYLENAME
350
E
  3
ACAD_SCALELIST
350
47
  3
ACAD_SECTIONVIEWSTYLE
350
290
  3
ACAD_TABLESTYLE
350
69
  3
ACAD_VISUALSTYLE
350
2A
  3
ACDB_RECOMPOSE_DATA
350
334
  3
AcDbVariableDictionary
350
24C
  0
DICTIONARY
  5
317
330
10
100
AcDbDictionary
280
     1
281
     1
  3
ADSK_XREC_LAYER_RECONCILED
360
318
  0
DICTIONARY
  5
319
330
309
100
AcDbDictionary
280
     1
281
     1
  3
ADSK_XREC_LAYER_RECONCILED
360
31A
  0
DICTIONARY
  5
31B
330
30A
100
AcDbDictionary
280
     1
281
     1
  3
ADSK_XREC_LAYER_RECONCILED
360
31C
  0
DICTIONARY
  5
31D
330
30B
100
AcDbDictionary
280
     1
281
     1
  3
ADSK_XREC_LAYER_RECONCILED
360
31E
  0
DICTIONARY
  5
31F
330
30D
100
AcDbDictionary
280
     1
281
     1
  3
ADSK_XREC_LAYER_RECONCILED
360
320
  0
DICTIONARY
  5
321
330
30E
100
AcDbDictionary
280
     1
281
     1
  3
ADSK_XREC_LAYER_RECONCILED
360
322
  0
DICTIONARY
  5
323
330
310
100
AcDbDictionary
280
     1
281
     1
  3
ADSK_XREC_LAYER_RECONCILED
360
324
  0
DICTIONARY
  5
325
330
311
100
AcDbDictionary
280
     1
281
     1
  3
ADSK_XREC_LAYER_RECONCILED
360
326
  0
DICTIONARY
  5
327
330
312
100
AcDbDictionary
280
     1
281
     1
  3
ADSK_XREC_LAYER_RECONCILED
360
328
  0
DICTIONARY
  5
329
330
313
100
AcDbDictionary
280
     1
281
     1
  3
ADSK_XREC_LAYER_RECONCILED
360
32A
  0
DICTIONARY
  5
32B
330
314
100
AcDbDictionary
280
     1
281
     1
  3
ADSK_XREC_LAYER_RECONCILED
360
32C
  0
DICTIONARY
  5
32D
330
315
100
AcDbDictionary
280
     1
281
     1
  3
ADSK_XREC_LAYER_RECONCILED
360
32E
  0
DICTIONARY
  5
299
330
1F
100
AcDbDictionary
280
     1
281
     1
  3
ACAD_SORTENTS
360
29A
  0
XRECORD
  5
298
102
{ACAD_REACTORS
330
C
102
}
330
C
100
AcDbXrecord
280
     1
300
ACD
300
2019
300
87084ACD_2019_0F
  0
DICTIONARY
  5
293
102
{ACAD_REACTORS
330
C
102
}
330
C
100
AcDbDictionary
281
     1
  0
DICTIONARY
  5
28F
102
{ACAD_REACTORS
330
C
102
}
330
C
100
AcDbDictionary
281
     1
  3
Metric50
350
295
  0
DICTIONARY
  5
D
102
{ACAD_REACTORS
330
C
102
}
330
C
100
AcDbDictionary
281
     1
  3
NULOVY_BOD
350
316
  0
DICTIONARY
  5
1A
102
{ACAD_REACTORS
330
C
102
}
330
C
100
AcDbDictionary
281
     1
  3
Layout1
350
1E
  3
Layout2
350
26
  3
Model
350
22
  0
DICTIONARY
  5
43
102
{ACAD_REACTORS
330
C
102
}
330
C
100
AcDbDictionary
281
     1
  3
ByBlock
350
45
  3
ByLayer
350
44
  3
Global
350
46
  0
DICTIONARY
  5
6B
102
{ACAD_REACTORS
330
C
102
}
330
C
100
AcDbDictionary
281
     1
  3
Standard
350
6C
  0
DICTIONARY
  5
17
102
{ACAD_REACTORS
330
C
102
}
330
C
100
AcDbDictionary
281
     1
  3
Standard
350
18
  0
DICTIONARY
  5
19
102
{ACAD_REACTORS
330
C
102
}
330
C
100
AcDbDictionary
281
     1
  0
ACDBDICTIONARYWDFLT
  5
E
102
{ACAD_REACTORS
330
C
102
}
330
C
100
AcDbDictionary
281
     1
  3
Normal
350
F
100
AcDbDictionaryWithDefault
340
F
  0
DICTIONARY
  5
47
102
{ACAD_REACTORS
330
C
102
}
330
C
100
AcDbDictionary
281
     1
  3
A0
350
48
  3
A1
350
49
  3
A2
350
4A
  3
A3
350
4B
  3
A4
350
4C
  3
A5
350
4D
  3
A6
350
4E
  3
A7
350
4F
  3
A8
350
50
  3
A9
350
51
  3
B0
350
52
  3
B1
350
53
  3
B2
350
54
  3
B3
350
55
  3
B4
350
56
  3
B5
350
57
  3
B6
350
58
  3
B7
350
59
  3
B8
350
5A
  3
B9
350
5B
  3
C0
350
5C
  3
C1
350
5D
  3
C2
350
5E
  3
C3
350
5F
  3
C4
350
60
  3
C5
350
61
  3
C6
350
62
  3
C7
350
63
  3
C8
350
64
  3
C9
350
65
  3
D0
350
66
  3
D1
350
67
  3
D2
350
68
  0
DICTIONARY
  5
290
102
{ACAD_REACTORS
330
C
102
}
330
C
100
AcDbDictionary
281
     1
  3
Metric50
350
294
  0
DICTIONARY
  5
69
102
{ACAD_REACTORS
330
C
102
}
330
C
100
AcDbDictionary
281
     1
  3
Standard
350
6A
  0
DICTIONARY
  5
2A
102
{ACAD_REACTORS
330
C
102
}
330
C
100
AcDbDictionary
281
     1
  3
2dWireframe
350
2F
  3
Basic
350
32
  3
Brighten
350
36
  3
ColorChange
350
3A
  3
Conceptual
350
34
  3
Dim
350
35
  3
EdgeColorOff
350
3D
  3
Facepattern
350
39
  3
Flat
350
2B
  3
FlatWithEdges
350
2C
  3
Gouraud
350
2D
  3
GouraudWithEdges
350
2E
  3
Hidden
350
31
  3
JitterOff
350
3B
  3
Linepattern
350
38
  3
OverhangOff
350
3C
  3
Realistic
350
33
  3
Shaded
350
42
  3
Shaded with edges
350
41
  3
Shades of Gray
350
3E
  3
Sketchy
350
3F
  3
Thicken
350
37
  3
Wireframe
350
30
  3
X-Ray
350
40
  0
XRECORD
  5
334
102
{ACAD_REACTORS
330
C
102
}
330
C
100
AcDbXrecord
280
     1
 90
        1
330
6A
  0
DICTIONARY
  5
24C
102
{ACAD_REACTORS
330
C
102
}
330
C
100
AcDbDictionary
281
     1
  3
CANNOSCALE
350
24D
  3
CMLEADERSTYLE
350
28E
  3
CTABLESTYLE
350
28D
  3
CVIEWDETAILSTYLE
350
32F
  3
CVIEWSECTIONSTYLE
350
330
  3
MSLTSCALE
350
24E
  3
XCLIPFRAME
350
331
  0
XRECORD
  5
318
102
{ACAD_REACTORS
330
317
102
}
330
317
100
AcDbXrecord
280
     1
290
     1
  0
XRECORD
  5
31A
102
{ACAD_REACTORS
330
319
102
}
330
319
100
AcDbXrecord
280
     1
290
     1
  0
XRECORD
  5
31C
102
{ACAD_REACTORS
330
31B
102
}
330
31B
100
AcDbXrecord
280
     1
290
     1
  0
XRECORD
  5
31E
102
{ACAD_REACTORS
330
31D
102
}
330
31D
100
AcDbXrecord
280
     1
290
     1
  0
XRECORD
  5
320
102
{ACAD_REACTORS
330
31F
102
}
330
31F
100
AcDbXrecord
280
     1
290
     1
  0
XRECORD
  5
322
102
{ACAD_REACTORS
330
321
102
}
330
321
100
AcDbXrecord
280
     1
290
     1
  0
XRECORD
  5
324
102
{ACAD_REACTORS
330
323
102
}
330
323
100
AcDbXrecord
280
     1
290
     1
  0
XRECORD
  5
326
102
{ACAD_REACTORS
330
325
102
}
330
325
100
AcDbXrecord
280
     1
290
     1
  0
XRECORD
  5
328
102
{ACAD_REACTORS
330
327
102
}
330
327
100
AcDbXrecord
280
     1
290
     1
  0
XRECORD
  5
32A
102
{ACAD_REACTORS
330
329
102
}
330
329
100
AcDbXrecord
280
     1
290
     1
  0
XRECORD
  5
32C
102
{ACAD_REACTORS
330
32B
102
}
330
32B
100
AcDbXrecord
280
     1
290
     1
  0
XRECORD
  5
32E
102
{ACAD_REACTORS
330
32D
102
}
330
32D
100
AcDbXrecord
280
     1
290
     1
  0
SORTENTSTABLE
  5
29A
102
{ACAD_REACTORS
330
299
102
}
330
299
100
AcDbSortentsTable
330
1F
331
29B
  5
1BF
331
29C
  5
1D7
331
29D
  5
21F
331
29E
  5
29B
331
29F
  5
29C
331
2A0
  5
29D
331
2A1
  5
2AD
331
2A2
  5
2AE
331
2A3
  5
2AF
331
2A4
  5
2B0
331
2A5
  5
2B1
331
2A6
  5
2B2
331
2A7
  5
2B3
331
2A8
  5
2B4
331
2A9
  5
2B5
331
2AA
  5
2B6
331
2AB
  5
2B7
331
2AC
  5
2A0
331
2AD
  5
2A1
331
2AE
  5
2A2
331
2AF
  5
2A3
331
2B0
  5
2A4
331
2B1
  5
2A5
331
2B2
  5
2A6
331
2B3
  5
2A7
331
2B4
  5
2A8
331
2B5
  5
2A9
331
2B6
  5
2AA
331
2B7
  5
2AC
  0
ACDBDETAILVIEWSTYLE
  5
295
102
{ACAD_XDICTIONARY
360
368
102
}
102
{ACAD_REACTORS
330
28F
102
}
330
28F
100
AcDbModelDocViewStyle
 70
     0
  3
Metric50
290
     0
100
AcDbDetailViewStyle
 70
     0
 71
     0
 90
        3
 71
     1
340
11
 62
   256
 40
5.0
340
0
 62
   256
 40
5.0
300

 40
0.0
280
     1
 71
     2
340
16
 90
       25
 62
   256
 71
     3
340
11
 62
   256
 40
5.0
 90
        0
 40
15.0
 90
        1
300
%<\AcVar ViewDetailId>% (%<\AcVar ViewScale \f "%sn">%)
 71
     4
340
16
 90
       25
 62
   256
340
16
 90
       25
 62
   256
280
     0
  0
GROUP
  5
316
102
{ACAD_REACTORS
330
D
102
}
330
D
100
AcDbGroup
300

 70
     0
 71
     1
340
73
  0
LAYOUT
  5
1E
102
{ACAD_REACTORS
330
1A
102
}
330
1A
100
AcDbPlotSettings
  1

  2
none_device
  4

  6

 40
0.0
 41
0.0
 42
0.0
 43
0.0
 44
0.0
 45
0.0
 46
0.0
 47
0.0
 48
0.0
 49
0.0
140
0.0
141
0.0
142
1.0
143
1.0
 70
   688
 72
     0
 73
     0
 74
     5
  7

 75
    16
147
1.0
 76
     0
 77
     2
 78
   300
148
0.0
149
0.0
100
AcDbLayout
  1
Layout1
 70
     1
 71
     1
 10
-0.5
 20
-0.5
 11
5.0
 21
5.0
 12
0.0
 22
0.0
 32
0.0
 14
-0.5
 24
-0.5
 34
-0.5
 15
5.0
 25
5.0
 35
5.0
146
0.0
 13
0.0
 23
0.0
 33
0.0
 16
1.0
 26
0.0
 36
0.0
 17
0.0
 27
1.0
 37
0.0
 76
     0
330
1B
  0
LAYOUT
  5
26
102
{ACAD_REACTORS
330
1A
102
}
330
1A
100
AcDbPlotSettings
  1

  2
none_device
  4

  6

 40
0.0
 41
0.0
 42
0.0
 43
0.0
 44
0.0
 45
0.0
 46
0.0
 47
0.0
 48
0.0
 49
0.0
140
0.0
141
0.0
142
1.0
143
1.0
 70
   688
 72
     0
 73
     0
 74
     5
  7

 75
    16
147
1.0
 76
     0
 77
     2
 78
   300
148
0.0
149
0.0
100
AcDbLayout
  1
Layout2
 70
     1
 71
     2
 10
0.0
 20
0.0
 11
0.0
 21
0.0
 12
0.0
 22
0.0
 32
0.0
 14
0.0
 24
0.0
 34
0.0
 15
0.0
 25
0.0
 35
0.0
146
0.0
 13
0.0
 23
0.0
 33
0.0
 16
1.0
 26
0.0
 36
0.0
 17
0.0
 27
1.0
 37
0.0
 76
     0
330
23
  0
LAYOUT
  5
22
102
{ACAD_REACTORS
330
1A
102
}
330
1A
100
AcDbPlotSettings
  1

  2
none_device
  4
Letter_(8.50_x_11.00_Inches)
  6

 40
6.349999999999999
 41
6.349999999999999
 42
6.350005
 43
6.350005
 44
215.9
 45
279.4
 46
0.0
 47
0.0
 48
0.0
 49
0.0
140
0.0
141
0.0
142
1.0
143
1.0
 70
  1712
 72
     0
 73
     0
 74
     0
  7

 75
     0
147
1.0
 76
     0
 77
     2
 78
   300
148
0.0
149
0.0
100
AcDbLayout
  1
Model
 70
     1
 71
     0
 10
-0.5
 20
-0.5
 11
5.0
 21
5.0
 12
0.0
 22
0.0
 32
0.0
 14
-0.5
 24
-0.5
 34
-0.5
 15
5.0
 25
5.0
 35
5.0
146
0.0
 13
0.0
 23
0.0
 33
0.0
 16
1.0
 26
0.0
 36
0.0
 17
0.0
 27
1.0
 37
0.0
 76
     0
330
1F
331
29
  0
MATERIAL
  5
45
102
{ACAD_XDICTIONARY
360
282
102
}
102
{ACAD_REACTORS
330
43
102
}
330
43
100
AcDbMaterial
  1
ByBlock
  0
MATERIAL
  5
44
102
{ACAD_XDICTIONARY
360
280
102
}
102
{ACAD_REACTORS
330
43
102
}
330
43
100
AcDbMaterial
  1
ByLayer
  0
MATERIAL
  5
46
102
{ACAD_XDICTIONARY
360
284
102
}
102
{ACAD_REACTORS
330
43
102
}
330
43
100
AcDbMaterial
  1
Global
  0
MLEADERSTYLE
  5
6C
102
{ACAD_REACTORS
330
6B
102
}
330
6B
100
AcDbMLeaderStyle
170
     2
171
     1
172
     0
 90
        2
 40
0.0
 41
0.0
173
     1
 91
-1056964608
340
14
 92
       -2
290
     1
 42
0.09
291
     1
 43
0.36
  3
Standard
 44
0.18
300

342
11
174
     1
178
     6
175
     1
176
     0
 93
-1056964608
 45
0.18
292
     0
297
     0
 46
0.18
 94
-1056964608
 47
1.0
 49
1.0
140
1.0
293
     1
141
0.0
294
     1
177
     0
142
1.0
295
     0
296
     0
143
0.125
1001
ACAD_MLEADERVER
1070
     2
  0
MLINESTYLE
  5
18
102
{ACAD_REACTORS
330
17
102
}
330
17
100
AcDbMlineStyle
  2
STANDARD
 70
     0
  3

 62
   256
 51
90.0
 52
90.0
 71
     2
 49
0.5
 62
   256
  6
BYLAYER
 49
-0.5
 62
   256
  6
BYLAYER
  0
ACDBPLACEHOLDER
  5
F
102
{ACAD_REACTORS
330
E
102
}
330
E
  0
SCALE
  5
48
102
{ACAD_REACTORS
330
47
102
}
330
47
100
AcDbScale
 70
     0
300
1:1
140
1.0
141
1.0
290
     1
  0
SCALE
  5
49
102
{ACAD_REACTORS
330
47
102
}
330
47
100
AcDbScale
 70
     0
300
1:2
140
1.0
141
2.0
290
     0
  0
SCALE
  5
4A
102
{ACAD_REACTORS
330
47
102
}
330
47
100
AcDbScale
 70
     0
300
1:4
140
1.0
141
4.0
290
     0
  0
SCALE
  5
4B
102
{ACAD_REACTORS
330
47
102
}
330
47
100
AcDbScale
 70
     0
300
1:5
140
1.0
141
5.0
290
     0
  0
SCALE
  5
4C
102
{ACAD_REACTORS
330
47
102
}
330
47
100
AcDbScale
 70
     0
300
1:8
140
1.0
141
8.0
290
     0
  0
SCALE
  5
4D
102
{ACAD_REACTORS
330
47
102
}
330
47
100
AcDbScale
 70
     0
300
1:10
140
1.0
141
10.0
290
     0
  0
SCALE
  5
4E
102
{ACAD_REACTORS
330
47
102
}
330
47
100
AcDbScale
 70
     0
300
1:16
140
1.0
141
16.0
290
     0
  0
SCALE
  5
4F
102
{ACAD_REACTORS
330
47
102
}
330
47
100
AcDbScale
 70
     0
300
1:20
140
1.0
141
20.0
290
     0
  0
SCALE
  5
50
102
{ACAD_REACTORS
330
47
102
}
330
47
100
AcDbScale
 70
     0
300
1:30
140
1.0
141
30.0
290
     0
  0
SCALE
  5
51
102
{ACAD_REACTORS
330
47
102
}
330
47
100
AcDbScale
 70
     0
300
1:40
140
1.0
141
40.0
290
     0
  0
SCALE
  5
52
102
{ACAD_REACTORS
330
47
102
}
330
47
100
AcDbScale
 70
     0
300
1:50
140
1.0
141
50.0
290
     0
  0
SCALE
  5
53
102
{ACAD_REACTORS
330
47
102
}
330
47
100
AcDbScale
 70
     0
300
1:100
140
1.0
141
100.0
290
     0
  0
SCALE
  5
54
102
{ACAD_REACTORS
330
47
102
}
330
47
100
AcDbScale
 70
     0
300
2:1
140
2.0
141
1.0
290
     0
  0
SCALE
  5
55
102
{ACAD_REACTORS
330
47
102
}
330
47
100
AcDbScale
 70
     0
300
4:1
140
4.0
141
1.0
290
     0
  0
SCALE
  5
56
102
{ACAD_REACTORS
330
47
102
}
330
47
100
AcDbScale
 70
     0
300
8:1
140
8.0
141
1.0
290
     0
  0
SCALE
  5
57
102
{ACAD_REACTORS
330
47
102
}
330
47
100
AcDbScale
 70
     0
300
10:1
140
10.0
141
1.0
290
     0
  0
SCALE
  5
58
102
{ACAD_REACTORS
330
47
102
}
330
47
100
AcDbScale
 70
     0
300
100:1
140
100.0
141
1.0
290
     0
  0
SCALE
  5
59
102
{ACAD_REACTORS
330
47
102
}
330
47
100
AcDbScale
 70
     0
300
1/128" = 1'-0"
140
0.007812
141
12.0
290
     0
  0
SCALE
  5
5A
102
{ACAD_REACTORS
330
47
102
}
330
47
100
AcDbScale
 70
     0
300
1/64" = 1'-0"
140
0.015625
141
12.0
290
     0
  0
SCALE
  5
5B
102
{ACAD_REACTORS
330
47
102
}
330
47
100
AcDbScale
 70
     0
300
1/32" = 1'-0"
140
0.03125
141
12.0
290
     0
  0
SCALE
  5
5C
102
{ACAD_REACTORS
330
47
102
}
330
47
100
AcDbScale
 70
     0
300
1/16" = 1'-0"
140
0.0625
141
12.0
290
     0
  0
SCALE
  5
5D
102
{ACAD_REACTORS
330
47
102
}
330
47
100
AcDbScale
 70
     0
300
3/32" = 1'-0"
140
0.09375
141
12.0
290
     0
  0
SCALE
  5
5E
102
{ACAD_REACTORS
330
47
102
}
330
47
100
AcDbScale
 70
     0
300
1/8" = 1'-0"
140
0.125
141
12.0
290
     0
  0
SCALE
  5
5F
102
{ACAD_REACTORS
330
47
102
}
330
47
100
AcDbScale
 70
     0
300
3/16" = 1'-0"
140
0.1875
141
12.0
290
     0
  0
SCALE
  5
60
102
{ACAD_REACTORS
330
47
102
}
330
47
100
AcDbScale
 70
     0
300
1/4" = 1'-0"
140
0.25
141
12.0
290
     0
  0
SCALE
  5
61
102
{ACAD_REACTORS
330
47
102
}
330
47
100
AcDbScale
 70
     0
300
3/8" = 1'-0"
140
0.375
141
12.0
290
     0
  0
SCALE
  5
62
102
{ACAD_REACTORS
330
47
102
}
330
47
100
AcDbScale
 70
     0
300
1/2" = 1'-0"
140
0.5
141
12.0
290
     0
  0
SCALE
  5
63
102
{ACAD_REACTORS
330
47
102
}
330
47
100
AcDbScale
 70
     0
300
3/4" = 1'-0"
140
0.75
141
12.0
290
     0
  0
SCALE
  5
64
102
{ACAD_REACTORS
330
47
102
}
330
47
100
AcDbScale
 70
     0
300
1" = 1'-0"
140
1.0
141
12.0
290
     0
  0
SCALE
  5
65
102
{ACAD_REACTORS
330
47
102
}
330
47
100
AcDbScale
 70
     0
300
1-1/2" = 1'-0"
140
1.5
141
12.0
290
     0
  0
SCALE
  5
66
102
{ACAD_REACTORS
330
47
102
}
330
47
100
AcDbScale
 70
     0
300
3" = 1'-0"
140
3.0
141
12.0
290
     0
  0
SCALE
  5
67
102
{ACAD_REACTORS
330
47
102
}
330
47
100
AcDbScale
 70
     0
300
6" = 1'-0"
140
6.0
141
12.0
290
     0
  0
SCALE
  5
68
102
{ACAD_REACTORS
330
47
102
}
330
47
100
AcDbScale
 70
     0
300
1'-0" = 1'-0"
140
12.0
141
12.0
290
     0
  0
ACDBSECTIONVIEWSTYLE
  5
294
102
{ACAD_XDICTIONARY
360
366
102
}
102
{ACAD_REACTORS
330
290
102
}
330
290
100
AcDbModelDocViewStyle
 70
     0
  3
Metric50
290
     0
100
AcDbSectionViewStyle
 70
     0
 71
     0
 90
      102
 71
     1
340
11
 62
   256
 40
5.0
340
0
340
0
 62
   256
 40
5.0
300
I, O, Q, S, X, Z
 40
10.0
 90
        0
 40
2.5
 90
        0
 71
     2
340
16
 90
       25
 62
   256
340
16
 90
       50
 62
   256
 40
5.0
 40
2.5
 40
5.0
 71
     3
340
11
 62
   256
 40
5.0
 90
        0
 40
15.0
 90
        1
300
%<\AcVar ViewSectionStartId>%-%<\AcVar ViewSectionEndId>% (%<\AcVar ViewScale \f "%sn">%)
 71
     4
 62
   256
 62
   257
300
ANSI31
 40
1.0
 90
        0
290
     0
290
     0
 90
        6
 40
0.0
 40
1.570796326794896
 40
0.2617993877991494
 40
1.308996938995747
 40
-0.2617993877991494
 40
1.832595714594046
  0
TABLESTYLE
  5
6A
102
{ACAD_XDICTIONARY
360
286
102
}
102
{ACAD_REACTORS
330
69
102
}
330
69
100
AcDbTableStyle
  3
Standard
 70
     0
 71
     0
 40
0.06
 41
0.06
280
     0
281
     0
  7
Standard
140
0.18
170
     2
 62
     0
 63
     7
283
     0
274
    -2
284
     1
 64
     0
275
    -2
285
     1
 65
     0
276
    -2
286
     1
 66
     0
277
    -2
287
     1
 67
     0
278
    -2
288
     1
 68
     0
279
    -2
289
     1
 69
     0
  7
Standard
140
0.25
170
     5
 62
     0
 63
     7
283
     0
274
    -2
284
     1
 64
     0
275
    -2
285
     1
 65
     0
276
    -2
286
     1
 66
     0
277
    -2
287
     1
 67
     0
278
    -2
288
     1
 68
     0
279
    -2
289
     1
 69
     0
  7
Standard
140
0.18
170
     5
 62
     0
 63
     7
283
     0
274
    -2
284
     1
 64
     0
275
    -2
285
     1
 65
     0
276
    -2
286
     1
 66
     0
277
    -2
287
     1
 67
     0
278
    -2
288
     1
 68
     0
279
    -2
289
     1
 69
     0
  0
VISUALSTYLE
  5
2F
102
{ACAD_XDICTIONARY
360
33D
102
}
102
{ACAD_REACTORS
330
2A
102
}
330
2A
100
AcDbVisualStyle
  2

 70
     4
 71
     0
 72
     2
 73
     0
 90
        0
 40
-0.6
 41
-30.0
 62
     5
 63
     7
421
 16777215
 74
     1
 91
        4
 64
     7
 65
   257
 75
     1
175
     1
 42
1.0
 92
        0
 66
   257
 43
1.0
 76
     1
 77
     6
 78
     2
 67
     7
 79
     5
170
     0
171
     0
290
     0
174
     0
 93
        1
 44
0.0
173
     0
291
     0
 45
0.0
1001
ACAD
1000
AcDbSavedByObjectVersion
1070
     0
  0
VISUALSTYLE
  5
32
102
{ACAD_XDICTIONARY
360
343
102
}
102
{ACAD_REACTORS
330
2A
102
}
330
2A
100
AcDbVisualStyle
  2

 70
     7
 71
     1
 72
     0
 73
     1
 90
        0
 40
-0.6
 41
-30.0
 62
     5
 63
     7
421
 16777215
 74
     0
 91
        4
 64
     7
 65
   257
 75
     1
175
     1
 42
1.0
 92
        8
 66
     7
 43
1.0
 76
     1
 77
     6
 78
     2
 67
     7
 79
     5
170
     0
171
     0
290
     0
174
     0
 93
        1
 44
0.0
173
     0
291
     1
 45
0.0
1001
ACAD
1000
AcDbSavedByObjectVersion
1070
     0
  0
VISUALSTYLE
  5
36
102
{ACAD_XDICTIONARY
360
34B
102
}
102
{ACAD_REACTORS
330
2A
102
}
330
2A
100
AcDbVisualStyle
  2

 70
    12
 71
     2
 72
     2
 73
     0
 90
        0
 40
-0.6
 41
-30.0
 62
     5
 63
     7
421
 16777215
 74
     1
 91
        4
 64
     7
 65
   257
 75
     1
175
     1
 42
1.0
 92
        8
 66
     7
 43
1.0
 76
     1
 77
     6
 78
     2
 67
     7
 79
     5
170
     0
171
     0
290
     0
174
     0
 93
        1
 44
50.0
173
     0
291
     1
 45
0.0
1001
ACAD
1000
AcDbSavedByObjectVersion
1070
     0
  0
VISUALSTYLE
  5
3A
102
{ACAD_XDICTIONARY
360
353
102
}
102
{ACAD_REACTORS
330
2A
102
}
330
2A
100
AcDbVisualStyle
  2

 70
    16
 71
     2
 72
     2
 73
     3
 90
        0
 40
-0.6
 41
-30.0
 62
     5
 63
     8
421
  8421504
 74
     1
 91
        4
 64
     7
 65
   257
 75
     1
175
     1
 42
1.0
 92
        8
 66
     8
424
  8421504
 43
1.0
 76
     1
 77
     6
 78
     2
 67
     7
 79
     5
170
     0
171
     0
290
     0
174
     0
 93
        1
 44
0.0
173
     0
291
     1
 45
0.0
1001
ACAD
1000
AcDbSavedByObjectVersion
1070
     0
  0
VISUALSTYLE
  5
34
102
{ACAD_XDICTIONARY
360
347
102
}
102
{ACAD_REACTORS
330
2A
102
}
330
2A
100
AcDbVisualStyle
  2

 70
     9
 71
     3
 72
     2
 73
     0
 90
        0
 40
-0.6
 41
-30.0
 62
     5
 63
     7
421
 16777215
 74
     2
 91
        2
 64
     7
 65
   257
 75
     1
175
     1
 42
179.0
 92
        8
 66
     7
 43
1.0
 76
     1
 77
     6
 78
     2
 67
     7
 79
     3
170
     0
171
     0
290
     0
174
     0
 93
        1
 44
0.0
173
     0
291
     0
 45
0.0
1001
ACAD
1000
AcDbSavedByObjectVersion
1070
     0
  0
VISUALSTYLE
  5
35
102
{ACAD_XDICTIONARY
360
349
102
}
102
{ACAD_REACTORS
330
2A
102
}
330
2A
100
AcDbVisualStyle
  2

 70
    11
 71
     2
 72
     2
 73
     0
 90
        0
 40
-0.6
 41
-30.0
 62
     5
 63
     7
421
 16777215
 74
     1
 91
        4
 64
     7
 65
   257
 75
     1
175
     1
 42
1.0
 92
        8
 66
     7
 43
1.0
 76
     1
 77
     6
 78
     2
 67
     7
 79
     5
170
     0
171
     0
290
     0
174
     0
 93
        1
 44
-50.0
173
     0
291
     1
 45
0.0
1001
ACAD
1000
AcDbSavedByObjectVersion
1070
     0
  0
VISUALSTYLE
  5
3D
102
{ACAD_XDICTIONARY
360
359
102
}
102
{ACAD_REACTORS
330
2A
102
}
330
2A
100
AcDbVisualStyle
  2

 70
    22
 71
     2
 72
     2
 73
     0
 90
        0
 40
-0.6
 41
-30.0
 62
     5
 63
     7
421
 16777215
 74
     1
 91
        4
 64
     7
 65
   257
 75
     1
175
     1
 42
1.0
 92
        8
 66
     7
 43
1.0
 76
     1
 77
     6
 78
     2
 67
     7
 79
     5
170
     0
171
     0
290
     0
174
     0
 93
        1
 44
0.0
173
     0
291
     1
 45
0.0
1001
ACAD
1000
AcDbSavedByObjectVersion
1070
     0
  0
VISUALSTYLE
  5
39
102
{ACAD_XDICTIONARY
360
351
102
}
102
{ACAD_REACTORS
330
2A
102
}
330
2A
100
AcDbVisualStyle
  2

 70
    15
 71
     2
 72
     2
 73
     0
 90
        0
 40
-0.6
 41
-30.0
 62
     5
 63
     7
421
 16777215
 74
     1
 91
        4
 64
     7
 65
   257
 75
     1
175
     1
 42
1.0
 92
        8
 66
     7
 43
1.0
 76
     1
 77
     6
 78
     2
 67
     7
 79
     5
170
     0
171
     0
290
     0
174
     0
 93
        1
 44
0.0
173
     0
291
     1
 45
0.0
1001
ACAD
1000
AcDbSavedByObjectVersion
1070
     0
  0
VISUALSTYLE
  5
2B
102
{ACAD_XDICTIONARY
360
335
102
}
102
{ACAD_REACTORS
330
2A
102
}
330
2A
100
AcDbVisualStyle
  2

 70
     0
 71
     2
 72
     1
 73
     1
 90
        2
 40
-0.6
 41
30.0
 62
     5
 63
     7
421
 16777215
 74
     0
 91
        0
 64
     7
 65
   257
 75
     1
175
     1
 42
1.0
 92
        8
 66
     7
 43
1.0
 76
     1
 77
     6
 78
     2
 67
     7
 79
     5
170
     0
171
     0
290
     0
174
     0
 93
       13
 44
0.0
173
     0
291
     1
 45
0.0
1001
ACAD
1000
AcDbSavedByObjectVersion
1070
     0
  0
VISUALSTYLE
  5
2C
102
{ACAD_XDICTIONARY
360
337
102
}
102
{ACAD_REACTORS
330
2A
102
}
330
2A
100
AcDbVisualStyle
  2

 70
     1
 71
     2
 72
     1
 73
     1
 90
        2
 40
-0.6
 41
30.0
 62
     5
 63
     7
421
 16777215
 74
     1
 91
        0
 64
     7
 65
   257
 75
     1
175
     1
 42
1.0
 92
        0
 66
   257
 43
1.0
 76
     1
 77
     6
 78
     2
 67
     7
 79
     5
170
     0
171
     0
290
     0
174
     0
 93
       13
 44
0.0
173
     0
291
     1
 45
0.0
1001
ACAD
1000
AcDbSavedByObjectVersion
1070
     0
  0
VISUALSTYLE
  5
2D
102
{ACAD_XDICTIONARY
360
339
102
}
102
{ACAD_REACTORS
330
2A
102
}
330
2A
100
AcDbVisualStyle
  2

 70
     2
 71
     2
 72
     2
 73
     1
 90
        2
 40
-0.6
 41
30.0
 62
     5
 63
     7
421
 16777215
 74
     0
 91
        0
 64
     7
 65
   257
 75
     1
175
     1
 42
1.0
 92
        0
 66
     7
 43
1.0
 76
     1
 77
     6
 78
     2
 67
     7
 79
     5
170
     0
171
     0
290
     0
174
     0
 93
       13
 44
0.0
173
     0
291
     1
 45
0.0
1001
ACAD
1000
AcDbSavedByObjectVersion
1070
     0
  0
VISUALSTYLE
  5
2E
102
{ACAD_XDICTIONARY
360
33B
102
}
102
{ACAD_REACTORS
330
2A
102
}
330
2A
100
AcDbVisualStyle
  2

 70
     3
 71
     2
 72
     2
 73
     1
 90
        2
 40
-0.6
 41
30.0
 62
     5
 63
     7
421
 16777215
 74
     1
 91
        0
 64
     7
 65
   257
 75
     1
175
     1
 42
1.0
 92
        0
 66
   257
 43
1.0
 76
     1
 77
     6
 78
     2
 67
     7
 79
     5
170
     0
171
     0
290
     0
174
     0
 93
       13
 44
0.0
173
     0
291
     1
 45
0.0
1001
ACAD
1000
AcDbSavedByObjectVersion
1070
     0
  0
VISUALSTYLE
  5
31
102
{ACAD_XDICTIONARY
360
341
102
}
102
{ACAD_REACTORS
330
2A
102
}
330
2A
100
AcDbVisualStyle
  2

 70
     6
 71
     1
 72
     2
 73
     2
 90
        0
 40
-0.6
 41
-30.0
 62
     5
 63
     7
421
 16777215
 74
     2
 91
        2
 64
     7
 65
   257
 75
     2
175
     1
 42
40.0
 92
        0
 66
   257
 43
1.0
 76
     1
 77
     6
 78
     2
 67
     7
 79
     3
170
     0
171
     0
290
     0
174
     0
 93
        1
 44
0.0
173
     0
291
     0
 45
0.0
1001
ACAD
1000
AcDbSavedByObjectVersion
1070
     0
  0
VISUALSTYLE
  5
3B
102
{ACAD_XDICTIONARY
360
355
102
}
102
{ACAD_REACTORS
330
2A
102
}
330
2A
100
AcDbVisualStyle
  2

 70
    20
 71
     2
 72
     2
 73
     0
 90
        0
 40
-0.6
 41
-30.0
 62
     5
 63
     7
421
 16777215
 74
     1
 91
        4
 64
     7
 65
   257
 75
     1
175
     1
 42
1.0
 92
       10
 66
     7
 43
1.0
 76
     1
 77
     6
 78
     2
 67
     7
 79
     5
170
     0
171
     0
290
     0
174
     0
 93
        1
 44
0.0
173
     0
291
     1
 45
0.0
1001
ACAD
1000
AcDbSavedByObjectVersion
1070
     0
  0
VISUALSTYLE
  5
38
102
{ACAD_XDICTIONARY
360
34F
102
}
102
{ACAD_REACTORS
330
2A
102
}
330
2A
100
AcDbVisualStyle
  2

 70
    14
 71
     2
 72
     2
 73
     0
 90
        0
 40
-0.6
 41
-30.0
 62
     5
 63
     7
421
 16777215
 74
     1
 91
        4
 64
     7
 65
   257
 75
     7
175
     7
 42
1.0
 92
        8
 66
     7
 43
1.0
 76
     1
 77
     6
 78
     2
 67
     7
 79
     5
170
     0
171
     0
290
     0
174
     0
 93
        1
 44
0.0
173
     0
291
     1
 45
0.0
1001
ACAD
1000
AcDbSavedByObjectVersion
1070
     0
  0
VISUALSTYLE
  5
3C
102
{ACAD_XDICTIONARY
360
357
102
}
102
{ACAD_REACTORS
330
2A
102
}
330
2A
100
AcDbVisualStyle
  2

 70
    21
 71
     2
 72
     2
 73
     0
 90
        0
 40
-0.6
 41
-30.0
 62
     5
 63
     7
421
 16777215
 74
     1
 91
        4
 64
     7
 65
   257
 75
     1
175
     1
 42
1.0
 92
        9
 66
     7
 43
1.0
 76
     1
 77
     6
 78
     2
 67
     7
 79
     5
170
     0
171
     0
290
     0
174
     0
 93
        1
 44
0.0
173
     0
291
     1
 45
0.0
1001
ACAD
1000
AcDbSavedByObjectVersion
1070
     0
  0
VISUALSTYLE
  5
33
102
{ACAD_XDICTIONARY
360
345
102
}
102
{ACAD_REACTORS
330
2A
102
}
330
2A
100
AcDbVisualStyle
  2

 70
     8
 71
     2
 72
     3
 73
     0
 90
        2
 40
-0.6
 41
30.0
 62
     5
 63
     7
421
 16777215
 74
     0
 91
        0
 64
     7
 65
   257
 75
     1
175
     1
 42
1.0
 92
        8
 66
   257
 43
1.0
 76
     1
 77
     6
 78
     2
 67
     7
 79
     3
170
     0
171
     0
290
     0
174
     0
 93
       13
 44
0.0
173
     0
291
     0
 45
0.0
1001
ACAD
1000
AcDbSavedByObjectVersion
1070
     0
  0
VISUALSTYLE
  5
42
102
{ACAD_XDICTIONARY
360
363
102
}
102
{ACAD_REACTORS
330
2A
102
}
330
2A
100
AcDbVisualStyle
  2

 70
    27
 71
     2
 72
     2
 73
     1
 90
        2
 40
-0.6
 41
30.0
 62
     5
 63
     7
421
 16777215
 74
     0
 91
        4
 64
     7
 65
   257
 75
     1
175
     1
 42
1.0
 92
        8
 66
   257
 43
1.0
 76
     1
 77
     6
 78
     2
 67
     8
425
  7895160
 79
     3
170
     0
171
     0
290
     0
174
     0
 93
        5
 44
0.0
173
     0
291
     0
 45
0.0
1001
ACAD
1000
AcDbSavedByObjectVersion
1070
     0
  0
VISUALSTYLE
  5
41
102
{ACAD_XDICTIONARY
360
361
102
}
102
{ACAD_REACTORS
330
2A
102
}
330
2A
100
AcDbVisualStyle
  2

 70
    26
 71
     2
 72
     2
 73
     1
 90
        2
 40
-0.6
 41
30.0
 62
     5
 63
     7
421
 16777215
 74
     1
 91
       10
 64
     7
 65
   257
 75
     2
175
     1
 42
1.0
 92
        8
 66
   257
 43
1.0
 76
     1
 77
     6
 78
     2
 67
     7
 79
     3
170
     0
171
     0
290
     0
174
     0
 93
        5
 44
0.0
173
     0
291
     0
 45
0.0
1001
ACAD
1000
AcDbSavedByObjectVersion
1070
     0
  0
VISUALSTYLE
  5
3E
102
{ACAD_XDICTIONARY
360
35B
102
}
102
{ACAD_REACTORS
330
2A
102
}
330
2A
100
AcDbVisualStyle
  2

 70
    23
 71
     2
 72
     2
 73
     3
 90
        0
 40
-0.6
 41
-30.0
 62
     5
 63
     7
421
 16777215
 74
     2
 91
        2
 64
     7
 65
     7
 75
     1
175
     1
 42
40.0
 92
        8
 66
     7
 43
1.0
 76
     1
 77
     6
 78
     2
 67
     7
 79
     3
170
     0
171
     0
290
     0
174
     0
 93
        1
 44
0.0
173
     0
291
     0
 45
0.0
1001
ACAD
1000
AcDbSavedByObjectVersion
1070
     0
  0
VISUALSTYLE
  5
3F
102
{ACAD_XDICTIONARY
360
35D
102
}
102
{ACAD_REACTORS
330
2A
102
}
330
2A
100
AcDbVisualStyle
  2

 70
    24
 71
     1
 72
     2
 73
     2
 90
        0
 40
-0.6
 41
-30.0
 62
     5
 63
     7
421
 16777215
 74
     2
 91
        2
 64
     7
 65
     7
 75
     1
175
     1
 42
40.0
 92
       11
 66
     7
 43
1.0
 76
     1
 77
     6
 78
     2
 67
     7
 79
     6
170
     0
171
     0
290
     0
174
     0
 93
        1
 44
0.0
173
     0
291
     0
 45
0.0
1001
ACAD
1000
AcDbSavedByObjectVersion
1070
     0
  0
VISUALSTYLE
  5
37
102
{ACAD_XDICTIONARY
360
34D
102
}
102
{ACAD_REACTORS
330
2A
102
}
330
2A
100
AcDbVisualStyle
  2

 70
    13
 71
     2
 72
     2
 73
     0
 90
        0
 40
-0.6
 41
-30.0
 62
     5
 63
     7
421
 16777215
 74
     1
 91
        4
 64
     7
 65
   257
 75
     1
175
     1
 42
1.0
 92
       12
 66
     7
 43
1.0
 76
     1
 77
     6
 78
     2
 67
     7
 79
     5
170
     0
171
     0
290
     0
174
     0
 93
        1
 44
0.0
173
     0
291
     1
 45
0.0
1001
ACAD
1000
AcDbSavedByObjectVersion
1070
     0
  0
VISUALSTYLE
  5
30
102
{ACAD_XDICTIONARY
360
33F
102
}
102
{ACAD_REACTORS
330
2A
102
}
330
2A
100
AcDbVisualStyle
  2

 70
     5
 71
     0
 72
     2
 73
     0
 90
        0
 40
-0.6
 41
-30.0
 62
     5
 63
     7
421
 16777215
 74
     1
 91
        4
 64
     7
 65
   257
 75
     1
175
     1
 42
1.0
 92
        0
 66
   257
 43
1.0
 76
     1
 77
     6
 78
     2
 67
     7
 79
     3
170
     0
171
     0
290
     0
174
     0
 93
        1
 44
0.0
173
     0
291
     0
 45
0.0
1001
ACAD
1000
AcDbSavedByObjectVersion
1070
     0
  0
VISUALSTYLE
  5
40
102
{ACAD_XDICTIONARY
360
35F
102
}
102
{ACAD_REACTORS
330
2A
102
}
330
2A
100
AcDbVisualStyle
  2

 70
    25
 71
     2
 72
     2
 73
     1
 90
        1
 40
0.5
 41
-30.0
 62
     5
 63
     7
421
 16777215
 74
     1
 91
        0
 64
     7
 65
   257
 75
     1
175
     1
 42
1.0
 92
        8
 66
     7
 43
1.0
 76
     1
 77
     6
 78
     2
 67
     7
 79
     3
170
     0
171
     0
290
     0
174
     0
 93
       13
 44
0.0
173
     0
291
     0
 45
0.0
1001
ACAD
1000
AcDbSavedByObjectVersion
1070
     0
  0
DICTIONARYVAR
  5
24D
102
{ACAD_REACTORS
330
24C
102
}
330
24C
100
DictionaryVariables
280
     0
  1
1:1
  0
DICTIONARYVAR
  5
28E
102
{ACAD_REACTORS
330
24C
102
}
330
24C
100
DictionaryVariables
280
     0
  1
STANDARD
  0
DICTIONARYVAR
  5
28D
102
{ACAD_REACTORS
330
24C
102
}
330
24C
100
DictionaryVariables
280
     0
  1
STANDARD
  0
DICTIONARYVAR
  5
32F
102
{ACAD_REACTORS
330
24C
102
}
330
24C
100
DictionaryVariables
280
     0
  1
Metric50
  0
DICTIONARYVAR
  5
330
102
{ACAD_REACTORS
330
24C
102
}
330
24C
100
DictionaryVariables
280
     0
  1
Metric50
  0
DICTIONARYVAR
  5
24E
102
{ACAD_REACTORS
330
24C
102
}
330
24C
100
DictionaryVariables
280
     0
  1
1
  0
DICTIONARYVAR
  5
331
102
{ACAD_REACTORS
330
24C
102
}
330
24C
100
DictionaryVariables
280
     0
  1
2
  0
DICTIONARY
  5
368
330
295
100
AcDbDictionary
280
     1
281
     1
  3
ACAD_XREC_ROUNDTRIP
360
369
  0
DICTIONARY
  5
282
330
45
100
AcDbDictionary
280
     1
281
     1
  3
ACAD_XREC_ROUNDTRIP
360
283
  0
DICTIONARY
  5
280
330
44
100
AcDbDictionary
280
     1
281
     1
  3
ACAD_XREC_ROUNDTRIP
360
281
  0
DICTIONARY
  5
284
330
46
100
AcDbDictionary
280
     1
281
     1
  3
ACAD_XREC_ROUNDTRIP
360
285
  0
DICTIONARY
  5
366
330
294
100
AcDbDictionary
280
     1
281
     1
  3
ACAD_XREC_ROUNDTRIP
360
367
  0
DICTIONARY
  5
286
330
6A
100
AcDbDictionary
280
     1
281
     1
  3
ACAD_ROUNDTRIP_2008_TABLESTYLE_CELLSTYLEMAP
360
333
  3
ACAD_XREC_ROUNDTRIP
360
365
  0
DICTIONARY
  5
33D
330
2F
100
AcDbDictionary
280
     1
281
     1
  3
ACAD_XREC_ROUNDTRIP
360
33E
  0
DICTIONARY
  5
343
330
32
100
AcDbDictionary
280
     1
281
     1
  3
ACAD_XREC_ROUNDTRIP
360
344
  0
DICTIONARY
  5
34B
330
36
100
AcDbDictionary
280
     1
281
     1
  3
ACAD_XREC_ROUNDTRIP
360
34C
  0
DICTIONARY
  5
353
330
3A
100
AcDbDictionary
280
     1
281
     1
  3
ACAD_XREC_ROUNDTRIP
360
354
  0
DICTIONARY
  5
347
330
34
100
AcDbDictionary
280
     1
281
     1
  3
ACAD_XREC_ROUNDTRIP
360
348
  0
DICTIONARY
  5
349
330
35
100
AcDbDictionary
280
     1
281
     1
  3
ACAD_XREC_ROUNDTRIP
360
34A
  0
DICTIONARY
  5
359
330
3D
100
AcDbDictionary
280
     1
281
     1
  3
ACAD_XREC_ROUNDTRIP
360
35A
  0
DICTIONARY
  5
351
330
39
100
AcDbDictionary
280
     1
281
     1
  3
ACAD_XREC_ROUNDTRIP
360
352
  0
DICTIONARY
  5
335
330
2B
100
AcDbDictionary
280
     1
281
     1
  3
ACAD_XREC_ROUNDTRIP
360
336
  0
DICTIONARY
  5
337
330
2C
100
AcDbDictionary
280
     1
281
     1
  3
ACAD_XREC_ROUNDTRIP
360
338
  0
DICTIONARY
  5
339
330
2D
100
AcDbDictionary
280
     1
281
     1
  3
ACAD_XREC_ROUNDTRIP
360
33A
  0
DICTIONARY
  5
33B
330
2E
100
AcDbDictionary
280
     1
281
     1
  3
ACAD_XREC_ROUNDTRIP
360
33C
  0
DICTIONARY
  5
341
330
31
100
AcDbDictionary
280
     1
281
     1
  3
ACAD_XREC_ROUNDTRIP
360
342
  0
DICTIONARY
  5
355
330
3B
100
AcDbDictionary
280
     1
281
     1
  3
ACAD_XREC_ROUNDTRIP
360
356
  0
DICTIONARY
  5
34F
330
38
100
AcDbDictionary
280
     1
281
     1
  3
ACAD_XREC_ROUNDTRIP
360
350
  0
DICTIONARY
  5
357
330
3C
100
AcDbDictionary
280
     1
281
     1
  3
ACAD_XREC_ROUNDTRIP
360
358
  0
DICTIONARY
  5
345
330
33
100
AcDbDictionary
280
     1
281
     1
  3
ACAD_XREC_ROUNDTRIP
360
346
  0
DICTIONARY
  5
363
330
42
100
AcDbDictionary
280
     1
281
     1
  3
ACAD_XREC_ROUNDTRIP
360
364
  0
DICTIONARY
  5
361
330
41
100
AcDbDictionary
280
     1
281
     1
  3
ACAD_XREC_ROUNDTRIP
360
362
  0
DICTIONARY
  5
35B
330
3E
100
AcDbDictionary
280
     1
281
     1
  3
ACAD_XREC_ROUNDTRIP
360
35C
  0
DICTIONARY
  5
35D
330
3F
100
AcDbDictionary
280
     1
281
     1
  3
ACAD_XREC_ROUNDTRIP
360
35E
  0
DICTIONARY
  5
34D
330
37
100
AcDbDictionary
280
     1
281
     1
  3
ACAD_XREC_ROUNDTRIP
360
34E
  0
DICTIONARY
  5
33F
330
30
100
AcDbDictionary
280
     1
281
     1
  3
ACAD_XREC_ROUNDTRIP
360
340
  0
DICTIONARY
  5
35F
330
40
100
AcDbDictionary
280
     1
281
     1
  3
ACAD_XREC_ROUNDTRIP
360
360
  0
XRECORD
  5
369
102
{ACAD_REACTORS
330
368
102
}
330
368
100
AcDbXrecord
280
     1
102
DISPLAYNAME
  1
Metric50
102
FLAGS
 90
        0
  0
XRECORD
  5
283
102
{ACAD_REACTORS
330
282
102
}
330
282
100
AcDbXrecord
280
     1
102
MATERIAL
148
0.0
149
0.0
149
0.0
 93
        0
 94
      127
282
     0
 72
     1
 77
     1
171
     1
175
     1
179
     1
273
     0
  0
XRECORD
  5
281
102
{ACAD_REACTORS
330
280
102
}
330
280
100
AcDbXrecord
280
     1
102
MATERIAL
148
0.0
149
0.0
149
0.0
 93
        0
 94
      127
282
     0
 72
     1
 77
     1
171
     1
175
     1
179
     1
273
     0
  0
XRECORD
  5
285
102
{ACAD_REACTORS
330
284
102
}
330
284
100
AcDbXrecord
280
     1
102
MATERIAL
148
0.0
149
0.0
149
0.0
 93
        0
 94
      127
282
     0
 72
     1
 77
     1
171
     1
175
     1
179
     1
273
     0
  0
XRECORD
  5
367
102
{ACAD_REACTORS
330
366
102
}
330
366
100
AcDbXrecord
280
     1
102
DISPLAYNAME
  1
Metric50
102
FLAGS
 90
        0
  0
CELLSTYLEMAP
  5
333
102
{ACAD_REACTORS
330
286
102
}
330
286
100
AcDbCellStyleMap
 90
        3
300
CELLSTYLE
  1
TABLEFORMAT_BEGIN
 90
        5
170
     1
 91
        0
 92
    32768
 62
   257
 93
        1
300
CONTENTFORMAT
  1
CONTENTFORMAT_BEGIN
 90
        0
 91
        0
 92
        4
 93
        0
300

 40
0.0
140
1.0
 94
        5
 62
     0
340
11
144
0.25
309
CONTENTFORMAT_END
171
     1
301
MARGIN
  1
CELLMARGIN_BEGIN
 40
0.06
 40
0.06
 40
0.06
 40
0.06
 40
0.18
 40
0.18
309
CELLMARGIN_END
 94
        6
 95
        1
302
GRIDFORMAT
  1
GRIDFORMAT_BEGIN
 90
        0
 91
        1
 62
     0
 92
       -2
340
14
 93
        0
 40
0.045
309
GRIDFORMAT_END
 95
        2
302
GRIDFORMAT
  1
GRIDFORMAT_BEGIN
 90
        0
 91
        1
 62
     0
 92
       -2
340
14
 93
        0
 40
0.045
309
GRIDFORMAT_END
 95
        4
302
GRIDFORMAT
  1
GRIDFORMAT_BEGIN
 90
        0
 91
        1
 62
     0
 92
       -2
340
14
 93
        0
 40
0.045
309
GRIDFORMAT_END
 95
        8
302
GRIDFORMAT
  1
GRIDFORMAT_BEGIN
 90
        0
 91
        1
 62
     0
 92
       -2
340
14
 93
        0
 40
0.045
309
GRIDFORMAT_END
 95
       16
302
GRIDFORMAT
  1
GRIDFORMAT_BEGIN
 90
        0
 91
        1
 62
     0
 92
       -2
340
14
 93
        0
 40
0.045
309
GRIDFORMAT_END
 95
       32
302
GRIDFORMAT
  1
GRIDFORMAT_BEGIN
 90
        0
 91
        1
 62
     0
 92
       -2
340
14
 93
        0
 40
0.045
309
GRIDFORMAT_END
309
TABLEFORMAT_END
  1
CELLSTYLE_BEGIN
 90
        1
 91
        1
300
_TITLE
309
CELLSTYLE_END
300
CELLSTYLE
  1
TABLEFORMAT_BEGIN
 90
        5
170
     1
 91
        0
 92
        0
 62
   257
 93
        1
300
CONTENTFORMAT
  1
CONTENTFORMAT_BEGIN
 90
        0
 91
        0
 92
        4
 93
        0
300

 40
0.0
140
1.0
 94
        5
 62
     0
340
11
144
0.18
309
CONTENTFORMAT_END
171
     1
301
MARGIN
  1
CELLMARGIN_BEGIN
 40
0.06
 40
0.06
 40
0.06
 40
0.06
 40
0.18
 40
0.18
309
CELLMARGIN_END
 94
        6
 95
        1
302
GRIDFORMAT
  1
GRIDFORMAT_BEGIN
 90
        0
 91
        1
 62
     0
 92
       -2
340
14
 93
        0
 40
0.045
309
GRIDFORMAT_END
 95
        2
302
GRIDFORMAT
  1
GRIDFORMAT_BEGIN
 90
        0
 91
        1
 62
     0
 92
       -2
340
14
 93
        0
 40
0.045
309
GRIDFORMAT_END
 95
        4
302
GRIDFORMAT
  1
GRIDFORMAT_BEGIN
 90
        0
 91
        1
 62
     0
 92
       -2
340
14
 93
        0
 40
0.045
309
GRIDFORMAT_END
 95
        8
302
GRIDFORMAT
  1
GRIDFORMAT_BEGIN
 90
        0
 91
        1
 62
     0
 92
       -2
340
14
 93
        0
 40
0.045
309
GRIDFORMAT_END
 95
       16
302
GRIDFORMAT
  1
GRIDFORMAT_BEGIN
 90
        0
 91
        1
 62
     0
 92
       -2
340
14
 93
        0
 40
0.045
309
GRIDFORMAT_END
 95
       32
302
GRIDFORMAT
  1
GRIDFORMAT_BEGIN
 90
        0
 91
        1
 62
     0
 92
       -2
340
14
 93
        0
 40
0.045
309
GRIDFORMAT_END
309
TABLEFORMAT_END
  1
CELLSTYLE_BEGIN
 90
        2
 91
        1
300
_HEADER
309
CELLSTYLE_END
300
CELLSTYLE
  1
TABLEFORMAT_BEGIN
 90
        5
170
     1
 91
        0
 92
        0
 62
   257
 93
        1
300
CONTENTFORMAT
  1
CONTENTFORMAT_BEGIN
 90
        0
 91
        0
 92
        4
 93
        0
300

 40
0.0
140
1.0
 94
        2
 62
     0
340
11
144
0.18
309
CONTENTFORMAT_END
171
     1
301
MARGIN
  1
CELLMARGIN_BEGIN
 40
0.06
 40
0.06
 40
0.06
 40
0.06
 40
0.18
 40
0.18
309
CELLMARGIN_END
 94
        6
 95
        1
302
GRIDFORMAT
  1
GRIDFORMAT_BEGIN
 90
        0
 91
        1
 62
     0
 92
       -2
340
14
 93
        0
 40
0.045
309
GRIDFORMAT_END
 95
        2
302
GRIDFORMAT
  1
GRIDFORMAT_BEGIN
 90
        0
 91
        1
 62
     0
 92
       -2
340
14
 93
        0
 40
0.045
309
GRIDFORMAT_END
 95
        4
302
GRIDFORMAT
  1
GRIDFORMAT_BEGIN
 90
        0
 91
        1
 62
     0
 92
       -2
340
14
 93
        0
 40
0.045
309
GRIDFORMAT_END
 95
        8
302
GRIDFORMAT
  1
GRIDFORMAT_BEGIN
 90
        0
 91
        1
 62
     0
 92
       -2
340
14
 93
        0
 40
0.045
309
GRIDFORMAT_END
 95
       16
302
GRIDFORMAT
  1
GRIDFORMAT_BEGIN
 90
        0
 91
        1
 62
     0
 92
       -2
340
14
 93
        0
 40
0.045
309
GRIDFORMAT_END
 95
       32
302
GRIDFORMAT
  1
GRIDFORMAT_BEGIN
 90
        0
 91
        1
 62
     0
 92
       -2
340
14
 93
        0
 40
0.045
309
GRIDFORMAT_END
309
TABLEFORMAT_END
  1
CELLSTYLE_BEGIN
 90
        3
 91
        2
300
_DATA
309
CELLSTYLE_END
  0
XRECORD
  5
365
102
{ACAD_REACTORS
330
286
102
}
330
286
100
AcDbXrecord
280
     1
102
ACAD_ROUNDTRIP_PRE2007_TABLESTYLE
 90
        4
 91
        0
  1

 92
        4
 93
        0
  2

 94
        4
 95
        0
  3

  0
XRECORD
  5
33E
102
{ACAD_REACTORS
330
33D
102
}
330
33D
100
AcDbXrecord
280
     1
102
RTVSPost2010Prop28
280
     1
102
RTVSPost2010PropOp28
 70
     1
102
RTVSPost2010Prop29
280
     1
102
RTVSPost2010PropOp29
 70
     1
102
RTVSPost2010Prop30
280
     0
102
RTVSPost2010PropOp30
 70
     1
102
RTVSPost2010Prop31
280
     0
102
RTVSPost2010PropOp31
 70
     1
102
RTVSPost2010Prop32
280
     0
102
RTVSPost2010PropOp32
 70
     1
102
RTVSPost2010Prop33
280
     0
102
RTVSPost2010PropOp33
 70
     1
102
RTVSPost2010Prop34
280
     0
102
RTVSPost2010PropOp34
 70
     1
102
RTVSPost2010Prop35
280
     0
102
RTVSPost2010PropOp35
 70
     1
102
RTVSPost2010Prop36
280
     0
102
RTVSPost2010PropOp36
 70
     1
102
RTVSPost2010Prop37
 90
       50
102
RTVSPost2010PropOp37
 70
     1
102
RTVSPost2010Prop38
140
0.0
102
RTVSPost2010PropOp38
 70
     1
102
RTVSPost2010Prop39
140
1.0
102
RTVSPost2010PropOp39
 70
     1
102
RTVSPost2010Prop40
 90
        0
102
RTVSPost2010PropOp40
 70
     1
102
RTVSPost2010Prop41ColorIndex
 90
       18
102
RTVSPost2010Prop41ColorRGB
 90
        0
102
RTVSPost2010PropOp41
 70
     1
102
RTVSPost2010Prop42
 90
       50
102
RTVSPost2010PropOp42
 70
     1
102
RTVSPost2010Prop43
 90
        3
102
RTVSPost2010PropOp43
 70
     1
102
RTVSPost2010Prop44ColorIndex
 90
        5
102
RTVSPost2010Prop44ColorRGB
 90
      255
102
RTVSPost2010PropOp44
 70
     1
102
RTVSPost2010Prop45
280
     0
102
RTVSPost2010PropOp45
 70
     1
102
RTVSPost2010Prop46
 90
       50
102
RTVSPost2010PropOp46
 70
     1
102
RTVSPost2010Prop47
 90
       50
102
RTVSPost2010PropOp47
 70
     1
102
RTVSPost2010Prop48
 90
       50
102
RTVSPost2010PropOp48
 70
     1
102
RTVSPost2010Prop49
280
     0
102
RTVSPost2010PropOp49
 70
     1
102
RTVSPost2010Prop50
 90
       50
102
RTVSPost2010PropOp50
 70
     1
102
RTVSPost2010Prop51ColorIndex
 90
      256
102
RTVSPost2010Prop51ColorRGB
 90
-16777216
102
RTVSPost2010PropOp51
 70
     0
102
RTVSPost2010Prop52
140
1.0
102
RTVSPost2010PropOp52
 70
     0
102
RTVSPost2010Prop53
 90
        2
102
RTVSPost2010PropOp53
 70
     1
102
RTVSPost2010Prop54
  1
strokes_ogs.tif
102
RTVSPost2010PropOp54
 70
     1
102
RTVSPost2010Prop55
280
     0
102
RTVSPost2010PropOp55
 70
     1
102
RTVSPost2010Prop56
140
1.0
102
RTVSPost2010PropOp56
 70
     1
102
RTVSPost2010Prop57
140
1.0
102
RTVSPost2010PropOp57
 70
     1
102
RTVSPropertyOp0
 70
     1
102
RTVSPropertyOp1
 70
     1
102
RTVSPropertyOp2
 70
     1
102
RTVSPropertyOp3
 70
     1
102
RTVSPropertyOp4
 70
     1
102
RTVSPropertyOp5
 70
     1
102
RTVSPropertyOp6
 70
     1
102
RTVSPropertyOp7
 70
     1
102
RTVSPropertyOp8
 70
     1
102
RTVSPropertyOp9
 70
     1
102
RTVSPropertyOp10
 70
     1
102
RTVSPropertyOp11
 70
     1
102
RTVSPropertyOp12
 70
     1
102
RTVSPropertyOp13
 70
     1
102
RTVSPropertyOp14
 70
     1
102
RTVSPropertyOp15
 70
     1
102
RTVSPropertyOp16
 70
     1
102
RTVSPropertyOp17
 70
     1
102
RTVSPropertyOp18
 70
     1
102
RTVSPropertyOp19
 70
     1
102
RTVSPropertyOp20
 70
     1
102
RTVSPropertyOp21
 70
     1
102
RTVSPropertyOp22
 70
     1
102
RTVSPropertyOp23
 70
     1
102
RTVSPropertyOp24
 70
     1
102
RTVSPropertyOp25
 70
     1
102
RTVSPropertyOp26
 70
     1
102
RTVSPropertyOp27
 70
     1
102
RTVSPropertyOp28
 70
     1
102
RTVSPropertyOp29
 70
     1
102
RTVSPropertyOp30
 70
     1
102
RTVSPropertyOp31
 70
     1
102
RTVSPropertyOp32
 70
     1
102
RTVSPropertyOp33
 70
     1
102
RTVSPropertyOp34
 70
     1
102
RTVSPropertyOp35
 70
     1
102
RTVSPropertyOp36
 70
     1
102
RTVSPropertyOp37
 70
     1
102
RTVSPropertyOp38
 70
     1
102
RTVSPropertyOp39
 70
     1
102
RTVSPropertyOp40
 70
     1
102
RTVSPropertyOp41
 70
     1
102
RTVSPropertyOp42
 70
     1
102
RTVSPropertyOp43
 70
     1
102
RTVSPropertyOp44
 70
     1
102
RTVSPropertyOp45
 70
     1
102
RTVSPropertyOp46
 70
     1
102
RTVSPropertyOp47
 70
     1
102
RTVSPropertyOp48
 70
     1
102
RTVSPropertyOp49
 70
     1
102
RTVSPropertyOp50
 70
     1
102
RTVSPropertyOp51
 70
     0
102
RTVSPropertyOp52
 70
     0
102
RTVSPropertyOp53
 70
     1
102
RTVSPropertyOp54
 70
     1
102
RTVSPropertyOp55
 70
     1
102
RTVSPropertyOp56
 70
     1
102
RTVSPropertyOp57
 70
     1
102
RTVSPropertyOp58
 70
     1
102
RTVSPropertyOp59
 70
     1
102
RTVSPropertyOp60
 70
     1
102
RTVSPropertyOp61
 70
     1
102
RTVSPropertyOp62
 70
     1
  0
XRECORD
  5
344
102
{ACAD_REACTORS
330
343
102
}
330
343
100
AcDbXrecord
280
     1
102
RTVSPost2010Prop28
280
     0
102
RTVSPost2010PropOp28
 70
     1
102
RTVSPost2010Prop29
280
     1
102
RTVSPost2010PropOp29
 70
     1
102
RTVSPost2010Prop30
280
     1
102
RTVSPost2010PropOp30
 70
     1
102
RTVSPost2010Prop31
280
     0
102
RTVSPost2010PropOp31
 70
     1
102
RTVSPost2010Prop32
280
     0
102
RTVSPost2010PropOp32
 70
     1
102
RTVSPost2010Prop33
280
     0
102
RTVSPost2010PropOp33
 70
     1
102
RTVSPost2010Prop34
280
     0
102
RTVSPost2010PropOp34
 70
     1
102
RTVSPost2010Prop35
280
     0
102
RTVSPost2010PropOp35
 70
     1
102
RTVSPost2010Prop36
280
     0
102
RTVSPost2010PropOp36
 70
     1
102
RTVSPost2010Prop37
 90
       50
102
RTVSPost2010PropOp37
 70
     1
102
RTVSPost2010Prop38
140
0.0
102
RTVSPost2010PropOp38
 70
     1
102
RTVSPost2010Prop39
140
1.0
102
RTVSPost2010PropOp39
 70
     1
102
RTVSPost2010Prop40
 90
        0
102
RTVSPost2010PropOp40
 70
     1
102
RTVSPost2010Prop41ColorIndex
 90
       18
102
RTVSPost2010Prop41ColorRGB
 90
        0
102
RTVSPost2010PropOp41
 70
     1
102
RTVSPost2010Prop42
 90
       50
102
RTVSPost2010PropOp42
 70
     1
102
RTVSPost2010Prop43
 90
        3
102
RTVSPost2010PropOp43
 70
     1
102
RTVSPost2010Prop44ColorIndex
 90
        5
102
RTVSPost2010Prop44ColorRGB
 90
      255
102
RTVSPost2010PropOp44
 70
     1
102
RTVSPost2010Prop45
280
     0
102
RTVSPost2010PropOp45
 70
     1
102
RTVSPost2010Prop46
 90
       50
102
RTVSPost2010PropOp46
 70
     1
102
RTVSPost2010Prop47
 90
       50
102
RTVSPost2010PropOp47
 70
     1
102
RTVSPost2010Prop48
 90
       50
102
RTVSPost2010PropOp48
 70
     1
102
RTVSPost2010Prop49
280
     0
102
RTVSPost2010PropOp49
 70
     1
102
RTVSPost2010Prop50
 90
       50
102
RTVSPost2010PropOp50
 70
     1
102
RTVSPost2010Prop51ColorIndex
 90
      256
102
RTVSPost2010Prop51ColorRGB
 90
-16777216
102
RTVSPost2010PropOp51
 70
     0
102
RTVSPost2010Prop52
140
1.0
102
RTVSPost2010PropOp52
 70
     0
102
RTVSPost2010Prop53
 90
        2
102
RTVSPost2010PropOp53
 70
     1
102
RTVSPost2010Prop54
  1
strokes_ogs.tif
102
RTVSPost2010PropOp54
 70
     1
102
RTVSPost2010Prop55
280
     0
102
RTVSPost2010PropOp55
 70
     1
102
RTVSPost2010Prop56
140
1.0
102
RTVSPost2010PropOp56
 70
     1
102
RTVSPost2010Prop57
140
1.0
102
RTVSPost2010PropOp57
 70
     1
102
RTVSPropertyOp0
 70
     1
102
RTVSPropertyOp1
 70
     1
102
RTVSPropertyOp2
 70
     1
102
RTVSPropertyOp3
 70
     1
102
RTVSPropertyOp4
 70
     1
102
RTVSPropertyOp5
 70
     1
102
RTVSPropertyOp6
 70
     1
102
RTVSPropertyOp7
 70
     1
102
RTVSPropertyOp8
 70
     1
102
RTVSPropertyOp9
 70
     1
102
RTVSPropertyOp10
 70
     1
102
RTVSPropertyOp11
 70
     1
102
RTVSPropertyOp12
 70
     1
102
RTVSPropertyOp13
 70
     1
102
RTVSPropertyOp14
 70
     1
102
RTVSPropertyOp15
 70
     1
102
RTVSPropertyOp16
 70
     1
102
RTVSPropertyOp17
 70
     1
102
RTVSPropertyOp18
 70
     1
102
RTVSPropertyOp19
 70
     1
102
RTVSPropertyOp20
 70
     1
102
RTVSPropertyOp21
 70
     1
102
RTVSPropertyOp22
 70
     1
102
RTVSPropertyOp23
 70
     1
102
RTVSPropertyOp24
 70
     1
102
RTVSPropertyOp25
 70
     1
102
RTVSPropertyOp26
 70
     1
102
RTVSPropertyOp27
 70
     1
102
RTVSPropertyOp28
 70
     1
102
RTVSPropertyOp29
 70
     1
102
RTVSPropertyOp30
 70
     1
102
RTVSPropertyOp31
 70
     1
102
RTVSPropertyOp32
 70
     1
102
RTVSPropertyOp33
 70
     1
102
RTVSPropertyOp34
 70
     1
102
RTVSPropertyOp35
 70
     1
102
RTVSPropertyOp36
 70
     1
102
RTVSPropertyOp37
 70
     1
102
RTVSPropertyOp38
 70
     1
102
RTVSPropertyOp39
 70
     1
102
RTVSPropertyOp40
 70
     1
102
RTVSPropertyOp41
 70
     1
102
RTVSPropertyOp42
 70
     1
102
RTVSPropertyOp43
 70
     1
102
RTVSPropertyOp44
 70
     1
102
RTVSPropertyOp45
 70
     1
102
RTVSPropertyOp46
 70
     1
102
RTVSPropertyOp47
 70
     1
102
RTVSPropertyOp48
 70
     1
102
RTVSPropertyOp49
 70
     1
102
RTVSPropertyOp50
 70
     1
102
RTVSPropertyOp51
 70
     0
102
RTVSPropertyOp52
 70
     0
102
RTVSPropertyOp53
 70
     1
102
RTVSPropertyOp54
 70
     1
102
RTVSPropertyOp55
 70
     1
102
RTVSPropertyOp56
 70
     1
102
RTVSPropertyOp57
 70
     1
102
RTVSPropertyOp58
 70
     1
102
RTVSPropertyOp59
 70
     1
102
RTVSPropertyOp60
 70
     1
102
RTVSPropertyOp61
 70
     1
102
RTVSPropertyOp62
 70
     1
  0
XRECORD
  5
34C
102
{ACAD_REACTORS
330
34B
102
}
330
34B
100
AcDbXrecord
280
     1
102
RTVSPost2010Prop28
280
     0
102
RTVSPost2010PropOp28
 70
     1
102
RTVSPost2010Prop29
280
     1
102
RTVSPost2010PropOp29
 70
     1
102
RTVSPost2010Prop30
280
     1
102
RTVSPost2010PropOp30
 70
     1
102
RTVSPost2010Prop31
280
     0
102
RTVSPost2010PropOp31
 70
     1
102
RTVSPost2010Prop32
280
     0
102
RTVSPost2010PropOp32
 70
     1
102
RTVSPost2010Prop33
280
     0
102
RTVSPost2010PropOp33
 70
     1
102
RTVSPost2010Prop34
280
     0
102
RTVSPost2010PropOp34
 70
     1
102
RTVSPost2010Prop35
280
     0
102
RTVSPost2010PropOp35
 70
     1
102
RTVSPost2010Prop36
280
     0
102
RTVSPost2010PropOp36
 70
     1
102
RTVSPost2010Prop37
 90
       50
102
RTVSPost2010PropOp37
 70
     1
102
RTVSPost2010Prop38
140
0.0
102
RTVSPost2010PropOp38
 70
     1
102
RTVSPost2010Prop39
140
1.0
102
RTVSPost2010PropOp39
 70
     1
102
RTVSPost2010Prop40
 90
        0
102
RTVSPost2010PropOp40
 70
     1
102
RTVSPost2010Prop41ColorIndex
 90
       18
102
RTVSPost2010Prop41ColorRGB
 90
        0
102
RTVSPost2010PropOp41
 70
     1
102
RTVSPost2010Prop42
 90
       50
102
RTVSPost2010PropOp42
 70
     1
102
RTVSPost2010Prop43
 90
        3
102
RTVSPost2010PropOp43
 70
     1
102
RTVSPost2010Prop44ColorIndex
 90
        5
102
RTVSPost2010Prop44ColorRGB
 90
      255
102
RTVSPost2010PropOp44
 70
     1
102
RTVSPost2010Prop45
280
     0
102
RTVSPost2010PropOp45
 70
     1
102
RTVSPost2010Prop46
 90
       50
102
RTVSPost2010PropOp46
 70
     1
102
RTVSPost2010Prop47
 90
       50
102
RTVSPost2010PropOp47
 70
     1
102
RTVSPost2010Prop48
 90
       50
102
RTVSPost2010PropOp48
 70
     1
102
RTVSPost2010Prop49
280
     0
102
RTVSPost2010PropOp49
 70
     1
102
RTVSPost2010Prop50
 90
       50
102
RTVSPost2010PropOp50
 70
     1
102
RTVSPost2010Prop51ColorIndex
 90
      256
102
RTVSPost2010Prop51ColorRGB
 90
-16777216
102
RTVSPost2010PropOp51
 70
     0
102
RTVSPost2010Prop52
140
1.0
102
RTVSPost2010PropOp52
 70
     0
102
RTVSPost2010Prop53
 90
        2
102
RTVSPost2010PropOp53
 70
     1
102
RTVSPost2010Prop54
  1
strokes_ogs.tif
102
RTVSPost2010PropOp54
 70
     1
102
RTVSPost2010Prop55
280
     0
102
RTVSPost2010PropOp55
 70
     1
102
RTVSPost2010Prop56
140
1.0
102
RTVSPost2010PropOp56
 70
     1
102
RTVSPost2010Prop57
140
1.0
102
RTVSPost2010PropOp57
 70
     1
102
RTVSPropertyOp0
 70
     1
102
RTVSPropertyOp1
 70
     1
102
RTVSPropertyOp2
 70
     1
102
RTVSPropertyOp3
 70
     1
102
RTVSPropertyOp4
 70
     1
102
RTVSPropertyOp5
 70
     1
102
RTVSPropertyOp6
 70
     1
102
RTVSPropertyOp7
 70
     1
102
RTVSPropertyOp8
 70
     1
102
RTVSPropertyOp9
 70
     1
102
RTVSPropertyOp10
 70
     1
102
RTVSPropertyOp11
 70
     1
102
RTVSPropertyOp12
 70
     1
102
RTVSPropertyOp13
 70
     1
102
RTVSPropertyOp14
 70
     1
102
RTVSPropertyOp15
 70
     1
102
RTVSPropertyOp16
 70
     1
102
RTVSPropertyOp17
 70
     1
102
RTVSPropertyOp18
 70
     1
102
RTVSPropertyOp19
 70
     1
102
RTVSPropertyOp20
 70
     1
102
RTVSPropertyOp21
 70
     1
102
RTVSPropertyOp22
 70
     1
102
RTVSPropertyOp23
 70
     1
102
RTVSPropertyOp24
 70
     1
102
RTVSPropertyOp25
 70
     1
102
RTVSPropertyOp26
 70
     1
102
RTVSPropertyOp27
 70
     1
102
RTVSPropertyOp28
 70
     1
102
RTVSPropertyOp29
 70
     1
102
RTVSPropertyOp30
 70
     1
102
RTVSPropertyOp31
 70
     1
102
RTVSPropertyOp32
 70
     1
102
RTVSPropertyOp33
 70
     1
102
RTVSPropertyOp34
 70
     1
102
RTVSPropertyOp35
 70
     1
102
RTVSPropertyOp36
 70
     1
102
RTVSPropertyOp37
 70
     1
102
RTVSPropertyOp38
 70
     1
102
RTVSPropertyOp39
 70
     1
102
RTVSPropertyOp40
 70
     1
102
RTVSPropertyOp41
 70
     1
102
RTVSPropertyOp42
 70
     1
102
RTVSPropertyOp43
 70
     1
102
RTVSPropertyOp44
 70
     1
102
RTVSPropertyOp45
 70
     1
102
RTVSPropertyOp46
 70
     1
102
RTVSPropertyOp47
 70
     1
102
RTVSPropertyOp48
 70
     1
102
RTVSPropertyOp49
 70
     1
102
RTVSPropertyOp50
 70
     1
102
RTVSPropertyOp51
 70
     0
102
RTVSPropertyOp52
 70
     0
102
RTVSPropertyOp53
 70
     1
102
RTVSPropertyOp54
 70
     1
102
RTVSPropertyOp55
 70
     1
102
RTVSPropertyOp56
 70
     1
102
RTVSPropertyOp57
 70
     1
102
RTVSPropertyOp58
 70
     1
102
RTVSPropertyOp59
 70
     1
102
RTVSPropertyOp60
 70
     1
102
RTVSPropertyOp61
 70
     1
102
RTVSPropertyOp62
 70
     1
  0
XRECORD
  5
354
102
{ACAD_REACTORS
330
353
102
}
330
353
100
AcDbXrecord
280
     1
102
RTVSPost2010Prop28
280
     0
102
RTVSPost2010PropOp28
 70
     1
102
RTVSPost2010Prop29
280
     1
102
RTVSPost2010PropOp29
 70
     1
102
RTVSPost2010Prop30
280
     1
102
RTVSPost2010PropOp30
 70
     1
102
RTVSPost2010Prop31
280
     0
102
RTVSPost2010PropOp31
 70
     1
102
RTVSPost2010Prop32
280
     0
102
RTVSPost2010PropOp32
 70
     1
102
RTVSPost2010Prop33
280
     0
102
RTVSPost2010PropOp33
 70
     1
102
RTVSPost2010Prop34
280
     0
102
RTVSPost2010PropOp34
 70
     1
102
RTVSPost2010Prop35
280
     0
102
RTVSPost2010PropOp35
 70
     1
102
RTVSPost2010Prop36
280
     0
102
RTVSPost2010PropOp36
 70
     1
102
RTVSPost2010Prop37
 90
       50
102
RTVSPost2010PropOp37
 70
     1
102
RTVSPost2010Prop38
140
0.0
102
RTVSPost2010PropOp38
 70
     1
102
RTVSPost2010Prop39
140
1.0
102
RTVSPost2010PropOp39
 70
     1
102
RTVSPost2010Prop40
 90
        0
102
RTVSPost2010PropOp40
 70
     1
102
RTVSPost2010Prop41ColorIndex
 90
       18
102
RTVSPost2010Prop41ColorRGB
 90
        0
102
RTVSPost2010PropOp41
 70
     1
102
RTVSPost2010Prop42
 90
       50
102
RTVSPost2010PropOp42
 70
     1
102
RTVSPost2010Prop43
 90
        3
102
RTVSPost2010PropOp43
 70
     1
102
RTVSPost2010Prop44ColorIndex
 90
        5
102
RTVSPost2010Prop44ColorRGB
 90
      255
102
RTVSPost2010PropOp44
 70
     1
102
RTVSPost2010Prop45
280
     0
102
RTVSPost2010PropOp45
 70
     1
102
RTVSPost2010Prop46
 90
       50
102
RTVSPost2010PropOp46
 70
     1
102
RTVSPost2010Prop47
 90
       50
102
RTVSPost2010PropOp47
 70
     1
102
RTVSPost2010Prop48
 90
       50
102
RTVSPost2010PropOp48
 70
     1
102
RTVSPost2010Prop49
280
     0
102
RTVSPost2010PropOp49
 70
     1
102
RTVSPost2010Prop50
 90
       50
102
RTVSPost2010PropOp50
 70
     1
102
RTVSPost2010Prop51ColorIndex
 90
      256
102
RTVSPost2010Prop51ColorRGB
 90
-16777216
102
RTVSPost2010PropOp51
 70
     0
102
RTVSPost2010Prop52
140
1.0
102
RTVSPost2010PropOp52
 70
     0
102
RTVSPost2010Prop53
 90
        2
102
RTVSPost2010PropOp53
 70
     1
102
RTVSPost2010Prop54
  1
strokes_ogs.tif
102
RTVSPost2010PropOp54
 70
     1
102
RTVSPost2010Prop55
280
     0
102
RTVSPost2010PropOp55
 70
     1
102
RTVSPost2010Prop56
140
1.0
102
RTVSPost2010PropOp56
 70
     1
102
RTVSPost2010Prop57
140
1.0
102
RTVSPost2010PropOp57
 70
     1
102
RTVSPropertyOp0
 70
     1
102
RTVSPropertyOp1
 70
     1
102
RTVSPropertyOp2
 70
     1
102
RTVSPropertyOp3
 70
     1
102
RTVSPropertyOp4
 70
     1
102
RTVSPropertyOp5
 70
     1
102
RTVSPropertyOp6
 70
     1
102
RTVSPropertyOp7
 70
     1
102
RTVSPropertyOp8
 70
     1
102
RTVSPropertyOp9
 70
     1
102
RTVSPropertyOp10
 70
     1
102
RTVSPropertyOp11
 70
     1
102
RTVSPropertyOp12
 70
     1
102
RTVSPropertyOp13
 70
     1
102
RTVSPropertyOp14
 70
     1
102
RTVSPropertyOp15
 70
     1
102
RTVSPropertyOp16
 70
     1
102
RTVSPropertyOp17
 70
     1
102
RTVSPropertyOp18
 70
     1
102
RTVSPropertyOp19
 70
     1
102
RTVSPropertyOp20
 70
     1
102
RTVSPropertyOp21
 70
     1
102
RTVSPropertyOp22
 70
     1
102
RTVSPropertyOp23
 70
     1
102
RTVSPropertyOp24
 70
     1
102
RTVSPropertyOp25
 70
     1
102
RTVSPropertyOp26
 70
     1
102
RTVSPropertyOp27
 70
     1
102
RTVSPropertyOp28
 70
     1
102
RTVSPropertyOp29
 70
     1
102
RTVSPropertyOp30
 70
     1
102
RTVSPropertyOp31
 70
     1
102
RTVSPropertyOp32
 70
     1
102
RTVSPropertyOp33
 70
     1
102
RTVSPropertyOp34
 70
     1
102
RTVSPropertyOp35
 70
     1
102
RTVSPropertyOp36
 70
     1
102
RTVSPropertyOp37
 70
     1
102
RTVSPropertyOp38
 70
     1
102
RTVSPropertyOp39
 70
     1
102
RTVSPropertyOp40
 70
     1
102
RTVSPropertyOp41
 70
     1
102
RTVSPropertyOp42
 70
     1
102
RTVSPropertyOp43
 70
     1
102
RTVSPropertyOp44
 70
     1
102
RTVSPropertyOp45
 70
     1
102
RTVSPropertyOp46
 70
     1
102
RTVSPropertyOp47
 70
     1
102
RTVSPropertyOp48
 70
     1
102
RTVSPropertyOp49
 70
     1
102
RTVSPropertyOp50
 70
     1
102
RTVSPropertyOp51
 70
     0
102
RTVSPropertyOp52
 70
     0
102
RTVSPropertyOp53
 70
     1
102
RTVSPropertyOp54
 70
     1
102
RTVSPropertyOp55
 70
     1
102
RTVSPropertyOp56
 70
     1
102
RTVSPropertyOp57
 70
     1
102
RTVSPropertyOp58
 70
     1
102
RTVSPropertyOp59
 70
     1
102
RTVSPropertyOp60
 70
     1
102
RTVSPropertyOp61
 70
     1
102
RTVSPropertyOp62
 70
     1
  0
XRECORD
  5
348
102
{ACAD_REACTORS
330
347
102
}
330
347
100
AcDbXrecord
280
     1
102
RTVSPost2010Prop28
280
     0
102
RTVSPost2010PropOp28
 70
     1
102
RTVSPost2010Prop29
280
     1
102
RTVSPost2010PropOp29
 70
     1
102
RTVSPost2010Prop30
280
     1
102
RTVSPost2010PropOp30
 70
     1
102
RTVSPost2010Prop31
280
     0
102
RTVSPost2010PropOp31
 70
     1
102
RTVSPost2010Prop32
280
     0
102
RTVSPost2010PropOp32
 70
     1
102
RTVSPost2010Prop33
280
     0
102
RTVSPost2010PropOp33
 70
     1
102
RTVSPost2010Prop34
280
     0
102
RTVSPost2010PropOp34
 70
     1
102
RTVSPost2010Prop35
280
     0
102
RTVSPost2010PropOp35
 70
     1
102
RTVSPost2010Prop36
280
     0
102
RTVSPost2010PropOp36
 70
     1
102
RTVSPost2010Prop37
 90
       50
102
RTVSPost2010PropOp37
 70
     1
102
RTVSPost2010Prop38
140
0.0
102
RTVSPost2010PropOp38
 70
     1
102
RTVSPost2010Prop39
140
1.0
102
RTVSPost2010PropOp39
 70
     1
102
RTVSPost2010Prop40
 90
        0
102
RTVSPost2010PropOp40
 70
     1
102
RTVSPost2010Prop41ColorIndex
 90
       18
102
RTVSPost2010Prop41ColorRGB
 90
        0
102
RTVSPost2010PropOp41
 70
     1
102
RTVSPost2010Prop42
 90
       50
102
RTVSPost2010PropOp42
 70
     1
102
RTVSPost2010Prop43
 90
        3
102
RTVSPost2010PropOp43
 70
     1
102
RTVSPost2010Prop44ColorIndex
 90
        5
102
RTVSPost2010Prop44ColorRGB
 90
      255
102
RTVSPost2010PropOp44
 70
     1
102
RTVSPost2010Prop45
280
     0
102
RTVSPost2010PropOp45
 70
     1
102
RTVSPost2010Prop46
 90
       50
102
RTVSPost2010PropOp46
 70
     1
102
RTVSPost2010Prop47
 90
       50
102
RTVSPost2010PropOp47
 70
     1
102
RTVSPost2010Prop48
 90
       50
102
RTVSPost2010PropOp48
 70
     1
102
RTVSPost2010Prop49
280
     0
102
RTVSPost2010PropOp49
 70
     1
102
RTVSPost2010Prop50
 90
       50
102
RTVSPost2010PropOp50
 70
     1
102
RTVSPost2010Prop51ColorIndex
 90
      256
102
RTVSPost2010Prop51ColorRGB
 90
-16777216
102
RTVSPost2010PropOp51
 70
     0
102
RTVSPost2010Prop52
140
1.0
102
RTVSPost2010PropOp52
 70
     0
102
RTVSPost2010Prop53
 90
        2
102
RTVSPost2010PropOp53
 70
     1
102
RTVSPost2010Prop54
  1
strokes_ogs.tif
102
RTVSPost2010PropOp54
 70
     1
102
RTVSPost2010Prop55
280
     0
102
RTVSPost2010PropOp55
 70
     1
102
RTVSPost2010Prop56
140
1.0
102
RTVSPost2010PropOp56
 70
     1
102
RTVSPost2010Prop57
140
1.0
102
RTVSPost2010PropOp57
 70
     1
102
RTVSPropertyOp0
 70
     1
102
RTVSPropertyOp1
 70
     1
102
RTVSPropertyOp2
 70
     1
102
RTVSPropertyOp3
 70
     1
102
RTVSPropertyOp4
 70
     1
102
RTVSPropertyOp5
 70
     1
102
RTVSPropertyOp6
 70
     1
102
RTVSPropertyOp7
 70
     1
102
RTVSPropertyOp8
 70
     1
102
RTVSPropertyOp9
 70
     1
102
RTVSPropertyOp10
 70
     1
102
RTVSPropertyOp11
 70
     1
102
RTVSPropertyOp12
 70
     1
102
RTVSPropertyOp13
 70
     1
102
RTVSPropertyOp14
 70
     1
102
RTVSPropertyOp15
 70
     1
102
RTVSPropertyOp16
 70
     1
102
RTVSPropertyOp17
 70
     1
102
RTVSPropertyOp18
 70
     1
102
RTVSPropertyOp19
 70
     1
102
RTVSPropertyOp20
 70
     1
102
RTVSPropertyOp21
 70
     1
102
RTVSPropertyOp22
 70
     1
102
RTVSPropertyOp23
 70
     1
102
RTVSPropertyOp24
 70
     1
102
RTVSPropertyOp25
 70
     1
102
RTVSPropertyOp26
 70
     1
102
RTVSPropertyOp27
 70
     1
102
RTVSPropertyOp28
 70
     1
102
RTVSPropertyOp29
 70
     1
102
RTVSPropertyOp30
 70
     1
102
RTVSPropertyOp31
 70
     1
102
RTVSPropertyOp32
 70
     1
102
RTVSPropertyOp33
 70
     1
102
RTVSPropertyOp34
 70
     1
102
RTVSPropertyOp35
 70
     1
102
RTVSPropertyOp36
 70
     1
102
RTVSPropertyOp37
 70
     1
102
RTVSPropertyOp38
 70
     1
102
RTVSPropertyOp39
 70
     1
102
RTVSPropertyOp40
 70
     1
102
RTVSPropertyOp41
 70
     1
102
RTVSPropertyOp42
 70
     1
102
RTVSPropertyOp43
 70
     1
102
RTVSPropertyOp44
 70
     1
102
RTVSPropertyOp45
 70
     1
102
RTVSPropertyOp46
 70
     1
102
RTVSPropertyOp47
 70
     1
102
RTVSPropertyOp48
 70
     1
102
RTVSPropertyOp49
 70
     1
102
RTVSPropertyOp50
 70
     1
102
RTVSPropertyOp51
 70
     0
102
RTVSPropertyOp52
 70
     0
102
RTVSPropertyOp53
 70
     1
102
RTVSPropertyOp54
 70
     1
102
RTVSPropertyOp55
 70
     1
102
RTVSPropertyOp56
 70
     1
102
RTVSPropertyOp57
 70
     1
102
RTVSPropertyOp58
 70
     1
102
RTVSPropertyOp59
 70
     1
102
RTVSPropertyOp60
 70
     1
102
RTVSPropertyOp61
 70
     1
102
RTVSPropertyOp62
 70
     1
  0
XRECORD
  5
34A
102
{ACAD_REACTORS
330
349
102
}
330
349
100
AcDbXrecord
280
     1
102
RTVSPost2010Prop28
280
     0
102
RTVSPost2010PropOp28
 70
     1
102
RTVSPost2010Prop29
280
     1
102
RTVSPost2010PropOp29
 70
     1
102
RTVSPost2010Prop30
280
     1
102
RTVSPost2010PropOp30
 70
     1
102
RTVSPost2010Prop31
280
     0
102
RTVSPost2010PropOp31
 70
     1
102
RTVSPost2010Prop32
280
     0
102
RTVSPost2010PropOp32
 70
     1
102
RTVSPost2010Prop33
280
     0
102
RTVSPost2010PropOp33
 70
     1
102
RTVSPost2010Prop34
280
     0
102
RTVSPost2010PropOp34
 70
     1
102
RTVSPost2010Prop35
280
     0
102
RTVSPost2010PropOp35
 70
     1
102
RTVSPost2010Prop36
280
     0
102
RTVSPost2010PropOp36
 70
     1
102
RTVSPost2010Prop37
 90
       50
102
RTVSPost2010PropOp37
 70
     1
102
RTVSPost2010Prop38
140
0.0
102
RTVSPost2010PropOp38
 70
     1
102
RTVSPost2010Prop39
140
1.0
102
RTVSPost2010PropOp39
 70
     1
102
RTVSPost2010Prop40
 90
        0
102
RTVSPost2010PropOp40
 70
     1
102
RTVSPost2010Prop41ColorIndex
 90
       18
102
RTVSPost2010Prop41ColorRGB
 90
        0
102
RTVSPost2010PropOp41
 70
     1
102
RTVSPost2010Prop42
 90
       50
102
RTVSPost2010PropOp42
 70
     1
102
RTVSPost2010Prop43
 90
        3
102
RTVSPost2010PropOp43
 70
     1
102
RTVSPost2010Prop44ColorIndex
 90
        5
102
RTVSPost2010Prop44ColorRGB
 90
      255
102
RTVSPost2010PropOp44
 70
     1
102
RTVSPost2010Prop45
280
     0
102
RTVSPost2010PropOp45
 70
     1
102
RTVSPost2010Prop46
 90
       50
102
RTVSPost2010PropOp46
 70
     1
102
RTVSPost2010Prop47
 90
       50
102
RTVSPost2010PropOp47
 70
     1
102
RTVSPost2010Prop48
 90
       50
102
RTVSPost2010PropOp48
 70
     1
102
RTVSPost2010Prop49
280
     0
102
RTVSPost2010PropOp49
 70
     1
102
RTVSPost2010Prop50
 90
       50
102
RTVSPost2010PropOp50
 70
     1
102
RTVSPost2010Prop51ColorIndex
 90
      256
102
RTVSPost2010Prop51ColorRGB
 90
-16777216
102
RTVSPost2010PropOp51
 70
     0
102
RTVSPost2010Prop52
140
1.0
102
RTVSPost2010PropOp52
 70
     0
102
RTVSPost2010Prop53
 90
        2
102
RTVSPost2010PropOp53
 70
     1
102
RTVSPost2010Prop54
  1
strokes_ogs.tif
102
RTVSPost2010PropOp54
 70
     1
102
RTVSPost2010Prop55
280
     0
102
RTVSPost2010PropOp55
 70
     1
102
RTVSPost2010Prop56
140
1.0
102
RTVSPost2010PropOp56
 70
     1
102
RTVSPost2010Prop57
140
1.0
102
RTVSPost2010PropOp57
 70
     1
102
RTVSPropertyOp0
 70
     1
102
RTVSPropertyOp1
 70
     1
102
RTVSPropertyOp2
 70
     1
102
RTVSPropertyOp3
 70
     1
102
RTVSPropertyOp4
 70
     1
102
RTVSPropertyOp5
 70
     1
102
RTVSPropertyOp6
 70
     1
102
RTVSPropertyOp7
 70
     1
102
RTVSPropertyOp8
 70
     1
102
RTVSPropertyOp9
 70
     1
102
RTVSPropertyOp10
 70
     1
102
RTVSPropertyOp11
 70
     1
102
RTVSPropertyOp12
 70
     1
102
RTVSPropertyOp13
 70
     1
102
RTVSPropertyOp14
 70
     1
102
RTVSPropertyOp15
 70
     1
102
RTVSPropertyOp16
 70
     1
102
RTVSPropertyOp17
 70
     1
102
RTVSPropertyOp18
 70
     1
102
RTVSPropertyOp19
 70
     1
102
RTVSPropertyOp20
 70
     1
102
RTVSPropertyOp21
 70
     1
102
RTVSPropertyOp22
 70
     1
102
RTVSPropertyOp23
 70
     1
102
RTVSPropertyOp24
 70
     1
102
RTVSPropertyOp25
 70
     1
102
RTVSPropertyOp26
 70
     1
102
RTVSPropertyOp27
 70
     1
102
RTVSPropertyOp28
 70
     1
102
RTVSPropertyOp29
 70
     1
102
RTVSPropertyOp30
 70
     1
102
RTVSPropertyOp31
 70
     1
102
RTVSPropertyOp32
 70
     1
102
RTVSPropertyOp33
 70
     1
102
RTVSPropertyOp34
 70
     1
102
RTVSPropertyOp35
 70
     1
102
RTVSPropertyOp36
 70
     1
102
RTVSPropertyOp37
 70
     1
102
RTVSPropertyOp38
 70
     1
102
RTVSPropertyOp39
 70
     1
102
RTVSPropertyOp40
 70
     1
102
RTVSPropertyOp41
 70
     1
102
RTVSPropertyOp42
 70
     1
102
RTVSPropertyOp43
 70
     1
102
RTVSPropertyOp44
 70
     1
102
RTVSPropertyOp45
 70
     1
102
RTVSPropertyOp46
 70
     1
102
RTVSPropertyOp47
 70
     1
102
RTVSPropertyOp48
 70
     1
102
RTVSPropertyOp49
 70
     1
102
RTVSPropertyOp50
 70
     1
102
RTVSPropertyOp51
 70
     0
102
RTVSPropertyOp52
 70
     0
102
RTVSPropertyOp53
 70
     1
102
RTVSPropertyOp54
 70
     1
102
RTVSPropertyOp55
 70
     1
102
RTVSPropertyOp56
 70
     1
102
RTVSPropertyOp57
 70
     1
102
RTVSPropertyOp58
 70
     1
102
RTVSPropertyOp59
 70
     1
102
RTVSPropertyOp60
 70
     1
102
RTVSPropertyOp61
 70
     1
102
RTVSPropertyOp62
 70
     1
  0
XRECORD
  5
35A
102
{ACAD_REACTORS
330
359
102
}
330
359
100
AcDbXrecord
280
     1
102
RTVSPost2010Prop28
280
     0
102
RTVSPost2010PropOp28
 70
     0
102
RTVSPost2010Prop29
280
     1
102
RTVSPost2010PropOp29
 70
     0
102
RTVSPost2010Prop30
280
     1
102
RTVSPost2010PropOp30
 70
     0
102
RTVSPost2010Prop31
280
     0
102
RTVSPost2010PropOp31
 70
     0
102
RTVSPost2010Prop32
280
     0
102
RTVSPost2010PropOp32
 70
     0
102
RTVSPost2010Prop33
280
     0
102
RTVSPost2010PropOp33
 70
     0
102
RTVSPost2010Prop34
280
     0
102
RTVSPost2010PropOp34
 70
     0
102
RTVSPost2010Prop35
280
     0
102
RTVSPost2010PropOp35
 70
     0
102
RTVSPost2010Prop36
280
     0
102
RTVSPost2010PropOp36
 70
     0
102
RTVSPost2010Prop37
 90
       50
102
RTVSPost2010PropOp37
 70
     0
102
RTVSPost2010Prop38
140
0.0
102
RTVSPost2010PropOp38
 70
     0
102
RTVSPost2010Prop39
140
1.0
102
RTVSPost2010PropOp39
 70
     0
102
RTVSPost2010Prop40
 90
        0
102
RTVSPost2010PropOp40
 70
     0
102
RTVSPost2010Prop41ColorIndex
 90
       18
102
RTVSPost2010Prop41ColorRGB
 90
        0
102
RTVSPost2010PropOp41
 70
     0
102
RTVSPost2010Prop42
 90
       50
102
RTVSPost2010PropOp42
 70
     0
102
RTVSPost2010Prop43
 90
        3
102
RTVSPost2010PropOp43
 70
     0
102
RTVSPost2010Prop44ColorIndex
 90
        5
102
RTVSPost2010Prop44ColorRGB
 90
      255
102
RTVSPost2010PropOp44
 70
     0
102
RTVSPost2010Prop45
280
     0
102
RTVSPost2010PropOp45
 70
     0
102
RTVSPost2010Prop46
 90
       50
102
RTVSPost2010PropOp46
 70
     0
102
RTVSPost2010Prop47
 90
       50
102
RTVSPost2010PropOp47
 70
     0
102
RTVSPost2010Prop48
 90
       50
102
RTVSPost2010PropOp48
 70
     0
102
RTVSPost2010Prop49
280
     0
102
RTVSPost2010PropOp49
 70
     0
102
RTVSPost2010Prop50
 90
       50
102
RTVSPost2010PropOp50
 70
     0
102
RTVSPost2010Prop51ColorIndex
 90
      256
102
RTVSPost2010Prop51ColorRGB
 90
-16777216
102
RTVSPost2010PropOp51
 70
     0
102
RTVSPost2010Prop52
140
1.0
102
RTVSPost2010PropOp52
 70
     0
102
RTVSPost2010Prop53
 90
        2
102
RTVSPost2010PropOp53
 70
     0
102
RTVSPost2010Prop54
  1
strokes_ogs.tif
102
RTVSPost2010PropOp54
 70
     0
102
RTVSPost2010Prop55
280
     0
102
RTVSPost2010PropOp55
 70
     0
102
RTVSPost2010Prop56
140
1.0
102
RTVSPost2010PropOp56
 70
     0
102
RTVSPost2010Prop57
140
1.0
102
RTVSPost2010PropOp57
 70
     0
102
RTVSPropertyOp0
 70
     0
102
RTVSPropertyOp1
 70
     0
102
RTVSPropertyOp2
 70
     0
102
RTVSPropertyOp3
 70
     0
102
RTVSPropertyOp4
 70
     0
102
RTVSPropertyOp5
 70
     0
102
RTVSPropertyOp6
 70
     0
102
RTVSPropertyOp7
 70
     0
102
RTVSPropertyOp8
 70
     0
102
RTVSPropertyOp9
 70
     0
102
RTVSPropertyOp10
 70
     0
102
RTVSPropertyOp11
 70
     0
102
RTVSPropertyOp12
 70
     0
102
RTVSPropertyOp13
 70
     0
102
RTVSPropertyOp14
 70
     2
102
RTVSPropertyOp15
 70
     0
102
RTVSPropertyOp16
 70
     0
102
RTVSPropertyOp17
 70
     0
102
RTVSPropertyOp18
 70
     0
102
RTVSPropertyOp19
 70
     0
102
RTVSPropertyOp20
 70
     0
102
RTVSPropertyOp21
 70
     0
102
RTVSPropertyOp22
 70
     0
102
RTVSPropertyOp23
 70
     0
102
RTVSPropertyOp24
 70
     0
102
RTVSPropertyOp25
 70
     0
102
RTVSPropertyOp26
 70
     0
102
RTVSPropertyOp27
 70
     0
102
RTVSPropertyOp28
 70
     0
102
RTVSPropertyOp29
 70
     0
102
RTVSPropertyOp30
 70
     0
102
RTVSPropertyOp31
 70
     0
102
RTVSPropertyOp32
 70
     0
102
RTVSPropertyOp33
 70
     0
102
RTVSPropertyOp34
 70
     0
102
RTVSPropertyOp35
 70
     0
102
RTVSPropertyOp36
 70
     0
102
RTVSPropertyOp37
 70
     0
102
RTVSPropertyOp38
 70
     0
102
RTVSPropertyOp39
 70
     0
102
RTVSPropertyOp40
 70
     0
102
RTVSPropertyOp41
 70
     0
102
RTVSPropertyOp42
 70
     0
102
RTVSPropertyOp43
 70
     0
102
RTVSPropertyOp44
 70
     0
102
RTVSPropertyOp45
 70
     0
102
RTVSPropertyOp46
 70
     0
102
RTVSPropertyOp47
 70
     0
102
RTVSPropertyOp48
 70
     0
102
RTVSPropertyOp49
 70
     0
102
RTVSPropertyOp50
 70
     0
102
RTVSPropertyOp51
 70
     0
102
RTVSPropertyOp52
 70
     0
102
RTVSPropertyOp53
 70
     0
102
RTVSPropertyOp54
 70
     0
102
RTVSPropertyOp55
 70
     0
102
RTVSPropertyOp56
 70
     0
102
RTVSPropertyOp57
 70
     0
102
RTVSPropertyOp58
 70
     1
102
RTVSPropertyOp59
 70
     1
102
RTVSPropertyOp60
 70
     1
102
RTVSPropertyOp61
 70
     1
102
RTVSPropertyOp62
 70
     1
  0
XRECORD
  5
352
102
{ACAD_REACTORS
330
351
102
}
330
351
100
AcDbXrecord
280
     1
102
RTVSPost2010Prop28
280
     0
102
RTVSPost2010PropOp28
 70
     1
102
RTVSPost2010Prop29
280
     1
102
RTVSPost2010PropOp29
 70
     1
102
RTVSPost2010Prop30
280
     1
102
RTVSPost2010PropOp30
 70
     1
102
RTVSPost2010Prop31
280
     0
102
RTVSPost2010PropOp31
 70
     1
102
RTVSPost2010Prop32
280
     0
102
RTVSPost2010PropOp32
 70
     1
102
RTVSPost2010Prop33
280
     0
102
RTVSPost2010PropOp33
 70
     1
102
RTVSPost2010Prop34
280
     0
102
RTVSPost2010PropOp34
 70
     1
102
RTVSPost2010Prop35
280
     0
102
RTVSPost2010PropOp35
 70
     1
102
RTVSPost2010Prop36
280
     0
102
RTVSPost2010PropOp36
 70
     1
102
RTVSPost2010Prop37
 90
       50
102
RTVSPost2010PropOp37
 70
     1
102
RTVSPost2010Prop38
140
0.0
102
RTVSPost2010PropOp38
 70
     1
102
RTVSPost2010Prop39
140
1.0
102
RTVSPost2010PropOp39
 70
     1
102
RTVSPost2010Prop40
 90
        0
102
RTVSPost2010PropOp40
 70
     1
102
RTVSPost2010Prop41ColorIndex
 90
       18
102
RTVSPost2010Prop41ColorRGB
 90
        0
102
RTVSPost2010PropOp41
 70
     1
102
RTVSPost2010Prop42
 90
       50
102
RTVSPost2010PropOp42
 70
     1
102
RTVSPost2010Prop43
 90
        3
102
RTVSPost2010PropOp43
 70
     1
102
RTVSPost2010Prop44ColorIndex
 90
        5
102
RTVSPost2010Prop44ColorRGB
 90
      255
102
RTVSPost2010PropOp44
 70
     1
102
RTVSPost2010Prop45
280
     0
102
RTVSPost2010PropOp45
 70
     1
102
RTVSPost2010Prop46
 90
       50
102
RTVSPost2010PropOp46
 70
     1
102
RTVSPost2010Prop47
 90
       50
102
RTVSPost2010PropOp47
 70
     1
102
RTVSPost2010Prop48
 90
       50
102
RTVSPost2010PropOp48
 70
     1
102
RTVSPost2010Prop49
280
     0
102
RTVSPost2010PropOp49
 70
     1
102
RTVSPost2010Prop50
 90
       50
102
RTVSPost2010PropOp50
 70
     1
102
RTVSPost2010Prop51ColorIndex
 90
      256
102
RTVSPost2010Prop51ColorRGB
 90
-16777216
102
RTVSPost2010PropOp51
 70
     0
102
RTVSPost2010Prop52
140
1.0
102
RTVSPost2010PropOp52
 70
     0
102
RTVSPost2010Prop53
 90
        2
102
RTVSPost2010PropOp53
 70
     1
102
RTVSPost2010Prop54
  1
strokes_ogs.tif
102
RTVSPost2010PropOp54
 70
     1
102
RTVSPost2010Prop55
280
     0
102
RTVSPost2010PropOp55
 70
     1
102
RTVSPost2010Prop56
140
1.0
102
RTVSPost2010PropOp56
 70
     1
102
RTVSPost2010Prop57
140
1.0
102
RTVSPost2010PropOp57
 70
     1
102
RTVSPropertyOp0
 70
     1
102
RTVSPropertyOp1
 70
     1
102
RTVSPropertyOp2
 70
     1
102
RTVSPropertyOp3
 70
     1
102
RTVSPropertyOp4
 70
     1
102
RTVSPropertyOp5
 70
     1
102
RTVSPropertyOp6
 70
     1
102
RTVSPropertyOp7
 70
     1
102
RTVSPropertyOp8
 70
     1
102
RTVSPropertyOp9
 70
     1
102
RTVSPropertyOp10
 70
     1
102
RTVSPropertyOp11
 70
     1
102
RTVSPropertyOp12
 70
     1
102
RTVSPropertyOp13
 70
     1
102
RTVSPropertyOp14
 70
     1
102
RTVSPropertyOp15
 70
     1
102
RTVSPropertyOp16
 70
     1
102
RTVSPropertyOp17
 70
     1
102
RTVSPropertyOp18
 70
     1
102
RTVSPropertyOp19
 70
     1
102
RTVSPropertyOp20
 70
     1
102
RTVSPropertyOp21
 70
     1
102
RTVSPropertyOp22
 70
     1
102
RTVSPropertyOp23
 70
     1
102
RTVSPropertyOp24
 70
     1
102
RTVSPropertyOp25
 70
     1
102
RTVSPropertyOp26
 70
     1
102
RTVSPropertyOp27
 70
     1
102
RTVSPropertyOp28
 70
     1
102
RTVSPropertyOp29
 70
     1
102
RTVSPropertyOp30
 70
     1
102
RTVSPropertyOp31
 70
     1
102
RTVSPropertyOp32
 70
     1
102
RTVSPropertyOp33
 70
     1
102
RTVSPropertyOp34
 70
     1
102
RTVSPropertyOp35
 70
     1
102
RTVSPropertyOp36
 70
     1
102
RTVSPropertyOp37
 70
     1
102
RTVSPropertyOp38
 70
     1
102
RTVSPropertyOp39
 70
     1
102
RTVSPropertyOp40
 70
     1
102
RTVSPropertyOp41
 70
     1
102
RTVSPropertyOp42
 70
     1
102
RTVSPropertyOp43
 70
     1
102
RTVSPropertyOp44
 70
     1
102
RTVSPropertyOp45
 70
     1
102
RTVSPropertyOp46
 70
     1
102
RTVSPropertyOp47
 70
     1
102
RTVSPropertyOp48
 70
     1
102
RTVSPropertyOp49
 70
     1
102
RTVSPropertyOp50
 70
     1
102
RTVSPropertyOp51
 70
     0
102
RTVSPropertyOp52
 70
     0
102
RTVSPropertyOp53
 70
     1
102
RTVSPropertyOp54
 70
     1
102
RTVSPropertyOp55
 70
     1
102
RTVSPropertyOp56
 70
     1
102
RTVSPropertyOp57
 70
     1
102
RTVSPropertyOp58
 70
     1
102
RTVSPropertyOp59
 70
     1
102
RTVSPropertyOp60
 70
     1
102
RTVSPropertyOp61
 70
     1
102
RTVSPropertyOp62
 70
     1
  0
XRECORD
  5
336
102
{ACAD_REACTORS
330
335
102
}
330
335
100
AcDbXrecord
280
     1
102
RTVSPost2010Prop28
280
     0
102
RTVSPost2010PropOp28
 70
     1
102
RTVSPost2010Prop29
280
     1
102
RTVSPost2010PropOp29
 70
     1
102
RTVSPost2010Prop30
280
     1
102
RTVSPost2010PropOp30
 70
     1
102
RTVSPost2010Prop31
280
     0
102
RTVSPost2010PropOp31
 70
     1
102
RTVSPost2010Prop32
280
     0
102
RTVSPost2010PropOp32
 70
     1
102
RTVSPost2010Prop33
280
     0
102
RTVSPost2010PropOp33
 70
     1
102
RTVSPost2010Prop34
280
     0
102
RTVSPost2010PropOp34
 70
     1
102
RTVSPost2010Prop35
280
     0
102
RTVSPost2010PropOp35
 70
     1
102
RTVSPost2010Prop36
280
     0
102
RTVSPost2010PropOp36
 70
     1
102
RTVSPost2010Prop37
 90
       50
102
RTVSPost2010PropOp37
 70
     1
102
RTVSPost2010Prop38
140
0.0
102
RTVSPost2010PropOp38
 70
     1
102
RTVSPost2010Prop39
140
1.0
102
RTVSPost2010PropOp39
 70
     1
102
RTVSPost2010Prop40
 90
        0
102
RTVSPost2010PropOp40
 70
     1
102
RTVSPost2010Prop41ColorIndex
 90
       18
102
RTVSPost2010Prop41ColorRGB
 90
        0
102
RTVSPost2010PropOp41
 70
     1
102
RTVSPost2010Prop42
 90
       50
102
RTVSPost2010PropOp42
 70
     1
102
RTVSPost2010Prop43
 90
        3
102
RTVSPost2010PropOp43
 70
     1
102
RTVSPost2010Prop44ColorIndex
 90
        5
102
RTVSPost2010Prop44ColorRGB
 90
      255
102
RTVSPost2010PropOp44
 70
     1
102
RTVSPost2010Prop45
280
     0
102
RTVSPost2010PropOp45
 70
     1
102
RTVSPost2010Prop46
 90
       50
102
RTVSPost2010PropOp46
 70
     1
102
RTVSPost2010Prop47
 90
       50
102
RTVSPost2010PropOp47
 70
     1
102
RTVSPost2010Prop48
 90
       50
102
RTVSPost2010PropOp48
 70
     1
102
RTVSPost2010Prop49
280
     0
102
RTVSPost2010PropOp49
 70
     1
102
RTVSPost2010Prop50
 90
       50
102
RTVSPost2010PropOp50
 70
     1
102
RTVSPost2010Prop51ColorIndex
 90
      256
102
RTVSPost2010Prop51ColorRGB
 90
-16777216
102
RTVSPost2010PropOp51
 70
     0
102
RTVSPost2010Prop52
140
1.0
102
RTVSPost2010PropOp52
 70
     0
102
RTVSPost2010Prop53
 90
        2
102
RTVSPost2010PropOp53
 70
     1
102
RTVSPost2010Prop54
  1
strokes_ogs.tif
102
RTVSPost2010PropOp54
 70
     1
102
RTVSPost2010Prop55
280
     0
102
RTVSPost2010PropOp55
 70
     1
102
RTVSPost2010Prop56
140
1.0
102
RTVSPost2010PropOp56
 70
     1
102
RTVSPost2010Prop57
140
1.0
102
RTVSPost2010PropOp57
 70
     1
102
RTVSPropertyOp0
 70
     1
102
RTVSPropertyOp1
 70
     1
102
RTVSPropertyOp2
 70
     1
102
RTVSPropertyOp3
 70
     1
102
RTVSPropertyOp4
 70
     1
102
RTVSPropertyOp5
 70
     1
102
RTVSPropertyOp6
 70
     1
102
RTVSPropertyOp7
 70
     1
102
RTVSPropertyOp8
 70
     1
102
RTVSPropertyOp9
 70
     1
102
RTVSPropertyOp10
 70
     1
102
RTVSPropertyOp11
 70
     1
102
RTVSPropertyOp12
 70
     1
102
RTVSPropertyOp13
 70
     1
102
RTVSPropertyOp14
 70
     1
102
RTVSPropertyOp15
 70
     1
102
RTVSPropertyOp16
 70
     1
102
RTVSPropertyOp17
 70
     1
102
RTVSPropertyOp18
 70
     1
102
RTVSPropertyOp19
 70
     1
102
RTVSPropertyOp20
 70
     1
102
RTVSPropertyOp21
 70
     1
102
RTVSPropertyOp22
 70
     1
102
RTVSPropertyOp23
 70
     1
102
RTVSPropertyOp24
 70
     1
102
RTVSPropertyOp25
 70
     1
102
RTVSPropertyOp26
 70
     1
102
RTVSPropertyOp27
 70
     1
102
RTVSPropertyOp28
 70
     1
102
RTVSPropertyOp29
 70
     1
102
RTVSPropertyOp30
 70
     1
102
RTVSPropertyOp31
 70
     1
102
RTVSPropertyOp32
 70
     1
102
RTVSPropertyOp33
 70
     1
102
RTVSPropertyOp34
 70
     1
102
RTVSPropertyOp35
 70
     1
102
RTVSPropertyOp36
 70
     1
102
RTVSPropertyOp37
 70
     1
102
RTVSPropertyOp38
 70
     1
102
RTVSPropertyOp39
 70
     1
102
RTVSPropertyOp40
 70
     1
102
RTVSPropertyOp41
 70
     1
102
RTVSPropertyOp42
 70
     1
102
RTVSPropertyOp43
 70
     1
102
RTVSPropertyOp44
 70
     1
102
RTVSPropertyOp45
 70
     1
102
RTVSPropertyOp46
 70
     1
102
RTVSPropertyOp47
 70
     1
102
RTVSPropertyOp48
 70
     1
102
RTVSPropertyOp49
 70
     1
102
RTVSPropertyOp50
 70
     1
102
RTVSPropertyOp51
 70
     0
102
RTVSPropertyOp52
 70
     0
102
RTVSPropertyOp53
 70
     1
102
RTVSPropertyOp54
 70
     1
102
RTVSPropertyOp55
 70
     1
102
RTVSPropertyOp56
 70
     1
102
RTVSPropertyOp57
 70
     1
102
RTVSPropertyOp58
 70
     1
102
RTVSPropertyOp59
 70
     1
102
RTVSPropertyOp60
 70
     1
102
RTVSPropertyOp61
 70
     1
102
RTVSPropertyOp62
 70
     1
  0
XRECORD
  5
338
102
{ACAD_REACTORS
330
337
102
}
330
337
100
AcDbXrecord
280
     1
102
RTVSPost2010Prop28
280
     0
102
RTVSPost2010PropOp28
 70
     1
102
RTVSPost2010Prop29
280
     1
102
RTVSPost2010PropOp29
 70
     1
102
RTVSPost2010Prop30
280
     1
102
RTVSPost2010PropOp30
 70
     1
102
RTVSPost2010Prop31
280
     0
102
RTVSPost2010PropOp31
 70
     1
102
RTVSPost2010Prop32
280
     0
102
RTVSPost2010PropOp32
 70
     1
102
RTVSPost2010Prop33
280
     0
102
RTVSPost2010PropOp33
 70
     1
102
RTVSPost2010Prop34
280
     0
102
RTVSPost2010PropOp34
 70
     1
102
RTVSPost2010Prop35
280
     0
102
RTVSPost2010PropOp35
 70
     1
102
RTVSPost2010Prop36
280
     0
102
RTVSPost2010PropOp36
 70
     1
102
RTVSPost2010Prop37
 90
       50
102
RTVSPost2010PropOp37
 70
     1
102
RTVSPost2010Prop38
140
0.0
102
RTVSPost2010PropOp38
 70
     1
102
RTVSPost2010Prop39
140
1.0
102
RTVSPost2010PropOp39
 70
     1
102
RTVSPost2010Prop40
 90
        0
102
RTVSPost2010PropOp40
 70
     1
102
RTVSPost2010Prop41ColorIndex
 90
       18
102
RTVSPost2010Prop41ColorRGB
 90
        0
102
RTVSPost2010PropOp41
 70
     1
102
RTVSPost2010Prop42
 90
       50
102
RTVSPost2010PropOp42
 70
     1
102
RTVSPost2010Prop43
 90
        3
102
RTVSPost2010PropOp43
 70
     1
102
RTVSPost2010Prop44ColorIndex
 90
        5
102
RTVSPost2010Prop44ColorRGB
 90
      255
102
RTVSPost2010PropOp44
 70
     1
102
RTVSPost2010Prop45
280
     0
102
RTVSPost2010PropOp45
 70
     1
102
RTVSPost2010Prop46
 90
       50
102
RTVSPost2010PropOp46
 70
     1
102
RTVSPost2010Prop47
 90
       50
102
RTVSPost2010PropOp47
 70
     1
102
RTVSPost2010Prop48
 90
       50
102
RTVSPost2010PropOp48
 70
     1
102
RTVSPost2010Prop49
280
     0
102
RTVSPost2010PropOp49
 70
     1
102
RTVSPost2010Prop50
 90
       50
102
RTVSPost2010PropOp50
 70
     1
102
RTVSPost2010Prop51ColorIndex
 90
      256
102
RTVSPost2010Prop51ColorRGB
 90
-16777216
102
RTVSPost2010PropOp51
 70
     0
102
RTVSPost2010Prop52
140
1.0
102
RTVSPost2010PropOp52
 70
     0
102
RTVSPost2010Prop53
 90
        2
102
RTVSPost2010PropOp53
 70
     1
102
RTVSPost2010Prop54
  1
strokes_ogs.tif
102
RTVSPost2010PropOp54
 70
     1
102
RTVSPost2010Prop55
280
     0
102
RTVSPost2010PropOp55
 70
     1
102
RTVSPost2010Prop56
140
1.0
102
RTVSPost2010PropOp56
 70
     1
102
RTVSPost2010Prop57
140
1.0
102
RTVSPost2010PropOp57
 70
     1
102
RTVSPropertyOp0
 70
     1
102
RTVSPropertyOp1
 70
     1
102
RTVSPropertyOp2
 70
     1
102
RTVSPropertyOp3
 70
     1
102
RTVSPropertyOp4
 70
     1
102
RTVSPropertyOp5
 70
     1
102
RTVSPropertyOp6
 70
     1
102
RTVSPropertyOp7
 70
     1
102
RTVSPropertyOp8
 70
     1
102
RTVSPropertyOp9
 70
     1
102
RTVSPropertyOp10
 70
     1
102
RTVSPropertyOp11
 70
     1
102
RTVSPropertyOp12
 70
     1
102
RTVSPropertyOp13
 70
     1
102
RTVSPropertyOp14
 70
     1
102
RTVSPropertyOp15
 70
     1
102
RTVSPropertyOp16
 70
     1
102
RTVSPropertyOp17
 70
     1
102
RTVSPropertyOp18
 70
     1
102
RTVSPropertyOp19
 70
     1
102
RTVSPropertyOp20
 70
     1
102
RTVSPropertyOp21
 70
     1
102
RTVSPropertyOp22
 70
     1
102
RTVSPropertyOp23
 70
     1
102
RTVSPropertyOp24
 70
     1
102
RTVSPropertyOp25
 70
     1
102
RTVSPropertyOp26
 70
     1
102
RTVSPropertyOp27
 70
     1
102
RTVSPropertyOp28
 70
     1
102
RTVSPropertyOp29
 70
     1
102
RTVSPropertyOp30
 70
     1
102
RTVSPropertyOp31
 70
     1
102
RTVSPropertyOp32
 70
     1
102
RTVSPropertyOp33
 70
     1
102
RTVSPropertyOp34
 70
     1
102
RTVSPropertyOp35
 70
     1
102
RTVSPropertyOp36
 70
     1
102
RTVSPropertyOp37
 70
     1
102
RTVSPropertyOp38
 70
     1
102
RTVSPropertyOp39
 70
     1
102
RTVSPropertyOp40
 70
     1
102
RTVSPropertyOp41
 70
     1
102
RTVSPropertyOp42
 70
     1
102
RTVSPropertyOp43
 70
     1
102
RTVSPropertyOp44
 70
     1
102
RTVSPropertyOp45
 70
     1
102
RTVSPropertyOp46
 70
     1
102
RTVSPropertyOp47
 70
     1
102
RTVSPropertyOp48
 70
     1
102
RTVSPropertyOp49
 70
     1
102
RTVSPropertyOp50
 70
     1
102
RTVSPropertyOp51
 70
     0
102
RTVSPropertyOp52
 70
     0
102
RTVSPropertyOp53
 70
     1
102
RTVSPropertyOp54
 70
     1
102
RTVSPropertyOp55
 70
     1
102
RTVSPropertyOp56
 70
     1
102
RTVSPropertyOp57
 70
     1
102
RTVSPropertyOp58
 70
     1
102
RTVSPropertyOp59
 70
     1
102
RTVSPropertyOp60
 70
     1
102
RTVSPropertyOp61
 70
     1
102
RTVSPropertyOp62
 70
     1
  0
XRECORD
  5
33A
102
{ACAD_REACTORS
330
339
102
}
330
339
100
AcDbXrecord
280
     1
102
RTVSPost2010Prop28
280
     0
102
RTVSPost2010PropOp28
 70
     1
102
RTVSPost2010Prop29
280
     1
102
RTVSPost2010PropOp29
 70
     1
102
RTVSPost2010Prop30
280
     1
102
RTVSPost2010PropOp30
 70
     1
102
RTVSPost2010Prop31
280
     0
102
RTVSPost2010PropOp31
 70
     1
102
RTVSPost2010Prop32
280
     0
102
RTVSPost2010PropOp32
 70
     1
102
RTVSPost2010Prop33
280
     0
102
RTVSPost2010PropOp33
 70
     1
102
RTVSPost2010Prop34
280
     0
102
RTVSPost2010PropOp34
 70
     1
102
RTVSPost2010Prop35
280
     0
102
RTVSPost2010PropOp35
 70
     1
102
RTVSPost2010Prop36
280
     0
102
RTVSPost2010PropOp36
 70
     1
102
RTVSPost2010Prop37
 90
       50
102
RTVSPost2010PropOp37
 70
     1
102
RTVSPost2010Prop38
140
0.0
102
RTVSPost2010PropOp38
 70
     1
102
RTVSPost2010Prop39
140
1.0
102
RTVSPost2010PropOp39
 70
     1
102
RTVSPost2010Prop40
 90
        0
102
RTVSPost2010PropOp40
 70
     1
102
RTVSPost2010Prop41ColorIndex
 90
       18
102
RTVSPost2010Prop41ColorRGB
 90
        0
102
RTVSPost2010PropOp41
 70
     1
102
RTVSPost2010Prop42
 90
       50
102
RTVSPost2010PropOp42
 70
     1
102
RTVSPost2010Prop43
 90
        3
102
RTVSPost2010PropOp43
 70
     1
102
RTVSPost2010Prop44ColorIndex
 90
        5
102
RTVSPost2010Prop44ColorRGB
 90
      255
102
RTVSPost2010PropOp44
 70
     1
102
RTVSPost2010Prop45
280
     0
102
RTVSPost2010PropOp45
 70
     1
102
RTVSPost2010Prop46
 90
       50
102
RTVSPost2010PropOp46
 70
     1
102
RTVSPost2010Prop47
 90
       50
102
RTVSPost2010PropOp47
 70
     1
102
RTVSPost2010Prop48
 90
       50
102
RTVSPost2010PropOp48
 70
     1
102
RTVSPost2010Prop49
280
     0
102
RTVSPost2010PropOp49
 70
     1
102
RTVSPost2010Prop50
 90
       50
102
RTVSPost2010PropOp50
 70
     1
102
RTVSPost2010Prop51ColorIndex
 90
      256
102
RTVSPost2010Prop51ColorRGB
 90
-16777216
102
RTVSPost2010PropOp51
 70
     0
102
RTVSPost2010Prop52
140
1.0
102
RTVSPost2010PropOp52
 70
     0
102
RTVSPost2010Prop53
 90
        2
102
RTVSPost2010PropOp53
 70
     1
102
RTVSPost2010Prop54
  1
strokes_ogs.tif
102
RTVSPost2010PropOp54
 70
     1
102
RTVSPost2010Prop55
280
     0
102
RTVSPost2010PropOp55
 70
     1
102
RTVSPost2010Prop56
140
1.0
102
RTVSPost2010PropOp56
 70
     1
102
RTVSPost2010Prop57
140
1.0
102
RTVSPost2010PropOp57
 70
     1
102
RTVSPropertyOp0
 70
     1
102
RTVSPropertyOp1
 70
     1
102
RTVSPropertyOp2
 70
     1
102
RTVSPropertyOp3
 70
     1
102
RTVSPropertyOp4
 70
     1
102
RTVSPropertyOp5
 70
     1
102
RTVSPropertyOp6
 70
     1
102
RTVSPropertyOp7
 70
     1
102
RTVSPropertyOp8
 70
     1
102
RTVSPropertyOp9
 70
     1
102
RTVSPropertyOp10
 70
     1
102
RTVSPropertyOp11
 70
     1
102
RTVSPropertyOp12
 70
     1
102
RTVSPropertyOp13
 70
     1
102
RTVSPropertyOp14
 70
     1
102
RTVSPropertyOp15
 70
     1
102
RTVSPropertyOp16
 70
     1
102
RTVSPropertyOp17
 70
     1
102
RTVSPropertyOp18
 70
     1
102
RTVSPropertyOp19
 70
     1
102
RTVSPropertyOp20
 70
     1
102
RTVSPropertyOp21
 70
     1
102
RTVSPropertyOp22
 70
     1
102
RTVSPropertyOp23
 70
     1
102
RTVSPropertyOp24
 70
     1
102
RTVSPropertyOp25
 70
     1
102
RTVSPropertyOp26
 70
     1
102
RTVSPropertyOp27
 70
     1
102
RTVSPropertyOp28
 70
     1
102
RTVSPropertyOp29
 70
     1
102
RTVSPropertyOp30
 70
     1
102
RTVSPropertyOp31
 70
     1
102
RTVSPropertyOp32
 70
     1
102
RTVSPropertyOp33
 70
     1
102
RTVSPropertyOp34
 70
     1
102
RTVSPropertyOp35
 70
     1
102
RTVSPropertyOp36
 70
     1
102
RTVSPropertyOp37
 70
     1
102
RTVSPropertyOp38
 70
     1
102
RTVSPropertyOp39
 70
     1
102
RTVSPropertyOp40
 70
     1
102
RTVSPropertyOp41
 70
     1
102
RTVSPropertyOp42
 70
     1
102
RTVSPropertyOp43
 70
     1
102
RTVSPropertyOp44
 70
     1
102
RTVSPropertyOp45
 70
     1
102
RTVSPropertyOp46
 70
     1
102
RTVSPropertyOp47
 70
     1
102
RTVSPropertyOp48
 70
     1
102
RTVSPropertyOp49
 70
     1
102
RTVSPropertyOp50
 70
     1
102
RTVSPropertyOp51
 70
     0
102
RTVSPropertyOp52
 70
     0
102
RTVSPropertyOp53
 70
     1
102
RTVSPropertyOp54
 70
     1
102
RTVSPropertyOp55
 70
     1
102
RTVSPropertyOp56
 70
     1
102
RTVSPropertyOp57
 70
     1
102
RTVSPropertyOp58
 70
     1
102
RTVSPropertyOp59
 70
     1
102
RTVSPropertyOp60
 70
     1
102
RTVSPropertyOp61
 70
     1
102
RTVSPropertyOp62
 70
     1
  0
XRECORD
  5
33C
102
{ACAD_REACTORS
330
33B
102
}
330
33B
100
AcDbXrecord
280
     1
102
RTVSPost2010Prop28
280
     0
102
RTVSPost2010PropOp28
 70
     1
102
RTVSPost2010Prop29
280
     1
102
RTVSPost2010PropOp29
 70
     1
102
RTVSPost2010Prop30
280
     1
102
RTVSPost2010PropOp30
 70
     1
102
RTVSPost2010Prop31
280
     0
102
RTVSPost2010PropOp31
 70
     1
102
RTVSPost2010Prop32
280
     0
102
RTVSPost2010PropOp32
 70
     1
102
RTVSPost2010Prop33
280
     0
102
RTVSPost2010PropOp33
 70
     1
102
RTVSPost2010Prop34
280
     0
102
RTVSPost2010PropOp34
 70
     1
102
RTVSPost2010Prop35
280
     0
102
RTVSPost2010PropOp35
 70
     1
102
RTVSPost2010Prop36
280
     0
102
RTVSPost2010PropOp36
 70
     1
102
RTVSPost2010Prop37
 90
       50
102
RTVSPost2010PropOp37
 70
     1
102
RTVSPost2010Prop38
140
0.0
102
RTVSPost2010PropOp38
 70
     1
102
RTVSPost2010Prop39
140
1.0
102
RTVSPost2010PropOp39
 70
     1
102
RTVSPost2010Prop40
 90
        0
102
RTVSPost2010PropOp40
 70
     1
102
RTVSPost2010Prop41ColorIndex
 90
       18
102
RTVSPost2010Prop41ColorRGB
 90
        0
102
RTVSPost2010PropOp41
 70
     1
102
RTVSPost2010Prop42
 90
       50
102
RTVSPost2010PropOp42
 70
     1
102
RTVSPost2010Prop43
 90
        3
102
RTVSPost2010PropOp43
 70
     1
102
RTVSPost2010Prop44ColorIndex
 90
        5
102
RTVSPost2010Prop44ColorRGB
 90
      255
102
RTVSPost2010PropOp44
 70
     1
102
RTVSPost2010Prop45
280
     0
102
RTVSPost2010PropOp45
 70
     1
102
RTVSPost2010Prop46
 90
       50
102
RTVSPost2010PropOp46
 70
     1
102
RTVSPost2010Prop47
 90
       50
102
RTVSPost2010PropOp47
 70
     1
102
RTVSPost2010Prop48
 90
       50
102
RTVSPost2010PropOp48
 70
     1
102
RTVSPost2010Prop49
280
     0
102
RTVSPost2010PropOp49
 70
     1
102
RTVSPost2010Prop50
 90
       50
102
RTVSPost2010PropOp50
 70
     1
102
RTVSPost2010Prop51ColorIndex
 90
      256
102
RTVSPost2010Prop51ColorRGB
 90
-16777216
102
RTVSPost2010PropOp51
 70
     0
102
RTVSPost2010Prop52
140
1.0
102
RTVSPost2010PropOp52
 70
     0
102
RTVSPost2010Prop53
 90
        2
102
RTVSPost2010PropOp53
 70
     1
102
RTVSPost2010Prop54
  1
strokes_ogs.tif
102
RTVSPost2010PropOp54
 70
     1
102
RTVSPost2010Prop55
280
     0
102
RTVSPost2010PropOp55
 70
     1
102
RTVSPost2010Prop56
140
1.0
102
RTVSPost2010PropOp56
 70
     1
102
RTVSPost2010Prop57
140
1.0
102
RTVSPost2010PropOp57
 70
     1
102
RTVSPropertyOp0
 70
     1
102
RTVSPropertyOp1
 70
     1
102
RTVSPropertyOp2
 70
     1
102
RTVSPropertyOp3
 70
     1
102
RTVSPropertyOp4
 70
     1
102
RTVSPropertyOp5
 70
     1
102
RTVSPropertyOp6
 70
     1
102
RTVSPropertyOp7
 70
     1
102
RTVSPropertyOp8
 70
     1
102
RTVSPropertyOp9
 70
     1
102
RTVSPropertyOp10
 70
     1
102
RTVSPropertyOp11
 70
     1
102
RTVSPropertyOp12
 70
     1
102
RTVSPropertyOp13
 70
     1
102
RTVSPropertyOp14
 70
     1
102
RTVSPropertyOp15
 70
     1
102
RTVSPropertyOp16
 70
     1
102
RTVSPropertyOp17
 70
     1
102
RTVSPropertyOp18
 70
     1
102
RTVSPropertyOp19
 70
     1
102
RTVSPropertyOp20
 70
     1
102
RTVSPropertyOp21
 70
     1
102
RTVSPropertyOp22
 70
     1
102
RTVSPropertyOp23
 70
     1
102
RTVSPropertyOp24
 70
     1
102
RTVSPropertyOp25
 70
     1
102
RTVSPropertyOp26
 70
     1
102
RTVSPropertyOp27
 70
     1
102
RTVSPropertyOp28
 70
     1
102
RTVSPropertyOp29
 70
     1
102
RTVSPropertyOp30
 70
     1
102
RTVSPropertyOp31
 70
     1
102
RTVSPropertyOp32
 70
     1
102
RTVSPropertyOp33
 70
     1
102
RTVSPropertyOp34
 70
     1
102
RTVSPropertyOp35
 70
     1
102
RTVSPropertyOp36
 70
     1
102
RTVSPropertyOp37
 70
     1
102
RTVSPropertyOp38
 70
     1
102
RTVSPropertyOp39
 70
     1
102
RTVSPropertyOp40
 70
     1
102
RTVSPropertyOp41
 70
     1
102
RTVSPropertyOp42
 70
     1
102
RTVSPropertyOp43
 70
     1
102
RTVSPropertyOp44
 70
     1
102
RTVSPropertyOp45
 70
     1
102
RTVSPropertyOp46
 70
     1
102
RTVSPropertyOp47
 70
     1
102
RTVSPropertyOp48
 70
     1
102
RTVSPropertyOp49
 70
     1
102
RTVSPropertyOp50
 70
     1
102
RTVSPropertyOp51
 70
     0
102
RTVSPropertyOp52
 70
     0
102
RTVSPropertyOp53
 70
     1
102
RTVSPropertyOp54
 70
     1
102
RTVSPropertyOp55
 70
     1
102
RTVSPropertyOp56
 70
     1
102
RTVSPropertyOp57
 70
     1
102
RTVSPropertyOp58
 70
     1
102
RTVSPropertyOp59
 70
     1
102
RTVSPropertyOp60
 70
     1
102
RTVSPropertyOp61
 70
     1
102
RTVSPropertyOp62
 70
     1
  0
XRECORD
  5
342
102
{ACAD_REACTORS
330
341
102
}
330
341
100
AcDbXrecord
280
     1
102
RTVSPost2010Prop28
280
     0
102
RTVSPost2010PropOp28
 70
     1
102
RTVSPost2010Prop29
280
     1
102
RTVSPost2010PropOp29
 70
     1
102
RTVSPost2010Prop30
280
     1
102
RTVSPost2010PropOp30
 70
     1
102
RTVSPost2010Prop31
280
     0
102
RTVSPost2010PropOp31
 70
     1
102
RTVSPost2010Prop32
280
     0
102
RTVSPost2010PropOp32
 70
     1
102
RTVSPost2010Prop33
280
     0
102
RTVSPost2010PropOp33
 70
     1
102
RTVSPost2010Prop34
280
     0
102
RTVSPost2010PropOp34
 70
     1
102
RTVSPost2010Prop35
280
     0
102
RTVSPost2010PropOp35
 70
     1
102
RTVSPost2010Prop36
280
     0
102
RTVSPost2010PropOp36
 70
     1
102
RTVSPost2010Prop37
 90
       50
102
RTVSPost2010PropOp37
 70
     1
102
RTVSPost2010Prop38
140
0.0
102
RTVSPost2010PropOp38
 70
     1
102
RTVSPost2010Prop39
140
1.0
102
RTVSPost2010PropOp39
 70
     1
102
RTVSPost2010Prop40
 90
        0
102
RTVSPost2010PropOp40
 70
     1
102
RTVSPost2010Prop41ColorIndex
 90
       18
102
RTVSPost2010Prop41ColorRGB
 90
        0
102
RTVSPost2010PropOp41
 70
     1
102
RTVSPost2010Prop42
 90
       50
102
RTVSPost2010PropOp42
 70
     1
102
RTVSPost2010Prop43
 90
        3
102
RTVSPost2010PropOp43
 70
     1
102
RTVSPost2010Prop44ColorIndex
 90
        5
102
RTVSPost2010Prop44ColorRGB
 90
      255
102
RTVSPost2010PropOp44
 70
     1
102
RTVSPost2010Prop45
280
     0
102
RTVSPost2010PropOp45
 70
     1
102
RTVSPost2010Prop46
 90
       50
102
RTVSPost2010PropOp46
 70
     1
102
RTVSPost2010Prop47
 90
       50
102
RTVSPost2010PropOp47
 70
     1
102
RTVSPost2010Prop48
 90
       50
102
RTVSPost2010PropOp48
 70
     1
102
RTVSPost2010Prop49
280
     0
102
RTVSPost2010PropOp49
 70
     1
102
RTVSPost2010Prop50
 90
       50
102
RTVSPost2010PropOp50
 70
     1
102
RTVSPost2010Prop51ColorIndex
 90
      256
102
RTVSPost2010Prop51ColorRGB
 90
-16777216
102
RTVSPost2010PropOp51
 70
     0
102
RTVSPost2010Prop52
140
1.0
102
RTVSPost2010PropOp52
 70
     0
102
RTVSPost2010Prop53
 90
        2
102
RTVSPost2010PropOp53
 70
     1
102
RTVSPost2010Prop54
  1
strokes_ogs.tif
102
RTVSPost2010PropOp54
 70
     1
102
RTVSPost2010Prop55
280
     0
102
RTVSPost2010PropOp55
 70
     1
102
RTVSPost2010Prop56
140
1.0
102
RTVSPost2010PropOp56
 70
     1
102
RTVSPost2010Prop57
140
1.0
102
RTVSPost2010PropOp57
 70
     1
102
RTVSPropertyOp0
 70
     1
102
RTVSPropertyOp1
 70
     1
102
RTVSPropertyOp2
 70
     1
102
RTVSPropertyOp3
 70
     1
102
RTVSPropertyOp4
 70
     1
102
RTVSPropertyOp5
 70
     1
102
RTVSPropertyOp6
 70
     1
102
RTVSPropertyOp7
 70
     1
102
RTVSPropertyOp8
 70
     1
102
RTVSPropertyOp9
 70
     1
102
RTVSPropertyOp10
 70
     1
102
RTVSPropertyOp11
 70
     1
102
RTVSPropertyOp12
 70
     1
102
RTVSPropertyOp13
 70
     1
102
RTVSPropertyOp14
 70
     1
102
RTVSPropertyOp15
 70
     1
102
RTVSPropertyOp16
 70
     1
102
RTVSPropertyOp17
 70
     1
102
RTVSPropertyOp18
 70
     1
102
RTVSPropertyOp19
 70
     1
102
RTVSPropertyOp20
 70
     1
102
RTVSPropertyOp21
 70
     1
102
RTVSPropertyOp22
 70
     1
102
RTVSPropertyOp23
 70
     1
102
RTVSPropertyOp24
 70
     1
102
RTVSPropertyOp25
 70
     1
102
RTVSPropertyOp26
 70
     1
102
RTVSPropertyOp27
 70
     1
102
RTVSPropertyOp28
 70
     1
102
RTVSPropertyOp29
 70
     1
102
RTVSPropertyOp30
 70
     1
102
RTVSPropertyOp31
 70
     1
102
RTVSPropertyOp32
 70
     1
102
RTVSPropertyOp33
 70
     1
102
RTVSPropertyOp34
 70
     1
102
RTVSPropertyOp35
 70
     1
102
RTVSPropertyOp36
 70
     1
102
RTVSPropertyOp37
 70
     1
102
RTVSPropertyOp38
 70
     1
102
RTVSPropertyOp39
 70
     1
102
RTVSPropertyOp40
 70
     1
102
RTVSPropertyOp41
 70
     1
102
RTVSPropertyOp42
 70
     1
102
RTVSPropertyOp43
 70
     1
102
RTVSPropertyOp44
 70
     1
102
RTVSPropertyOp45
 70
     1
102
RTVSPropertyOp46
 70
     1
102
RTVSPropertyOp47
 70
     1
102
RTVSPropertyOp48
 70
     1
102
RTVSPropertyOp49
 70
     1
102
RTVSPropertyOp50
 70
     1
102
RTVSPropertyOp51
 70
     0
102
RTVSPropertyOp52
 70
     0
102
RTVSPropertyOp53
 70
     1
102
RTVSPropertyOp54
 70
     1
102
RTVSPropertyOp55
 70
     1
102
RTVSPropertyOp56
 70
     1
102
RTVSPropertyOp57
 70
     1
102
RTVSPropertyOp58
 70
     1
102
RTVSPropertyOp59
 70
     1
102
RTVSPropertyOp60
 70
     1
102
RTVSPropertyOp61
 70
     1
102
RTVSPropertyOp62
 70
     1
  0
XRECORD
  5
356
102
{ACAD_REACTORS
330
355
102
}
330
355
100
AcDbXrecord
280
     1
102
RTVSPost2010Prop28
280
     0
102
RTVSPost2010PropOp28
 70
     0
102
RTVSPost2010Prop29
280
     1
102
RTVSPost2010PropOp29
 70
     0
102
RTVSPost2010Prop30
280
     1
102
RTVSPost2010PropOp30
 70
     0
102
RTVSPost2010Prop31
280
     0
102
RTVSPost2010PropOp31
 70
     0
102
RTVSPost2010Prop32
280
     0
102
RTVSPost2010PropOp32
 70
     0
102
RTVSPost2010Prop33
280
     0
102
RTVSPost2010PropOp33
 70
     0
102
RTVSPost2010Prop34
280
     0
102
RTVSPost2010PropOp34
 70
     0
102
RTVSPost2010Prop35
280
     0
102
RTVSPost2010PropOp35
 70
     0
102
RTVSPost2010Prop36
280
     0
102
RTVSPost2010PropOp36
 70
     0
102
RTVSPost2010Prop37
 90
       50
102
RTVSPost2010PropOp37
 70
     0
102
RTVSPost2010Prop38
140
0.0
102
RTVSPost2010PropOp38
 70
     0
102
RTVSPost2010Prop39
140
1.0
102
RTVSPost2010PropOp39
 70
     0
102
RTVSPost2010Prop40
 90
        0
102
RTVSPost2010PropOp40
 70
     0
102
RTVSPost2010Prop41ColorIndex
 90
       18
102
RTVSPost2010Prop41ColorRGB
 90
        0
102
RTVSPost2010PropOp41
 70
     0
102
RTVSPost2010Prop42
 90
       50
102
RTVSPost2010PropOp42
 70
     0
102
RTVSPost2010Prop43
 90
        3
102
RTVSPost2010PropOp43
 70
     0
102
RTVSPost2010Prop44ColorIndex
 90
        5
102
RTVSPost2010Prop44ColorRGB
 90
      255
102
RTVSPost2010PropOp44
 70
     0
102
RTVSPost2010Prop45
280
     0
102
RTVSPost2010PropOp45
 70
     0
102
RTVSPost2010Prop46
 90
       50
102
RTVSPost2010PropOp46
 70
     0
102
RTVSPost2010Prop47
 90
       50
102
RTVSPost2010PropOp47
 70
     0
102
RTVSPost2010Prop48
 90
       50
102
RTVSPost2010PropOp48
 70
     0
102
RTVSPost2010Prop49
280
     0
102
RTVSPost2010PropOp49
 70
     0
102
RTVSPost2010Prop50
 90
       50
102
RTVSPost2010PropOp50
 70
     0
102
RTVSPost2010Prop51ColorIndex
 90
      256
102
RTVSPost2010Prop51ColorRGB
 90
-16777216
102
RTVSPost2010PropOp51
 70
     0
102
RTVSPost2010Prop52
140
1.0
102
RTVSPost2010PropOp52
 70
     0
102
RTVSPost2010Prop53
 90
        2
102
RTVSPost2010PropOp53
 70
     0
102
RTVSPost2010Prop54
  1
strokes_ogs.tif
102
RTVSPost2010PropOp54
 70
     0
102
RTVSPost2010Prop55
280
     0
102
RTVSPost2010PropOp55
 70
     0
102
RTVSPost2010Prop56
140
1.0
102
RTVSPost2010PropOp56
 70
     0
102
RTVSPost2010Prop57
140
1.0
102
RTVSPost2010PropOp57
 70
     0
102
RTVSPropertyOp0
 70
     0
102
RTVSPropertyOp1
 70
     0
102
RTVSPropertyOp2
 70
     0
102
RTVSPropertyOp3
 70
     0
102
RTVSPropertyOp4
 70
     0
102
RTVSPropertyOp5
 70
     0
102
RTVSPropertyOp6
 70
     0
102
RTVSPropertyOp7
 70
     0
102
RTVSPropertyOp8
 70
     0
102
RTVSPropertyOp9
 70
     0
102
RTVSPropertyOp10
 70
     0
102
RTVSPropertyOp11
 70
     0
102
RTVSPropertyOp12
 70
     0
102
RTVSPropertyOp13
 70
     0
102
RTVSPropertyOp14
 70
     2
102
RTVSPropertyOp15
 70
     0
102
RTVSPropertyOp16
 70
     0
102
RTVSPropertyOp17
 70
     0
102
RTVSPropertyOp18
 70
     0
102
RTVSPropertyOp19
 70
     0
102
RTVSPropertyOp20
 70
     0
102
RTVSPropertyOp21
 70
     0
102
RTVSPropertyOp22
 70
     0
102
RTVSPropertyOp23
 70
     0
102
RTVSPropertyOp24
 70
     0
102
RTVSPropertyOp25
 70
     0
102
RTVSPropertyOp26
 70
     0
102
RTVSPropertyOp27
 70
     0
102
RTVSPropertyOp28
 70
     0
102
RTVSPropertyOp29
 70
     0
102
RTVSPropertyOp30
 70
     0
102
RTVSPropertyOp31
 70
     0
102
RTVSPropertyOp32
 70
     0
102
RTVSPropertyOp33
 70
     0
102
RTVSPropertyOp34
 70
     0
102
RTVSPropertyOp35
 70
     0
102
RTVSPropertyOp36
 70
     0
102
RTVSPropertyOp37
 70
     0
102
RTVSPropertyOp38
 70
     0
102
RTVSPropertyOp39
 70
     0
102
RTVSPropertyOp40
 70
     0
102
RTVSPropertyOp41
 70
     0
102
RTVSPropertyOp42
 70
     0
102
RTVSPropertyOp43
 70
     0
102
RTVSPropertyOp44
 70
     0
102
RTVSPropertyOp45
 70
     0
102
RTVSPropertyOp46
 70
     0
102
RTVSPropertyOp47
 70
     0
102
RTVSPropertyOp48
 70
     0
102
RTVSPropertyOp49
 70
     0
102
RTVSPropertyOp50
 70
     0
102
RTVSPropertyOp51
 70
     0
102
RTVSPropertyOp52
 70
     0
102
RTVSPropertyOp53
 70
     0
102
RTVSPropertyOp54
 70
     0
102
RTVSPropertyOp55
 70
     0
102
RTVSPropertyOp56
 70
     0
102
RTVSPropertyOp57
 70
     0
102
RTVSPropertyOp58
 70
     1
102
RTVSPropertyOp59
 70
     1
102
RTVSPropertyOp60
 70
     1
102
RTVSPropertyOp61
 70
     1
102
RTVSPropertyOp62
 70
     1
  0
XRECORD
  5
350
102
{ACAD_REACTORS
330
34F
102
}
330
34F
100
AcDbXrecord
280
     1
102
RTVSPost2010Prop28
280
     0
102
RTVSPost2010PropOp28
 70
     1
102
RTVSPost2010Prop29
280
     1
102
RTVSPost2010PropOp29
 70
     1
102
RTVSPost2010Prop30
280
     1
102
RTVSPost2010PropOp30
 70
     1
102
RTVSPost2010Prop31
280
     0
102
RTVSPost2010PropOp31
 70
     1
102
RTVSPost2010Prop32
280
     0
102
RTVSPost2010PropOp32
 70
     1
102
RTVSPost2010Prop33
280
     0
102
RTVSPost2010PropOp33
 70
     1
102
RTVSPost2010Prop34
280
     0
102
RTVSPost2010PropOp34
 70
     1
102
RTVSPost2010Prop35
280
     0
102
RTVSPost2010PropOp35
 70
     1
102
RTVSPost2010Prop36
280
     0
102
RTVSPost2010PropOp36
 70
     1
102
RTVSPost2010Prop37
 90
       50
102
RTVSPost2010PropOp37
 70
     1
102
RTVSPost2010Prop38
140
0.0
102
RTVSPost2010PropOp38
 70
     1
102
RTVSPost2010Prop39
140
1.0
102
RTVSPost2010PropOp39
 70
     1
102
RTVSPost2010Prop40
 90
        0
102
RTVSPost2010PropOp40
 70
     1
102
RTVSPost2010Prop41ColorIndex
 90
       18
102
RTVSPost2010Prop41ColorRGB
 90
        0
102
RTVSPost2010PropOp41
 70
     1
102
RTVSPost2010Prop42
 90
       50
102
RTVSPost2010PropOp42
 70
     1
102
RTVSPost2010Prop43
 90
        3
102
RTVSPost2010PropOp43
 70
     1
102
RTVSPost2010Prop44ColorIndex
 90
        5
102
RTVSPost2010Prop44ColorRGB
 90
      255
102
RTVSPost2010PropOp44
 70
     1
102
RTVSPost2010Prop45
280
     0
102
RTVSPost2010PropOp45
 70
     1
102
RTVSPost2010Prop46
 90
       50
102
RTVSPost2010PropOp46
 70
     1
102
RTVSPost2010Prop47
 90
       50
102
RTVSPost2010PropOp47
 70
     1
102
RTVSPost2010Prop48
 90
       50
102
RTVSPost2010PropOp48
 70
     1
102
RTVSPost2010Prop49
280
     0
102
RTVSPost2010PropOp49
 70
     1
102
RTVSPost2010Prop50
 90
       50
102
RTVSPost2010PropOp50
 70
     1
102
RTVSPost2010Prop51ColorIndex
 90
      256
102
RTVSPost2010Prop51ColorRGB
 90
-16777216
102
RTVSPost2010PropOp51
 70
     0
102
RTVSPost2010Prop52
140
1.0
102
RTVSPost2010PropOp52
 70
     0
102
RTVSPost2010Prop53
 90
        2
102
RTVSPost2010PropOp53
 70
     1
102
RTVSPost2010Prop54
  1
strokes_ogs.tif
102
RTVSPost2010PropOp54
 70
     1
102
RTVSPost2010Prop55
280
     0
102
RTVSPost2010PropOp55
 70
     1
102
RTVSPost2010Prop56
140
1.0
102
RTVSPost2010PropOp56
 70
     1
102
RTVSPost2010Prop57
140
1.0
102
RTVSPost2010PropOp57
 70
     1
102
RTVSPropertyOp0
 70
     1
102
RTVSPropertyOp1
 70
     1
102
RTVSPropertyOp2
 70
     1
102
RTVSPropertyOp3
 70
     1
102
RTVSPropertyOp4
 70
     1
102
RTVSPropertyOp5
 70
     1
102
RTVSPropertyOp6
 70
     1
102
RTVSPropertyOp7
 70
     1
102
RTVSPropertyOp8
 70
     1
102
RTVSPropertyOp9
 70
     1
102
RTVSPropertyOp10
 70
     1
102
RTVSPropertyOp11
 70
     1
102
RTVSPropertyOp12
 70
     1
102
RTVSPropertyOp13
 70
     1
102
RTVSPropertyOp14
 70
     1
102
RTVSPropertyOp15
 70
     1
102
RTVSPropertyOp16
 70
     1
102
RTVSPropertyOp17
 70
     1
102
RTVSPropertyOp18
 70
     1
102
RTVSPropertyOp19
 70
     1
102
RTVSPropertyOp20
 70
     1
102
RTVSPropertyOp21
 70
     1
102
RTVSPropertyOp22
 70
     1
102
RTVSPropertyOp23
 70
     1
102
RTVSPropertyOp24
 70
     1
102
RTVSPropertyOp25
 70
     1
102
RTVSPropertyOp26
 70
     1
102
RTVSPropertyOp27
 70
     1
102
RTVSPropertyOp28
 70
     1
102
RTVSPropertyOp29
 70
     1
102
RTVSPropertyOp30
 70
     1
102
RTVSPropertyOp31
 70
     1
102
RTVSPropertyOp32
 70
     1
102
RTVSPropertyOp33
 70
     1
102
RTVSPropertyOp34
 70
     1
102
RTVSPropertyOp35
 70
     1
102
RTVSPropertyOp36
 70
     1
102
RTVSPropertyOp37
 70
     1
102
RTVSPropertyOp38
 70
     1
102
RTVSPropertyOp39
 70
     1
102
RTVSPropertyOp40
 70
     1
102
RTVSPropertyOp41
 70
     1
102
RTVSPropertyOp42
 70
     1
102
RTVSPropertyOp43
 70
     1
102
RTVSPropertyOp44
 70
     1
102
RTVSPropertyOp45
 70
     1
102
RTVSPropertyOp46
 70
     1
102
RTVSPropertyOp47
 70
     1
102
RTVSPropertyOp48
 70
     1
102
RTVSPropertyOp49
 70
     1
102
RTVSPropertyOp50
 70
     1
102
RTVSPropertyOp51
 70
     0
102
RTVSPropertyOp52
 70
     0
102
RTVSPropertyOp53
 70
     1
102
RTVSPropertyOp54
 70
     1
102
RTVSPropertyOp55
 70
     1
102
RTVSPropertyOp56
 70
     1
102
RTVSPropertyOp57
 70
     1
102
RTVSPropertyOp58
 70
     1
102
RTVSPropertyOp59
 70
     1
102
RTVSPropertyOp60
 70
     1
102
RTVSPropertyOp61
 70
     1
102
RTVSPropertyOp62
 70
     1
  0
XRECORD
  5
358
102
{ACAD_REACTORS
330
357
102
}
330
357
100
AcDbXrecord
280
     1
102
RTVSPost2010Prop28
280
     0
102
RTVSPost2010PropOp28
 70
     0
102
RTVSPost2010Prop29
280
     1
102
RTVSPost2010PropOp29
 70
     0
102
RTVSPost2010Prop30
280
     1
102
RTVSPost2010PropOp30
 70
     0
102
RTVSPost2010Prop31
280
     0
102
RTVSPost2010PropOp31
 70
     0
102
RTVSPost2010Prop32
280
     0
102
RTVSPost2010PropOp32
 70
     0
102
RTVSPost2010Prop33
280
     0
102
RTVSPost2010PropOp33
 70
     0
102
RTVSPost2010Prop34
280
     0
102
RTVSPost2010PropOp34
 70
     0
102
RTVSPost2010Prop35
280
     0
102
RTVSPost2010PropOp35
 70
     0
102
RTVSPost2010Prop36
280
     0
102
RTVSPost2010PropOp36
 70
     0
102
RTVSPost2010Prop37
 90
       50
102
RTVSPost2010PropOp37
 70
     0
102
RTVSPost2010Prop38
140
0.0
102
RTVSPost2010PropOp38
 70
     0
102
RTVSPost2010Prop39
140
1.0
102
RTVSPost2010PropOp39
 70
     0
102
RTVSPost2010Prop40
 90
        0
102
RTVSPost2010PropOp40
 70
     0
102
RTVSPost2010Prop41ColorIndex
 90
       18
102
RTVSPost2010Prop41ColorRGB
 90
        0
102
RTVSPost2010PropOp41
 70
     0
102
RTVSPost2010Prop42
 90
       50
102
RTVSPost2010PropOp42
 70
     0
102
RTVSPost2010Prop43
 90
        3
102
RTVSPost2010PropOp43
 70
     0
102
RTVSPost2010Prop44ColorIndex
 90
        5
102
RTVSPost2010Prop44ColorRGB
 90
      255
102
RTVSPost2010PropOp44
 70
     0
102
RTVSPost2010Prop45
280
     0
102
RTVSPost2010PropOp45
 70
     0
102
RTVSPost2010Prop46
 90
       50
102
RTVSPost2010PropOp46
 70
     0
102
RTVSPost2010Prop47
 90
       50
102
RTVSPost2010PropOp47
 70
     0
102
RTVSPost2010Prop48
 90
       50
102
RTVSPost2010PropOp48
 70
     0
102
RTVSPost2010Prop49
280
     0
102
RTVSPost2010PropOp49
 70
     0
102
RTVSPost2010Prop50
 90
       50
102
RTVSPost2010PropOp50
 70
     0
102
RTVSPost2010Prop51ColorIndex
 90
      256
102
RTVSPost2010Prop51ColorRGB
 90
-16777216
102
RTVSPost2010PropOp51
 70
     0
102
RTVSPost2010Prop52
140
1.0
102
RTVSPost2010PropOp52
 70
     0
102
RTVSPost2010Prop53
 90
        2
102
RTVSPost2010PropOp53
 70
     0
102
RTVSPost2010Prop54
  1
strokes_ogs.tif
102
RTVSPost2010PropOp54
 70
     0
102
RTVSPost2010Prop55
280
     0
102
RTVSPost2010PropOp55
 70
     0
102
RTVSPost2010Prop56
140
1.0
102
RTVSPost2010PropOp56
 70
     0
102
RTVSPost2010Prop57
140
1.0
102
RTVSPost2010PropOp57
 70
     0
102
RTVSPropertyOp0
 70
     0
102
RTVSPropertyOp1
 70
     0
102
RTVSPropertyOp2
 70
     0
102
RTVSPropertyOp3
 70
     0
102
RTVSPropertyOp4
 70
     0
102
RTVSPropertyOp5
 70
     0
102
RTVSPropertyOp6
 70
     0
102
RTVSPropertyOp7
 70
     0
102
RTVSPropertyOp8
 70
     0
102
RTVSPropertyOp9
 70
     0
102
RTVSPropertyOp10
 70
     0
102
RTVSPropertyOp11
 70
     0
102
RTVSPropertyOp12
 70
     0
102
RTVSPropertyOp13
 70
     0
102
RTVSPropertyOp14
 70
     2
102
RTVSPropertyOp15
 70
     0
102
RTVSPropertyOp16
 70
     0
102
RTVSPropertyOp17
 70
     0
102
RTVSPropertyOp18
 70
     0
102
RTVSPropertyOp19
 70
     0
102
RTVSPropertyOp20
 70
     0
102
RTVSPropertyOp21
 70
     0
102
RTVSPropertyOp22
 70
     0
102
RTVSPropertyOp23
 70
     0
102
RTVSPropertyOp24
 70
     0
102
RTVSPropertyOp25
 70
     0
102
RTVSPropertyOp26
 70
     0
102
RTVSPropertyOp27
 70
     0
102
RTVSPropertyOp28
 70
     0
102
RTVSPropertyOp29
 70
     0
102
RTVSPropertyOp30
 70
     0
102
RTVSPropertyOp31
 70
     0
102
RTVSPropertyOp32
 70
     0
102
RTVSPropertyOp33
 70
     0
102
RTVSPropertyOp34
 70
     0
102
RTVSPropertyOp35
 70
     0
102
RTVSPropertyOp36
 70
     0
102
RTVSPropertyOp37
 70
     0
102
RTVSPropertyOp38
 70
     0
102
RTVSPropertyOp39
 70
     0
102
RTVSPropertyOp40
 70
     0
102
RTVSPropertyOp41
 70
     0
102
RTVSPropertyOp42
 70
     0
102
RTVSPropertyOp43
 70
     0
102
RTVSPropertyOp44
 70
     0
102
RTVSPropertyOp45
 70
     0
102
RTVSPropertyOp46
 70
     0
102
RTVSPropertyOp47
 70
     0
102
RTVSPropertyOp48
 70
     0
102
RTVSPropertyOp49
 70
     0
102
RTVSPropertyOp50
 70
     0
102
RTVSPropertyOp51
 70
     0
102
RTVSPropertyOp52
 70
     0
102
RTVSPropertyOp53
 70
     0
102
RTVSPropertyOp54
 70
     0
102
RTVSPropertyOp55
 70
     0
102
RTVSPropertyOp56
 70
     0
102
RTVSPropertyOp57
 70
     0
102
RTVSPropertyOp58
 70
     1
102
RTVSPropertyOp59
 70
     1
102
RTVSPropertyOp60
 70
     1
102
RTVSPropertyOp61
 70
     1
102
RTVSPropertyOp62
 70
     1
  0
XRECORD
  5
346
102
{ACAD_REACTORS
330
345
102
}
330
345
100
AcDbXrecord
280
     1
102
RTVSPost2010Prop28
280
     0
102
RTVSPost2010PropOp28
 70
     1
102
RTVSPost2010Prop29
280
     1
102
RTVSPost2010PropOp29
 70
     1
102
RTVSPost2010Prop30
280
     1
102
RTVSPost2010PropOp30
 70
     1
102
RTVSPost2010Prop31
280
     0
102
RTVSPost2010PropOp31
 70
     1
102
RTVSPost2010Prop32
280
     0
102
RTVSPost2010PropOp32
 70
     1
102
RTVSPost2010Prop33
280
     0
102
RTVSPost2010PropOp33
 70
     1
102
RTVSPost2010Prop34
280
     0
102
RTVSPost2010PropOp34
 70
     1
102
RTVSPost2010Prop35
280
     0
102
RTVSPost2010PropOp35
 70
     1
102
RTVSPost2010Prop36
280
     0
102
RTVSPost2010PropOp36
 70
     1
102
RTVSPost2010Prop37
 90
       50
102
RTVSPost2010PropOp37
 70
     1
102
RTVSPost2010Prop38
140
0.0
102
RTVSPost2010PropOp38
 70
     1
102
RTVSPost2010Prop39
140
1.0
102
RTVSPost2010PropOp39
 70
     1
102
RTVSPost2010Prop40
 90
        0
102
RTVSPost2010PropOp40
 70
     1
102
RTVSPost2010Prop41ColorIndex
 90
       18
102
RTVSPost2010Prop41ColorRGB
 90
        0
102
RTVSPost2010PropOp41
 70
     1
102
RTVSPost2010Prop42
 90
       50
102
RTVSPost2010PropOp42
 70
     1
102
RTVSPost2010Prop43
 90
        3
102
RTVSPost2010PropOp43
 70
     1
102
RTVSPost2010Prop44ColorIndex
 90
        5
102
RTVSPost2010Prop44ColorRGB
 90
      255
102
RTVSPost2010PropOp44
 70
     1
102
RTVSPost2010Prop45
280
     0
102
RTVSPost2010PropOp45
 70
     1
102
RTVSPost2010Prop46
 90
       50
102
RTVSPost2010PropOp46
 70
     1
102
RTVSPost2010Prop47
 90
       50
102
RTVSPost2010PropOp47
 70
     1
102
RTVSPost2010Prop48
 90
       50
102
RTVSPost2010PropOp48
 70
     1
102
RTVSPost2010Prop49
280
     0
102
RTVSPost2010PropOp49
 70
     1
102
RTVSPost2010Prop50
 90
       50
102
RTVSPost2010PropOp50
 70
     1
102
RTVSPost2010Prop51ColorIndex
 90
      256
102
RTVSPost2010Prop51ColorRGB
 90
-16777216
102
RTVSPost2010PropOp51
 70
     0
102
RTVSPost2010Prop52
140
1.0
102
RTVSPost2010PropOp52
 70
     0
102
RTVSPost2010Prop53
 90
        2
102
RTVSPost2010PropOp53
 70
     1
102
RTVSPost2010Prop54
  1
strokes_ogs.tif
102
RTVSPost2010PropOp54
 70
     1
102
RTVSPost2010Prop55
280
     0
102
RTVSPost2010PropOp55
 70
     1
102
RTVSPost2010Prop56
140
1.0
102
RTVSPost2010PropOp56
 70
     1
102
RTVSPost2010Prop57
140
1.0
102
RTVSPost2010PropOp57
 70
     1
102
RTVSPropertyOp0
 70
     1
102
RTVSPropertyOp1
 70
     1
102
RTVSPropertyOp2
 70
     1
102
RTVSPropertyOp3
 70
     1
102
RTVSPropertyOp4
 70
     1
102
RTVSPropertyOp5
 70
     1
102
RTVSPropertyOp6
 70
     1
102
RTVSPropertyOp7
 70
     1
102
RTVSPropertyOp8
 70
     1
102
RTVSPropertyOp9
 70
     1
102
RTVSPropertyOp10
 70
     1
102
RTVSPropertyOp11
 70
     1
102
RTVSPropertyOp12
 70
     1
102
RTVSPropertyOp13
 70
     1
102
RTVSPropertyOp14
 70
     1
102
RTVSPropertyOp15
 70
     1
102
RTVSPropertyOp16
 70
     1
102
RTVSPropertyOp17
 70
     1
102
RTVSPropertyOp18
 70
     1
102
RTVSPropertyOp19
 70
     1
102
RTVSPropertyOp20
 70
     1
102
RTVSPropertyOp21
 70
     1
102
RTVSPropertyOp22
 70
     1
102
RTVSPropertyOp23
 70
     1
102
RTVSPropertyOp24
 70
     1
102
RTVSPropertyOp25
 70
     1
102
RTVSPropertyOp26
 70
     1
102
RTVSPropertyOp27
 70
     1
102
RTVSPropertyOp28
 70
     1
102
RTVSPropertyOp29
 70
     1
102
RTVSPropertyOp30
 70
     1
102
RTVSPropertyOp31
 70
     1
102
RTVSPropertyOp32
 70
     1
102
RTVSPropertyOp33
 70
     1
102
RTVSPropertyOp34
 70
     1
102
RTVSPropertyOp35
 70
     1
102
RTVSPropertyOp36
 70
     1
102
RTVSPropertyOp37
 70
     1
102
RTVSPropertyOp38
 70
     1
102
RTVSPropertyOp39
 70
     1
102
RTVSPropertyOp40
 70
     1
102
RTVSPropertyOp41
 70
     1
102
RTVSPropertyOp42
 70
     1
102
RTVSPropertyOp43
 70
     1
102
RTVSPropertyOp44
 70
     1
102
RTVSPropertyOp45
 70
     1
102
RTVSPropertyOp46
 70
     1
102
RTVSPropertyOp47
 70
     1
102
RTVSPropertyOp48
 70
     1
102
RTVSPropertyOp49
 70
     1
102
RTVSPropertyOp50
 70
     1
102
RTVSPropertyOp51
 70
     0
102
RTVSPropertyOp52
 70
     0
102
RTVSPropertyOp53
 70
     1
102
RTVSPropertyOp54
 70
     1
102
RTVSPropertyOp55
 70
     1
102
RTVSPropertyOp56
 70
     1
102
RTVSPropertyOp57
 70
     1
102
RTVSPropertyOp58
 70
     1
102
RTVSPropertyOp59
 70
     1
102
RTVSPropertyOp60
 70
     1
102
RTVSPropertyOp61
 70
     1
102
RTVSPropertyOp62
 70
     1
  0
XRECORD
  5
364
102
{ACAD_REACTORS
330
363
102
}
330
363
100
AcDbXrecord
280
     1
102
RTVSPost2010Prop28
280
     0
102
RTVSPost2010PropOp28
 70
     1
102
RTVSPost2010Prop29
280
     1
102
RTVSPost2010PropOp29
 70
     1
102
RTVSPost2010Prop30
280
     1
102
RTVSPost2010PropOp30
 70
     1
102
RTVSPost2010Prop31
280
     0
102
RTVSPost2010PropOp31
 70
     1
102
RTVSPost2010Prop32
280
     0
102
RTVSPost2010PropOp32
 70
     1
102
RTVSPost2010Prop33
280
     0
102
RTVSPost2010PropOp33
 70
     1
102
RTVSPost2010Prop34
280
     0
102
RTVSPost2010PropOp34
 70
     1
102
RTVSPost2010Prop35
280
     0
102
RTVSPost2010PropOp35
 70
     1
102
RTVSPost2010Prop36
280
     0
102
RTVSPost2010PropOp36
 70
     1
102
RTVSPost2010Prop37
 90
       50
102
RTVSPost2010PropOp37
 70
     1
102
RTVSPost2010Prop38
140
0.0
102
RTVSPost2010PropOp38
 70
     1
102
RTVSPost2010Prop39
140
1.0
102
RTVSPost2010PropOp39
 70
     1
102
RTVSPost2010Prop40
 90
        0
102
RTVSPost2010PropOp40
 70
     1
102
RTVSPost2010Prop41ColorIndex
 90
       18
102
RTVSPost2010Prop41ColorRGB
 90
        0
102
RTVSPost2010PropOp41
 70
     1
102
RTVSPost2010Prop42
 90
       50
102
RTVSPost2010PropOp42
 70
     1
102
RTVSPost2010Prop43
 90
        3
102
RTVSPost2010PropOp43
 70
     1
102
RTVSPost2010Prop44ColorIndex
 90
        5
102
RTVSPost2010Prop44ColorRGB
 90
      255
102
RTVSPost2010PropOp44
 70
     1
102
RTVSPost2010Prop45
280
     0
102
RTVSPost2010PropOp45
 70
     1
102
RTVSPost2010Prop46
 90
       50
102
RTVSPost2010PropOp46
 70
     1
102
RTVSPost2010Prop47
 90
       50
102
RTVSPost2010PropOp47
 70
     1
102
RTVSPost2010Prop48
 90
       50
102
RTVSPost2010PropOp48
 70
     1
102
RTVSPost2010Prop49
280
     0
102
RTVSPost2010PropOp49
 70
     1
102
RTVSPost2010Prop50
 90
       50
102
RTVSPost2010PropOp50
 70
     1
102
RTVSPost2010Prop51ColorIndex
 90
      256
102
RTVSPost2010Prop51ColorRGB
 90
-16777216
102
RTVSPost2010PropOp51
 70
     0
102
RTVSPost2010Prop52
140
1.0
102
RTVSPost2010PropOp52
 70
     0
102
RTVSPost2010Prop53
 90
        2
102
RTVSPost2010PropOp53
 70
     1
102
RTVSPost2010Prop54
  1
strokes_ogs.tif
102
RTVSPost2010PropOp54
 70
     1
102
RTVSPost2010Prop55
280
     0
102
RTVSPost2010PropOp55
 70
     1
102
RTVSPost2010Prop56
140
1.0
102
RTVSPost2010PropOp56
 70
     1
102
RTVSPost2010Prop57
140
1.0
102
RTVSPost2010PropOp57
 70
     1
102
RTVSPropertyOp0
 70
     1
102
RTVSPropertyOp1
 70
     1
102
RTVSPropertyOp2
 70
     1
102
RTVSPropertyOp3
 70
     1
102
RTVSPropertyOp4
 70
     1
102
RTVSPropertyOp5
 70
     1
102
RTVSPropertyOp6
 70
     1
102
RTVSPropertyOp7
 70
     1
102
RTVSPropertyOp8
 70
     1
102
RTVSPropertyOp9
 70
     1
102
RTVSPropertyOp10
 70
     1
102
RTVSPropertyOp11
 70
     1
102
RTVSPropertyOp12
 70
     1
102
RTVSPropertyOp13
 70
     1
102
RTVSPropertyOp14
 70
     1
102
RTVSPropertyOp15
 70
     1
102
RTVSPropertyOp16
 70
     1
102
RTVSPropertyOp17
 70
     1
102
RTVSPropertyOp18
 70
     1
102
RTVSPropertyOp19
 70
     1
102
RTVSPropertyOp20
 70
     1
102
RTVSPropertyOp21
 70
     1
102
RTVSPropertyOp22
 70
     1
102
RTVSPropertyOp23
 70
     1
102
RTVSPropertyOp24
 70
     1
102
RTVSPropertyOp25
 70
     1
102
RTVSPropertyOp26
 70
     1
102
RTVSPropertyOp27
 70
     1
102
RTVSPropertyOp28
 70
     1
102
RTVSPropertyOp29
 70
     1
102
RTVSPropertyOp30
 70
     1
102
RTVSPropertyOp31
 70
     1
102
RTVSPropertyOp32
 70
     1
102
RTVSPropertyOp33
 70
     1
102
RTVSPropertyOp34
 70
     1
102
RTVSPropertyOp35
 70
     1
102
RTVSPropertyOp36
 70
     1
102
RTVSPropertyOp37
 70
     1
102
RTVSPropertyOp38
 70
     1
102
RTVSPropertyOp39
 70
     1
102
RTVSPropertyOp40
 70
     1
102
RTVSPropertyOp41
 70
     1
102
RTVSPropertyOp42
 70
     1
102
RTVSPropertyOp43
 70
     1
102
RTVSPropertyOp44
 70
     1
102
RTVSPropertyOp45
 70
     1
102
RTVSPropertyOp46
 70
     1
102
RTVSPropertyOp47
 70
     1
102
RTVSPropertyOp48
 70
     1
102
RTVSPropertyOp49
 70
     1
102
RTVSPropertyOp50
 70
     1
102
RTVSPropertyOp51
 70
     0
102
RTVSPropertyOp52
 70
     0
102
RTVSPropertyOp53
 70
     1
102
RTVSPropertyOp54
 70
     1
102
RTVSPropertyOp55
 70
     1
102
RTVSPropertyOp56
 70
     1
102
RTVSPropertyOp57
 70
     1
102
RTVSPropertyOp58
 70
     1
102
RTVSPropertyOp59
 70
     1
102
RTVSPropertyOp60
 70
     1
102
RTVSPropertyOp61
 70
     1
102
RTVSPropertyOp62
 70
     1
  0
XRECORD
  5
362
102
{ACAD_REACTORS
330
361
102
}
330
361
100
AcDbXrecord
280
     1
102
RTVSPost2010Prop28
280
     0
102
RTVSPost2010PropOp28
 70
     1
102
RTVSPost2010Prop29
280
     1
102
RTVSPost2010PropOp29
 70
     1
102
RTVSPost2010Prop30
280
     1
102
RTVSPost2010PropOp30
 70
     1
102
RTVSPost2010Prop31
280
     0
102
RTVSPost2010PropOp31
 70
     1
102
RTVSPost2010Prop32
280
     0
102
RTVSPost2010PropOp32
 70
     1
102
RTVSPost2010Prop33
280
     0
102
RTVSPost2010PropOp33
 70
     1
102
RTVSPost2010Prop34
280
     0
102
RTVSPost2010PropOp34
 70
     1
102
RTVSPost2010Prop35
280
     0
102
RTVSPost2010PropOp35
 70
     1
102
RTVSPost2010Prop36
280
     0
102
RTVSPost2010PropOp36
 70
     1
102
RTVSPost2010Prop37
 90
       50
102
RTVSPost2010PropOp37
 70
     1
102
RTVSPost2010Prop38
140
0.0
102
RTVSPost2010PropOp38
 70
     1
102
RTVSPost2010Prop39
140
1.0
102
RTVSPost2010PropOp39
 70
     1
102
RTVSPost2010Prop40
 90
        0
102
RTVSPost2010PropOp40
 70
     1
102
RTVSPost2010Prop41ColorIndex
 90
       18
102
RTVSPost2010Prop41ColorRGB
 90
        0
102
RTVSPost2010PropOp41
 70
     1
102
RTVSPost2010Prop42
 90
       50
102
RTVSPost2010PropOp42
 70
     1
102
RTVSPost2010Prop43
 90
        3
102
RTVSPost2010PropOp43
 70
     1
102
RTVSPost2010Prop44ColorIndex
 90
        5
102
RTVSPost2010Prop44ColorRGB
 90
      255
102
RTVSPost2010PropOp44
 70
     1
102
RTVSPost2010Prop45
280
     0
102
RTVSPost2010PropOp45
 70
     1
102
RTVSPost2010Prop46
 90
       50
102
RTVSPost2010PropOp46
 70
     1
102
RTVSPost2010Prop47
 90
       50
102
RTVSPost2010PropOp47
 70
     1
102
RTVSPost2010Prop48
 90
       50
102
RTVSPost2010PropOp48
 70
     1
102
RTVSPost2010Prop49
280
     0
102
RTVSPost2010PropOp49
 70
     1
102
RTVSPost2010Prop50
 90
       50
102
RTVSPost2010PropOp50
 70
     1
102
RTVSPost2010Prop51ColorIndex
 90
      256
102
RTVSPost2010Prop51ColorRGB
 90
-16777216
102
RTVSPost2010PropOp51
 70
     0
102
RTVSPost2010Prop52
140
1.0
102
RTVSPost2010PropOp52
 70
     0
102
RTVSPost2010Prop53
 90
        2
102
RTVSPost2010PropOp53
 70
     1
102
RTVSPost2010Prop54
  1
strokes_ogs.tif
102
RTVSPost2010PropOp54
 70
     1
102
RTVSPost2010Prop55
280
     0
102
RTVSPost2010PropOp55
 70
     1
102
RTVSPost2010Prop56
140
1.0
102
RTVSPost2010PropOp56
 70
     1
102
RTVSPost2010Prop57
140
1.0
102
RTVSPost2010PropOp57
 70
     1
102
RTVSPropertyOp0
 70
     1
102
RTVSPropertyOp1
 70
     1
102
RTVSPropertyOp2
 70
     1
102
RTVSPropertyOp3
 70
     1
102
RTVSPropertyOp4
 70
     1
102
RTVSPropertyOp5
 70
     1
102
RTVSPropertyOp6
 70
     1
102
RTVSPropertyOp7
 70
     1
102
RTVSPropertyOp8
 70
     1
102
RTVSPropertyOp9
 70
     1
102
RTVSPropertyOp10
 70
     1
102
RTVSPropertyOp11
 70
     1
102
RTVSPropertyOp12
 70
     1
102
RTVSPropertyOp13
 70
     1
102
RTVSPropertyOp14
 70
     1
102
RTVSPropertyOp15
 70
     1
102
RTVSPropertyOp16
 70
     1
102
RTVSPropertyOp17
 70
     1
102
RTVSPropertyOp18
 70
     1
102
RTVSPropertyOp19
 70
     1
102
RTVSPropertyOp20
 70
     1
102
RTVSPropertyOp21
 70
     1
102
RTVSPropertyOp22
 70
     1
102
RTVSPropertyOp23
 70
     1
102
RTVSPropertyOp24
 70
     1
102
RTVSPropertyOp25
 70
     1
102
RTVSPropertyOp26
 70
     1
102
RTVSPropertyOp27
 70
     1
102
RTVSPropertyOp28
 70
     1
102
RTVSPropertyOp29
 70
     1
102
RTVSPropertyOp30
 70
     1
102
RTVSPropertyOp31
 70
     1
102
RTVSPropertyOp32
 70
     1
102
RTVSPropertyOp33
 70
     1
102
RTVSPropertyOp34
 70
     1
102
RTVSPropertyOp35
 70
     1
102
RTVSPropertyOp36
 70
     1
102
RTVSPropertyOp37
 70
     1
102
RTVSPropertyOp38
 70
     1
102
RTVSPropertyOp39
 70
     1
102
RTVSPropertyOp40
 70
     1
102
RTVSPropertyOp41
 70
     1
102
RTVSPropertyOp42
 70
     1
102
RTVSPropertyOp43
 70
     1
102
RTVSPropertyOp44
 70
     1
102
RTVSPropertyOp45
 70
     1
102
RTVSPropertyOp46
 70
     1
102
RTVSPropertyOp47
 70
     1
102
RTVSPropertyOp48
 70
     1
102
RTVSPropertyOp49
 70
     1
102
RTVSPropertyOp50
 70
     1
102
RTVSPropertyOp51
 70
     0
102
RTVSPropertyOp52
 70
     0
102
RTVSPropertyOp53
 70
     1
102
RTVSPropertyOp54
 70
     1
102
RTVSPropertyOp55
 70
     1
102
RTVSPropertyOp56
 70
     1
102
RTVSPropertyOp57
 70
     1
102
RTVSPropertyOp58
 70
     1
102
RTVSPropertyOp59
 70
     1
102
RTVSPropertyOp60
 70
     1
102
RTVSPropertyOp61
 70
     1
102
RTVSPropertyOp62
 70
     1
  0
XRECORD
  5
35C
102
{ACAD_REACTORS
330
35B
102
}
330
35B
100
AcDbXrecord
280
     1
102
RTVSPost2010Prop28
280
     0
102
RTVSPost2010PropOp28
 70
     1
102
RTVSPost2010Prop29
280
     1
102
RTVSPost2010PropOp29
 70
     1
102
RTVSPost2010Prop30
280
     1
102
RTVSPost2010PropOp30
 70
     1
102
RTVSPost2010Prop31
280
     0
102
RTVSPost2010PropOp31
 70
     1
102
RTVSPost2010Prop32
280
     0
102
RTVSPost2010PropOp32
 70
     1
102
RTVSPost2010Prop33
280
     0
102
RTVSPost2010PropOp33
 70
     1
102
RTVSPost2010Prop34
280
     0
102
RTVSPost2010PropOp34
 70
     1
102
RTVSPost2010Prop35
280
     0
102
RTVSPost2010PropOp35
 70
     1
102
RTVSPost2010Prop36
280
     0
102
RTVSPost2010PropOp36
 70
     1
102
RTVSPost2010Prop37
 90
       50
102
RTVSPost2010PropOp37
 70
     1
102
RTVSPost2010Prop38
140
0.0
102
RTVSPost2010PropOp38
 70
     1
102
RTVSPost2010Prop39
140
1.0
102
RTVSPost2010PropOp39
 70
     1
102
RTVSPost2010Prop40
 90
        0
102
RTVSPost2010PropOp40
 70
     1
102
RTVSPost2010Prop41ColorIndex
 90
       18
102
RTVSPost2010Prop41ColorRGB
 90
        0
102
RTVSPost2010PropOp41
 70
     1
102
RTVSPost2010Prop42
 90
       50
102
RTVSPost2010PropOp42
 70
     1
102
RTVSPost2010Prop43
 90
        3
102
RTVSPost2010PropOp43
 70
     1
102
RTVSPost2010Prop44ColorIndex
 90
        5
102
RTVSPost2010Prop44ColorRGB
 90
      255
102
RTVSPost2010PropOp44
 70
     1
102
RTVSPost2010Prop45
280
     0
102
RTVSPost2010PropOp45
 70
     1
102
RTVSPost2010Prop46
 90
       50
102
RTVSPost2010PropOp46
 70
     1
102
RTVSPost2010Prop47
 90
       50
102
RTVSPost2010PropOp47
 70
     1
102
RTVSPost2010Prop48
 90
       50
102
RTVSPost2010PropOp48
 70
     1
102
RTVSPost2010Prop49
280
     0
102
RTVSPost2010PropOp49
 70
     1
102
RTVSPost2010Prop50
 90
       50
102
RTVSPost2010PropOp50
 70
     1
102
RTVSPost2010Prop51ColorIndex
 90
      256
102
RTVSPost2010Prop51ColorRGB
 90
-16777216
102
RTVSPost2010PropOp51
 70
     0
102
RTVSPost2010Prop52
140
1.0
102
RTVSPost2010PropOp52
 70
     0
102
RTVSPost2010Prop53
 90
        2
102
RTVSPost2010PropOp53
 70
     1
102
RTVSPost2010Prop54
  1
strokes_ogs.tif
102
RTVSPost2010PropOp54
 70
     1
102
RTVSPost2010Prop55
280
     0
102
RTVSPost2010PropOp55
 70
     1
102
RTVSPost2010Prop56
140
1.0
102
RTVSPost2010PropOp56
 70
     1
102
RTVSPost2010Prop57
140
1.0
102
RTVSPost2010PropOp57
 70
     1
102
RTVSPropertyOp0
 70
     1
102
RTVSPropertyOp1
 70
     1
102
RTVSPropertyOp2
 70
     1
102
RTVSPropertyOp3
 70
     1
102
RTVSPropertyOp4
 70
     1
102
RTVSPropertyOp5
 70
     1
102
RTVSPropertyOp6
 70
     1
102
RTVSPropertyOp7
 70
     1
102
RTVSPropertyOp8
 70
     1
102
RTVSPropertyOp9
 70
     1
102
RTVSPropertyOp10
 70
     1
102
RTVSPropertyOp11
 70
     1
102
RTVSPropertyOp12
 70
     1
102
RTVSPropertyOp13
 70
     1
102
RTVSPropertyOp14
 70
     1
102
RTVSPropertyOp15
 70
     1
102
RTVSPropertyOp16
 70
     1
102
RTVSPropertyOp17
 70
     1
102
RTVSPropertyOp18
 70
     1
102
RTVSPropertyOp19
 70
     1
102
RTVSPropertyOp20
 70
     1
102
RTVSPropertyOp21
 70
     1
102
RTVSPropertyOp22
 70
     1
102
RTVSPropertyOp23
 70
     1
102
RTVSPropertyOp24
 70
     1
102
RTVSPropertyOp25
 70
     1
102
RTVSPropertyOp26
 70
     1
102
RTVSPropertyOp27
 70
     1
102
RTVSPropertyOp28
 70
     1
102
RTVSPropertyOp29
 70
     1
102
RTVSPropertyOp30
 70
     1
102
RTVSPropertyOp31
 70
     1
102
RTVSPropertyOp32
 70
     1
102
RTVSPropertyOp33
 70
     1
102
RTVSPropertyOp34
 70
     1
102
RTVSPropertyOp35
 70
     1
102
RTVSPropertyOp36
 70
     1
102
RTVSPropertyOp37
 70
     1
102
RTVSPropertyOp38
 70
     1
102
RTVSPropertyOp39
 70
     1
102
RTVSPropertyOp40
 70
     1
102
RTVSPropertyOp41
 70
     1
102
RTVSPropertyOp42
 70
     1
102
RTVSPropertyOp43
 70
     1
102
RTVSPropertyOp44
 70
     1
102
RTVSPropertyOp45
 70
     1
102
RTVSPropertyOp46
 70
     1
102
RTVSPropertyOp47
 70
     1
102
RTVSPropertyOp48
 70
     1
102
RTVSPropertyOp49
 70
     1
102
RTVSPropertyOp50
 70
     1
102
RTVSPropertyOp51
 70
     0
102
RTVSPropertyOp52
 70
     0
102
RTVSPropertyOp53
 70
     1
102
RTVSPropertyOp54
 70
     1
102
RTVSPropertyOp55
 70
     1
102
RTVSPropertyOp56
 70
     1
102
RTVSPropertyOp57
 70
     1
102
RTVSPropertyOp58
 70
     1
102
RTVSPropertyOp59
 70
     1
102
RTVSPropertyOp60
 70
     1
102
RTVSPropertyOp61
 70
     1
102
RTVSPropertyOp62
 70
     1
  0
XRECORD
  5
35E
102
{ACAD_REACTORS
330
35D
102
}
330
35D
100
AcDbXrecord
280
     1
102
RTVSPost2010Prop28
280
     0
102
RTVSPost2010PropOp28
 70
     1
102
RTVSPost2010Prop29
280
     1
102
RTVSPost2010PropOp29
 70
     1
102
RTVSPost2010Prop30
280
     1
102
RTVSPost2010PropOp30
 70
     1
102
RTVSPost2010Prop31
280
     0
102
RTVSPost2010PropOp31
 70
     1
102
RTVSPost2010Prop32
280
     0
102
RTVSPost2010PropOp32
 70
     1
102
RTVSPost2010Prop33
280
     0
102
RTVSPost2010PropOp33
 70
     1
102
RTVSPost2010Prop34
280
     0
102
RTVSPost2010PropOp34
 70
     1
102
RTVSPost2010Prop35
280
     0
102
RTVSPost2010PropOp35
 70
     1
102
RTVSPost2010Prop36
280
     0
102
RTVSPost2010PropOp36
 70
     1
102
RTVSPost2010Prop37
 90
       50
102
RTVSPost2010PropOp37
 70
     1
102
RTVSPost2010Prop38
140
0.0
102
RTVSPost2010PropOp38
 70
     1
102
RTVSPost2010Prop39
140
1.0
102
RTVSPost2010PropOp39
 70
     1
102
RTVSPost2010Prop40
 90
        0
102
RTVSPost2010PropOp40
 70
     1
102
RTVSPost2010Prop41ColorIndex
 90
       18
102
RTVSPost2010Prop41ColorRGB
 90
        0
102
RTVSPost2010PropOp41
 70
     1
102
RTVSPost2010Prop42
 90
       50
102
RTVSPost2010PropOp42
 70
     1
102
RTVSPost2010Prop43
 90
        3
102
RTVSPost2010PropOp43
 70
     1
102
RTVSPost2010Prop44ColorIndex
 90
        5
102
RTVSPost2010Prop44ColorRGB
 90
      255
102
RTVSPost2010PropOp44
 70
     1
102
RTVSPost2010Prop45
280
     0
102
RTVSPost2010PropOp45
 70
     1
102
RTVSPost2010Prop46
 90
       50
102
RTVSPost2010PropOp46
 70
     1
102
RTVSPost2010Prop47
 90
       50
102
RTVSPost2010PropOp47
 70
     1
102
RTVSPost2010Prop48
 90
       50
102
RTVSPost2010PropOp48
 70
     1
102
RTVSPost2010Prop49
280
     0
102
RTVSPost2010PropOp49
 70
     1
102
RTVSPost2010Prop50
 90
       50
102
RTVSPost2010PropOp50
 70
     1
102
RTVSPost2010Prop51ColorIndex
 90
      256
102
RTVSPost2010Prop51ColorRGB
 90
-16777216
102
RTVSPost2010PropOp51
 70
     0
102
RTVSPost2010Prop52
140
1.0
102
RTVSPost2010PropOp52
 70
     0
102
RTVSPost2010Prop53
 90
        2
102
RTVSPost2010PropOp53
 70
     1
102
RTVSPost2010Prop54
  1
strokes_ogs.tif
102
RTVSPost2010PropOp54
 70
     1
102
RTVSPost2010Prop55
280
     0
102
RTVSPost2010PropOp55
 70
     1
102
RTVSPost2010Prop56
140
1.0
102
RTVSPost2010PropOp56
 70
     1
102
RTVSPost2010Prop57
140
1.0
102
RTVSPost2010PropOp57
 70
     1
102
RTVSPropertyOp0
 70
     1
102
RTVSPropertyOp1
 70
     1
102
RTVSPropertyOp2
 70
     1
102
RTVSPropertyOp3
 70
     1
102
RTVSPropertyOp4
 70
     1
102
RTVSPropertyOp5
 70
     1
102
RTVSPropertyOp6
 70
     1
102
RTVSPropertyOp7
 70
     1
102
RTVSPropertyOp8
 70
     1
102
RTVSPropertyOp9
 70
     1
102
RTVSPropertyOp10
 70
     1
102
RTVSPropertyOp11
 70
     1
102
RTVSPropertyOp12
 70
     1
102
RTVSPropertyOp13
 70
     1
102
RTVSPropertyOp14
 70
     1
102
RTVSPropertyOp15
 70
     1
102
RTVSPropertyOp16
 70
     1
102
RTVSPropertyOp17
 70
     1
102
RTVSPropertyOp18
 70
     1
102
RTVSPropertyOp19
 70
     1
102
RTVSPropertyOp20
 70
     1
102
RTVSPropertyOp21
 70
     1
102
RTVSPropertyOp22
 70
     1
102
RTVSPropertyOp23
 70
     1
102
RTVSPropertyOp24
 70
     1
102
RTVSPropertyOp25
 70
     1
102
RTVSPropertyOp26
 70
     1
102
RTVSPropertyOp27
 70
     1
102
RTVSPropertyOp28
 70
     1
102
RTVSPropertyOp29
 70
     1
102
RTVSPropertyOp30
 70
     1
102
RTVSPropertyOp31
 70
     1
102
RTVSPropertyOp32
 70
     1
102
RTVSPropertyOp33
 70
     1
102
RTVSPropertyOp34
 70
     1
102
RTVSPropertyOp35
 70
     1
102
RTVSPropertyOp36
 70
     1
102
RTVSPropertyOp37
 70
     1
102
RTVSPropertyOp38
 70
     1
102
RTVSPropertyOp39
 70
     1
102
RTVSPropertyOp40
 70
     1
102
RTVSPropertyOp41
 70
     1
102
RTVSPropertyOp42
 70
     1
102
RTVSPropertyOp43
 70
     1
102
RTVSPropertyOp44
 70
     1
102
RTVSPropertyOp45
 70
     1
102
RTVSPropertyOp46
 70
     1
102
RTVSPropertyOp47
 70
     1
102
RTVSPropertyOp48
 70
     1
102
RTVSPropertyOp49
 70
     1
102
RTVSPropertyOp50
 70
     1
102
RTVSPropertyOp51
 70
     0
102
RTVSPropertyOp52
 70
     0
102
RTVSPropertyOp53
 70
     1
102
RTVSPropertyOp54
 70
     1
102
RTVSPropertyOp55
 70
     1
102
RTVSPropertyOp56
 70
     1
102
RTVSPropertyOp57
 70
     1
102
RTVSPropertyOp58
 70
     1
102
RTVSPropertyOp59
 70
     1
102
RTVSPropertyOp60
 70
     1
102
RTVSPropertyOp61
 70
     1
102
RTVSPropertyOp62
 70
     1
  0
XRECORD
  5
34E
102
{ACAD_REACTORS
330
34D
102
}
330
34D
100
AcDbXrecord
280
     1
102
RTVSPost2010Prop28
280
     0
102
RTVSPost2010PropOp28
 70
     1
102
RTVSPost2010Prop29
280
     1
102
RTVSPost2010PropOp29
 70
     1
102
RTVSPost2010Prop30
280
     1
102
RTVSPost2010PropOp30
 70
     1
102
RTVSPost2010Prop31
280
     0
102
RTVSPost2010PropOp31
 70
     1
102
RTVSPost2010Prop32
280
     0
102
RTVSPost2010PropOp32
 70
     1
102
RTVSPost2010Prop33
280
     0
102
RTVSPost2010PropOp33
 70
     1
102
RTVSPost2010Prop34
280
     0
102
RTVSPost2010PropOp34
 70
     1
102
RTVSPost2010Prop35
280
     0
102
RTVSPost2010PropOp35
 70
     1
102
RTVSPost2010Prop36
280
     0
102
RTVSPost2010PropOp36
 70
     1
102
RTVSPost2010Prop37
 90
       50
102
RTVSPost2010PropOp37
 70
     1
102
RTVSPost2010Prop38
140
0.0
102
RTVSPost2010PropOp38
 70
     1
102
RTVSPost2010Prop39
140
1.0
102
RTVSPost2010PropOp39
 70
     1
102
RTVSPost2010Prop40
 90
        0
102
RTVSPost2010PropOp40
 70
     1
102
RTVSPost2010Prop41ColorIndex
 90
       18
102
RTVSPost2010Prop41ColorRGB
 90
        0
102
RTVSPost2010PropOp41
 70
     1
102
RTVSPost2010Prop42
 90
       50
102
RTVSPost2010PropOp42
 70
     1
102
RTVSPost2010Prop43
 90
        3
102
RTVSPost2010PropOp43
 70
     1
102
RTVSPost2010Prop44ColorIndex
 90
        5
102
RTVSPost2010Prop44ColorRGB
 90
      255
102
RTVSPost2010PropOp44
 70
     1
102
RTVSPost2010Prop45
280
     0
102
RTVSPost2010PropOp45
 70
     1
102
RTVSPost2010Prop46
 90
       50
102
RTVSPost2010PropOp46
 70
     1
102
RTVSPost2010Prop47
 90
       50
102
RTVSPost2010PropOp47
 70
     1
102
RTVSPost2010Prop48
 90
       50
102
RTVSPost2010PropOp48
 70
     1
102
RTVSPost2010Prop49
280
     0
102
RTVSPost2010PropOp49
 70
     1
102
RTVSPost2010Prop50
 90
       50
102
RTVSPost2010PropOp50
 70
     1
102
RTVSPost2010Prop51ColorIndex
 90
      256
102
RTVSPost2010Prop51ColorRGB
 90
-16777216
102
RTVSPost2010PropOp51
 70
     0
102
RTVSPost2010Prop52
140
1.0
102
RTVSPost2010PropOp52
 70
     0
102
RTVSPost2010Prop53
 90
        2
102
RTVSPost2010PropOp53
 70
     1
102
RTVSPost2010Prop54
  1
strokes_ogs.tif
102
RTVSPost2010PropOp54
 70
     1
102
RTVSPost2010Prop55
280
     0
102
RTVSPost2010PropOp55
 70
     1
102
RTVSPost2010Prop56
140
1.0
102
RTVSPost2010PropOp56
 70
     1
102
RTVSPost2010Prop57
140
1.0
102
RTVSPost2010PropOp57
 70
     1
102
RTVSPropertyOp0
 70
     1
102
RTVSPropertyOp1
 70
     1
102
RTVSPropertyOp2
 70
     1
102
RTVSPropertyOp3
 70
     1
102
RTVSPropertyOp4
 70
     1
102
RTVSPropertyOp5
 70
     1
102
RTVSPropertyOp6
 70
     1
102
RTVSPropertyOp7
 70
     1
102
RTVSPropertyOp8
 70
     1
102
RTVSPropertyOp9
 70
     1
102
RTVSPropertyOp10
 70
     1
102
RTVSPropertyOp11
 70
     1
102
RTVSPropertyOp12
 70
     1
102
RTVSPropertyOp13
 70
     1
102
RTVSPropertyOp14
 70
     1
102
RTVSPropertyOp15
 70
     1
102
RTVSPropertyOp16
 70
     1
102
RTVSPropertyOp17
 70
     1
102
RTVSPropertyOp18
 70
     1
102
RTVSPropertyOp19
 70
     1
102
RTVSPropertyOp20
 70
     1
102
RTVSPropertyOp21
 70
     1
102
RTVSPropertyOp22
 70
     1
102
RTVSPropertyOp23
 70
     1
102
RTVSPropertyOp24
 70
     1
102
RTVSPropertyOp25
 70
     1
102
RTVSPropertyOp26
 70
     1
102
RTVSPropertyOp27
 70
     1
102
RTVSPropertyOp28
 70
     1
102
RTVSPropertyOp29
 70
     1
102
RTVSPropertyOp30
 70
     1
102
RTVSPropertyOp31
 70
     1
102
RTVSPropertyOp32
 70
     1
102
RTVSPropertyOp33
 70
     1
102
RTVSPropertyOp34
 70
     1
102
RTVSPropertyOp35
 70
     1
102
RTVSPropertyOp36
 70
     1
102
RTVSPropertyOp37
 70
     1
102
RTVSPropertyOp38
 70
     1
102
RTVSPropertyOp39
 70
     1
102
RTVSPropertyOp40
 70
     1
102
RTVSPropertyOp41
 70
     1
102
RTVSPropertyOp42
 70
     1
102
RTVSPropertyOp43
 70
     1
102
RTVSPropertyOp44
 70
     1
102
RTVSPropertyOp45
 70
     1
102
RTVSPropertyOp46
 70
     1
102
RTVSPropertyOp47
 70
     1
102
RTVSPropertyOp48
 70
     1
102
RTVSPropertyOp49
 70
     1
102
RTVSPropertyOp50
 70
     1
102
RTVSPropertyOp51
 70
     0
102
RTVSPropertyOp52
 70
     0
102
RTVSPropertyOp53
 70
     1
102
RTVSPropertyOp54
 70
     1
102
RTVSPropertyOp55
 70
     1
102
RTVSPropertyOp56
 70
     1
102
RTVSPropertyOp57
 70
     1
102
RTVSPropertyOp58
 70
     1
102
RTVSPropertyOp59
 70
     1
102
RTVSPropertyOp60
 70
     1
102
RTVSPropertyOp61
 70
     1
102
RTVSPropertyOp62
 70
     1
  0
XRECORD
  5
340
102
{ACAD_REACTORS
330
33F
102
}
330
33F
100
AcDbXrecord
280
     1
102
RTVSPost2010Prop28
280
     0
102
RTVSPost2010PropOp28
 70
     1
102
RTVSPost2010Prop29
280
     1
102
RTVSPost2010PropOp29
 70
     1
102
RTVSPost2010Prop30
280
     1
102
RTVSPost2010PropOp30
 70
     1
102
RTVSPost2010Prop31
280
     0
102
RTVSPost2010PropOp31
 70
     1
102
RTVSPost2010Prop32
280
     0
102
RTVSPost2010PropOp32
 70
     1
102
RTVSPost2010Prop33
280
     0
102
RTVSPost2010PropOp33
 70
     1
102
RTVSPost2010Prop34
280
     0
102
RTVSPost2010PropOp34
 70
     1
102
RTVSPost2010Prop35
280
     0
102
RTVSPost2010PropOp35
 70
     1
102
RTVSPost2010Prop36
280
     0
102
RTVSPost2010PropOp36
 70
     1
102
RTVSPost2010Prop37
 90
       50
102
RTVSPost2010PropOp37
 70
     1
102
RTVSPost2010Prop38
140
0.0
102
RTVSPost2010PropOp38
 70
     1
102
RTVSPost2010Prop39
140
1.0
102
RTVSPost2010PropOp39
 70
     1
102
RTVSPost2010Prop40
 90
        0
102
RTVSPost2010PropOp40
 70
     1
102
RTVSPost2010Prop41ColorIndex
 90
       18
102
RTVSPost2010Prop41ColorRGB
 90
        0
102
RTVSPost2010PropOp41
 70
     1
102
RTVSPost2010Prop42
 90
       50
102
RTVSPost2010PropOp42
 70
     1
102
RTVSPost2010Prop43
 90
        3
102
RTVSPost2010PropOp43
 70
     1
102
RTVSPost2010Prop44ColorIndex
 90
        5
102
RTVSPost2010Prop44ColorRGB
 90
      255
102
RTVSPost2010PropOp44
 70
     1
102
RTVSPost2010Prop45
280
     0
102
RTVSPost2010PropOp45
 70
     1
102
RTVSPost2010Prop46
 90
       50
102
RTVSPost2010PropOp46
 70
     1
102
RTVSPost2010Prop47
 90
       50
102
RTVSPost2010PropOp47
 70
     1
102
RTVSPost2010Prop48
 90
       50
102
RTVSPost2010PropOp48
 70
     1
102
RTVSPost2010Prop49
280
     0
102
RTVSPost2010PropOp49
 70
     1
102
RTVSPost2010Prop50
 90
       50
102
RTVSPost2010PropOp50
 70
     1
102
RTVSPost2010Prop51ColorIndex
 90
      256
102
RTVSPost2010Prop51ColorRGB
 90
-16777216
102
RTVSPost2010PropOp51
 70
     0
102
RTVSPost2010Prop52
140
1.0
102
RTVSPost2010PropOp52
 70
     0
102
RTVSPost2010Prop53
 90
        2
102
RTVSPost2010PropOp53
 70
     1
102
RTVSPost2010Prop54
  1
strokes_ogs.tif
102
RTVSPost2010PropOp54
 70
     1
102
RTVSPost2010Prop55
280
     0
102
RTVSPost2010PropOp55
 70
     1
102
RTVSPost2010Prop56
140
1.0
102
RTVSPost2010PropOp56
 70
     1
102
RTVSPost2010Prop57
140
1.0
102
RTVSPost2010PropOp57
 70
     1
102
RTVSPropertyOp0
 70
     1
102
RTVSPropertyOp1
 70
     1
102
RTVSPropertyOp2
 70
     1
102
RTVSPropertyOp3
 70
     1
102
RTVSPropertyOp4
 70
     1
102
RTVSPropertyOp5
 70
     1
102
RTVSPropertyOp6
 70
     1
102
RTVSPropertyOp7
 70
     1
102
RTVSPropertyOp8
 70
     1
102
RTVSPropertyOp9
 70
     1
102
RTVSPropertyOp10
 70
     1
102
RTVSPropertyOp11
 70
     1
102
RTVSPropertyOp12
 70
     1
102
RTVSPropertyOp13
 70
     1
102
RTVSPropertyOp14
 70
     1
102
RTVSPropertyOp15
 70
     1
102
RTVSPropertyOp16
 70
     1
102
RTVSPropertyOp17
 70
     1
102
RTVSPropertyOp18
 70
     1
102
RTVSPropertyOp19
 70
     1
102
RTVSPropertyOp20
 70
     1
102
RTVSPropertyOp21
 70
     1
102
RTVSPropertyOp22
 70
     1
102
RTVSPropertyOp23
 70
     1
102
RTVSPropertyOp24
 70
     1
102
RTVSPropertyOp25
 70
     1
102
RTVSPropertyOp26
 70
     1
102
RTVSPropertyOp27
 70
     1
102
RTVSPropertyOp28
 70
     1
102
RTVSPropertyOp29
 70
     1
102
RTVSPropertyOp30
 70
     1
102
RTVSPropertyOp31
 70
     1
102
RTVSPropertyOp32
 70
     1
102
RTVSPropertyOp33
 70
     1
102
RTVSPropertyOp34
 70
     1
102
RTVSPropertyOp35
 70
     1
102
RTVSPropertyOp36
 70
     1
102
RTVSPropertyOp37
 70
     1
102
RTVSPropertyOp38
 70
     1
102
RTVSPropertyOp39
 70
     1
102
RTVSPropertyOp40
 70
     1
102
RTVSPropertyOp41
 70
     1
102
RTVSPropertyOp42
 70
     1
102
RTVSPropertyOp43
 70
     1
102
RTVSPropertyOp44
 70
     1
102
RTVSPropertyOp45
 70
     1
102
RTVSPropertyOp46
 70
     1
102
RTVSPropertyOp47
 70
     1
102
RTVSPropertyOp48
 70
     1
102
RTVSPropertyOp49
 70
     1
102
RTVSPropertyOp50
 70
     1
102
RTVSPropertyOp51
 70
     0
102
RTVSPropertyOp52
 70
     0
102
RTVSPropertyOp53
 70
     1
102
RTVSPropertyOp54
 70
     1
102
RTVSPropertyOp55
 70
     1
102
RTVSPropertyOp56
 70
     1
102
RTVSPropertyOp57
 70
     1
102
RTVSPropertyOp58
 70
     1
102
RTVSPropertyOp59
 70
     1
102
RTVSPropertyOp60
 70
     1
102
RTVSPropertyOp61
 70
     1
102
RTVSPropertyOp62
 70
     1
  0
XRECORD
  5
360
102
{ACAD_REACTORS
330
35F
102
}
330
35F
100
AcDbXrecord
280
     1
102
RTVSPost2010Prop28
280
     0
102
RTVSPost2010PropOp28
 70
     1
102
RTVSPost2010Prop29
280
     1
102
RTVSPost2010PropOp29
 70
     1
102
RTVSPost2010Prop30
280
     1
102
RTVSPost2010PropOp30
 70
     1
102
RTVSPost2010Prop31
280
     0
102
RTVSPost2010PropOp31
 70
     1
102
RTVSPost2010Prop32
280
     0
102
RTVSPost2010PropOp32
 70
     1
102
RTVSPost2010Prop33
280
     0
102
RTVSPost2010PropOp33
 70
     1
102
RTVSPost2010Prop34
280
     0
102
RTVSPost2010PropOp34
 70
     1
102
RTVSPost2010Prop35
280
     0
102
RTVSPost2010PropOp35
 70
     1
102
RTVSPost2010Prop36
280
     0
102
RTVSPost2010PropOp36
 70
     1
102
RTVSPost2010Prop37
 90
       50
102
RTVSPost2010PropOp37
 70
     1
102
RTVSPost2010Prop38
140
0.0
102
RTVSPost2010PropOp38
 70
     1
102
RTVSPost2010Prop39
140
1.0
102
RTVSPost2010PropOp39
 70
     1
102
RTVSPost2010Prop40
 90
        0
102
RTVSPost2010PropOp40
 70
     1
102
RTVSPost2010Prop41ColorIndex
 90
       18
102
RTVSPost2010Prop41ColorRGB
 90
        0
102
RTVSPost2010PropOp41
 70
     1
102
RTVSPost2010Prop42
 90
       50
102
RTVSPost2010PropOp42
 70
     1
102
RTVSPost2010Prop43
 90
        3
102
RTVSPost2010PropOp43
 70
     1
102
RTVSPost2010Prop44ColorIndex
 90
        5
102
RTVSPost2010Prop44ColorRGB
 90
      255
102
RTVSPost2010PropOp44
 70
     1
102
RTVSPost2010Prop45
280
     0
102
RTVSPost2010PropOp45
 70
     1
102
RTVSPost2010Prop46
 90
       50
102
RTVSPost2010PropOp46
 70
     1
102
RTVSPost2010Prop47
 90
       50
102
RTVSPost2010PropOp47
 70
     1
102
RTVSPost2010Prop48
 90
       50
102
RTVSPost2010PropOp48
 70
     1
102
RTVSPost2010Prop49
280
     0
102
RTVSPost2010PropOp49
 70
     1
102
RTVSPost2010Prop50
 90
       50
102
RTVSPost2010PropOp50
 70
     1
102
RTVSPost2010Prop51ColorIndex
 90
      256
102
RTVSPost2010Prop51ColorRGB
 90
-16777216
102
RTVSPost2010PropOp51
 70
     0
102
RTVSPost2010Prop52
140
1.0
102
RTVSPost2010PropOp52
 70
     0
102
RTVSPost2010Prop53
 90
        2
102
RTVSPost2010PropOp53
 70
     1
102
RTVSPost2010Prop54
  1
strokes_ogs.tif
102
RTVSPost2010PropOp54
 70
     1
102
RTVSPost2010Prop55
280
     0
102
RTVSPost2010PropOp55
 70
     1
102
RTVSPost2010Prop56
140
1.0
102
RTVSPost2010PropOp56
 70
     1
102
RTVSPost2010Prop57
140
1.0
102
RTVSPost2010PropOp57
 70
     1
102
RTVSPropertyOp0
 70
     1
102
RTVSPropertyOp1
 70
     1
102
RTVSPropertyOp2
 70
     1
102
RTVSPropertyOp3
 70
     1
102
RTVSPropertyOp4
 70
     1
102
RTVSPropertyOp5
 70
     1
102
RTVSPropertyOp6
 70
     1
102
RTVSPropertyOp7
 70
     1
102
RTVSPropertyOp8
 70
     1
102
RTVSPropertyOp9
 70
     1
102
RTVSPropertyOp10
 70
     1
102
RTVSPropertyOp11
 70
     1
102
RTVSPropertyOp12
 70
     1
102
RTVSPropertyOp13
 70
     1
102
RTVSPropertyOp14
 70
     1
102
RTVSPropertyOp15
 70
     1
102
RTVSPropertyOp16
 70
     1
102
RTVSPropertyOp17
 70
     1
102
RTVSPropertyOp18
 70
     1
102
RTVSPropertyOp19
 70
     1
102
RTVSPropertyOp20
 70
     1
102
RTVSPropertyOp21
 70
     1
102
RTVSPropertyOp22
 70
     1
102
RTVSPropertyOp23
 70
     1
102
RTVSPropertyOp24
 70
     1
102
RTVSPropertyOp25
 70
     1
102
RTVSPropertyOp26
 70
     1
102
RTVSPropertyOp27
 70
     1
102
RTVSPropertyOp28
 70
     1
102
RTVSPropertyOp29
 70
     1
102
RTVSPropertyOp30
 70
     1
102
RTVSPropertyOp31
 70
     1
102
RTVSPropertyOp32
 70
     1
102
RTVSPropertyOp33
 70
     1
102
RTVSPropertyOp34
 70
     1
102
RTVSPropertyOp35
 70
     1
102
RTVSPropertyOp36
 70
     1
102
RTVSPropertyOp37
 70
     1
102
RTVSPropertyOp38
 70
     1
102
RTVSPropertyOp39
 70
     1
102
RTVSPropertyOp40
 70
     1
102
RTVSPropertyOp41
 70
     1
102
RTVSPropertyOp42
 70
     1
102
RTVSPropertyOp43
 70
     1
102
RTVSPropertyOp44
 70
     1
102
RTVSPropertyOp45
 70
     1
102
RTVSPropertyOp46
 70
     1
102
RTVSPropertyOp47
 70
     1
102
RTVSPropertyOp48
 70
     1
102
RTVSPropertyOp49
 70
     1
102
RTVSPropertyOp50
 70
     1
102
RTVSPropertyOp51
 70
     0
102
RTVSPropertyOp52
 70
     0
102
RTVSPropertyOp53
 70
     1
102
RTVSPropertyOp54
 70
     1
102
RTVSPropertyOp55
 70
     1
102
RTVSPropertyOp56
 70
     1
102
RTVSPropertyOp57
 70
     1
102
RTVSPropertyOp58
 70
     1
102
RTVSPropertyOp59
 70
     1
102
RTVSPropertyOp60
 70
     1
102
RTVSPropertyOp61
 70
     1
102
RTVSPropertyOp62
 70
     1
  0
ENDSEC
  0
EOF
