  0
SECTION
  2
HEADER
  9
$ACADVER
  1
AC1018
  9
$ACADMAINTVER
 70
   104
  9
$DWGCODEPAGE
  3
ANSI_1250
  9
$LASTSAVEDBY
  1
pp0701
  9
$INSBASE
 10
0.0
 20
0.0
 30
0.0
  9
$EXTMIN
 10
222.2360891422908
 20
21.404126
 30
0.0
  9
$EXTMAX
 10
587.478648
 20
334.2540796666666
 30
0.0
  9
$LIMMIN
 10
-0.5
 20
-0.5
  9
$LIMMAX
 10
5.0
 20
5.0
  9
$ORTHOMODE
 70
     0
  9
$REGENMODE
 70
     1
  9
$FILLMODE
 70
     1
  9
$QTEXTMODE
 70
     0
  9
$MIRRTEXT
 70
     1
  9
$LTSCALE
 40
1.0
  9
$ATTMODE
 70
     1
  9
$TEXTSIZE
 40
0.2
  9
$TRACEWID
 40
0.05
  9
$TEXTSTYLE
  7
Standard
  9
$CLAYER
  8
0
  9
$CELTYPE
  6
ByLayer
  9
$CECOLOR
 62
   256
  9
$CELTSCALE
 40
1.0
  9
$DISPSILH
 70
     0
  9
$DIMSCALE
 40
1.0
  9
$DIMASZ
 40
0.18
  9
$DIMEXO
 40
0.0625
  9
$DIMDLI
 40
0.38
  9
$DIMRND
 40
0.0
  9
$DIMDLE
 40
0.0
  9
$DIMEXE
 40
0.18
  9
$DIMTP
 40
0.0
  9
$DIMTM
 40
0.0
  9
$DIMTXT
 40
0.18
  9
$DIMCEN
 40
0.09
  9
$DIMTSZ
 40
0.0
  9
$DIMTOL
 70
     0
  9
$DIMLIM
 70
     0
  9
$DIMTIH
 70
     1
  9
$DIMTOH
 70
     1
  9
$DIMSE1
 70
     0
  9
$DIMSE2
 70
     0
  9
$DIMTAD
 70
     0
  9
$DIMZIN
 70
     0
  9
$DIMBLK
  1

  9
$DIMASO
 70
     1
  9
$DIMSHO
 70
     1
  9
$DIMPOST
  1

  9
$DIMAPOST
  1

  9
$DIMALT
 70
     0
  9
$DIMALTD
 70
     2
  9
$DIMALTF
 40
25.4
  9
$DIMLFAC
 40
1.0
  9
$DIMTOFL
 70
     0
  9
$DIMTVP
 40
0.0
  9
$DIMTIX
 70
     0
  9
$DIMSOXD
 70
     0
  9
$DIMSAH
 70
     0
  9
$DIMBLK1
  1

  9
$DIMBLK2
  1

  9
$DIMSTYLE
  2
Standard
  9
$DIMCLRD
 70
     0
  9
$DIMCLRE
 70
     0
  9
$DIMCLRT
 70
     0
  9
$DIMTFAC
 40
1.0
  9
$DIMGAP
 40
0.09
  9
$DIMJUST
 70
     0
  9
$DIMSD1
 70
     0
  9
$DIMSD2
 70
     0
  9
$DIMTOLJ
 70
     1
  9
$DIMTZIN
 70
     0
  9
$DIMALTZ
 70
     0
  9
$DIMALTTZ
 70
     0
  9
$DIMUPT
 70
     0
  9
$DIMDEC
 70
     4
  9
$DIMTDEC
 70
     4
  9
$DIMALTU
 70
     2
  9
$DIMALTTD
 70
     2
  9
$DIMTXSTY
  7
Standard
  9
$DIMAUNIT
 70
     0
  9
$DIMADEC
 70
     0
  9
$DIMALTRND
 40
0.0
  9
$DIMAZIN
 70
     0
  9
$DIMDSEP
 70
    46
  9
$DIMATFIT
 70
     3
  9
$DIMFRAC
 70
     0
  9
$DIMLDRBLK
  1

  9
$DIMLUNIT
 70
     2
  9
$DIMLWD
 70
    -2
  9
$DIMLWE
 70
    -2
  9
$DIMTMOVE
 70
     0
  9
$LUNITS
 70
     2
  9
$LUPREC
 70
     4
  9
$SKETCHINC
 40
0.1
  9
$FILLETRAD
 40
0.5
  9
$AUNITS
 70
     0
  9
$AUPREC
 70
     0
  9
$MENU
  1
.
  9
$ELEVATION
 40
0.0
  9
$PELEVATION
 40
0.0
  9
$THICKNESS
 40
0.0
  9
$LIMCHECK
 70
     0
  9
$CHAMFERA
 40
0.0
  9
$CHAMFERB
 40
0.0
  9
$CHAMFERC
 40
0.0
  9
$CHAMFERD
 40
0.0
  9
$SKPOLY
 70
     0
  9
$TDCREATE
 40
2458856.561168981
  9
$TDUCREATE
 40
2458856.519513195
  9
$TDUPDATE
 40
2458856.564016204
  9
$TDUUPDATE
 40
2458856.522349537
  9
$TDINDWG
 40
0.0014351968
  9
$TDUSRTIMER
 40
0.0014351968
  9
$USRTIMER
 70
     1
  9
$ANGBASE
 50
0.0
  9
$ANGDIR
 70
     0
  9
$PDMODE
 70
     0
  9
$PDSIZE
 40
0.0
  9
$PLINEWID
 40
0.0
  9
$SPLFRAME
 70
     0
  9
$SPLINETYPE
 70
     6
  9
$SPLINESEGS
 70
     8
  9
$HANDSEED
  5
489
  9
$SURFTAB1
 70
     6
  9
$SURFTAB2
 70
     6
  9
$SURFTYPE
 70
     6
  9
$SURFU
 70
     6
  9
$SURFV
 70
     6
  9
$UCSBASE
  2

  9
$UCSNAME
  2

  9
$UCSORG
 10
249.444248
 20
244.434018
 30
0.0
  9
$UCSXDIR
 10
1.0
 20
0.0
 30
0.0
  9
$UCSYDIR
 10
0.0
 20
1.0
 30
0.0
  9
$UCSORTHOREF
  2

  9
$UCSORTHOVIEW
 70
     0
  9
$UCSORGTOP
 10
0.0
 20
0.0
 30
0.0
  9
$UCSORGBOTTOM
 10
0.0
 20
0.0
 30
0.0
  9
$UCSORGLEFT
 10
0.0
 20
0.0
 30
0.0
  9
$UCSORGRIGHT
 10
0.0
 20
0.0
 30
0.0
  9
$UCSORGFRONT
 10
0.0
 20
0.0
 30
0.0
  9
$UCSORGBACK
 10
0.0
 20
0.0
 30
0.0
  9
$PUCSBASE
  2

  9
$PUCSNAME
  2

  9
$PUCSORG
 10
0.0
 20
0.0
 30
0.0
  9
$PUCSXDIR
 10
1.0
 20
0.0
 30
0.0
  9
$PUCSYDIR
 10
0.0
 20
1.0
 30
0.0
  9
$PUCSORTHOREF
  2

  9
$PUCSORTHOVIEW
 70
     0
  9
$PUCSORGTOP
 10
0.0
 20
0.0
 30
0.0
  9
$PUCSORGBOTTOM
 10
0.0
 20
0.0
 30
0.0
  9
$PUCSORGLEFT
 10
0.0
 20
0.0
 30
0.0
  9
$PUCSORGRIGHT
 10
0.0
 20
0.0
 30
0.0
  9
$PUCSORGFRONT
 10
0.0
 20
0.0
 30
0.0
  9
$PUCSORGBACK
 10
0.0
 20
0.0
 30
0.0
  9
$USERI1
 70
     0
  9
$USERI2
 70
     0
  9
$USERI3
 70
     0
  9
$USERI4
 70
     0
  9
$USERI5
 70
     0
  9
$USERR1
 40
0.0
  9
$USERR2
 40
0.0
  9
$USERR3
 40
0.0
  9
$USERR4
 40
0.0
  9
$USERR5
 40
0.0
  9
$WORLDVIEW
 70
     1
  9
$SHADEDGE
 70
     3
  9
$SHADEDIF
 70
    70
  9
$TILEMODE
 70
     1
  9
$MAXACTVP
 70
    64
  9
$PINSBASE
 10
0.0
 20
0.0
 30
0.0
  9
$PLIMCHECK
 70
     0
  9
$PEXTMIN
 10
-0.5
 20
-0.5
 30
-0.5
  9
$PEXTMAX
 10
5.0
 20
5.0
 30
5.0
  9
$PLIMMIN
 10
-0.5
 20
-0.5
  9
$PLIMMAX
 10
5.0
 20
5.0
  9
$UNITMODE
 70
     0
  9
$VISRETAIN
 70
     1
  9
$PLINEGEN
 70
     0
  9
$PSLTSCALE
 70
     1
  9
$TREEDEPTH
 70
  3020
  9
$CMLSTYLE
  2
Standard
  9
$CMLJUST
 70
     0
  9
$CMLSCALE
 40
1.0
  9
$PROXYGRAPHICS
 70
     1
  9
$MEASUREMENT
 70
     1
  9
$CELWEIGHT
370
    13
  9
$ENDCAPS
280
     0
  9
$JOINSTYLE
280
     0
  9
$LWDISPLAY
290
     0
  9
$INSUNITS
 70
     4
  9
$HYPERLINKBASE
  1

  9
$STYLESHEET
  1

  9
$XEDIT
290
     1
  9
$CEPSNTYPE
380
     0
  9
$PSTYLEMODE
290
     1
  9
$FINGERPRINTGUID
  2
{D6861CE0-0C1F-4493-84F8-2C91F3C4EE4A}
  9
$VERSIONGUID
  2
{9F21E80E-18BD-824F-91EA-AA56C7C1F24F}
  9
$EXTNAMES
290
     1
  9
$PSVPSCALE
 40
0.0
  9
$OLESTARTUP
290
     0
  9
$SORTENTS
280
   127
  9
$INDEXCTL
280
     0
  9
$HIDETEXT
280
     1
  9
$XCLIPFRAME
290
     0
  9
$HALOGAP
280
     0
  9
$OBSCOLOR
 70
   257
  9
$OBSLTYPE
280
     0
  9
$INTERSECTIONDISPLAY
280
     0
  9
$INTERSECTIONCOLOR
 70
   257
  9
$DIMASSOC
280
     2
  9
$PROJECTNAME
  1

  0
ENDSEC
  0
SECTION
  2
CLASSES
  0
CLASS
  1
ACDBDICTIONARYWDFLT
  2
AcDbDictionaryWithDefault
  3
ObjectDBX Classes
 90
        0
 91
        1
280
     0
281
     0
  0
CLASS
  1
VISUALSTYLE
  2
AcDbVisualStyle
  3
ObjectDBX Classes
 90
     4095
 91
       24
280
     0
281
     0
  0
CLASS
  1
MATERIAL
  2
AcDbMaterial
  3
ObjectDBX Classes
 90
     1153
 91
        3
280
     0
281
     0
  0
CLASS
  1
SCALE
  2
AcDbScale
  3
ObjectDBX Classes
 90
     1153
 91
       33
280
     0
281
     0
  0
CLASS
  1
TABLESTYLE
  2
AcDbTableStyle
  3
ObjectDBX Classes
 90
     4095
 91
        1
280
     0
281
     0
  0
CLASS
  1
MLEADERSTYLE
  2
AcDbMLeaderStyle
  3
ACDB_MLEADERSTYLE_CLASS
 90
     4095
 91
        1
280
     0
281
     0
  0
CLASS
  1
SUN
  2
AcDbSun
  3
SCENEOE
 90
     1153
 91
        0
280
     0
281
     0
  0
CLASS
  1
IMAGEDEF
  2
AcDbRasterImageDef
  3
ISM
 90
        0
 91
        1
280
     0
281
     0
  0
CLASS
  1
IMAGE
  2
AcDbRasterImage
  3
ISM
 90
     2175
 91
        1
280
     0
281
     1
  0
CLASS
  1
IMAGEDEF_REACTOR
  2
AcDbRasterImageDefReactor
  3
ISM
 90
        1
 91
        1
280
     0
281
     0
  0
CLASS
  1
DIMASSOC
  2
AcDbDimAssoc
  3
"AcDbDimAssoc|Product Desc:     AcDim ARX App For Dimension|Company:          Autodesk, Inc.|WEB Address:      www.autodesk.com"
 90
        0
 91
        5
280
     0
281
     0
  0
CLASS
  1
DICTIONARYVAR
  2
AcDbDictionaryVar
  3
ObjectDBX Classes
 90
        0
 91
        8
280
     0
281
     0
  0
CLASS
  1
CELLSTYLEMAP
  2
AcDbCellStyleMap
  3
ObjectDBX Classes
 90
     1152
 91
        2
280
     0
281
     0
  0
CLASS
  1
ACDBSECTIONVIEWSTYLE
  2
AcDbSectionViewStyle
  3
ObjectDBX Classes
 90
     1025
 91
        1
280
     0
281
     0
  0
CLASS
  1
ACDBDETAILVIEWSTYLE
  2
AcDbDetailViewStyle
  3
ObjectDBX Classes
 90
     1025
 91
        1
280
     0
281
     0
  0
CLASS
  1
RASTERVARIABLES
  2
AcDbRasterVariables
  3
ISM
 90
        0
 91
        1
280
     0
281
     0
  0
CLASS
  1
SORTENTSTABLE
  2
AcDbSortentsTable
  3
ObjectDBX Classes
 90
        0
 91
        1
280
     0
281
     0
  0
ENDSEC
  0
SECTION
  2
TABLES
  0
TABLE
  2
VPORT
  5
8
330
0
100
AcDbSymbolTable
 70
    16
  0
VPORT
  5
29
330
8
100
AcDbSymbolTableRecord
100
AcDbViewportTableRecord
  2
*Active
 70
     0
 10
0.0
 20
0.0
 11
1.0
 21
1.0
 12
239.184804521678
 22
251.3109515311638
 13
0.0
 23
0.0
 14
0.5
 24
0.5
 15
0.5
 25
0.5
 16
0.0
 26
0.0
 36
1.0
 17
0.0
 27
0.0
 37
0.0
 40
183.971121403704
 41
2.292712066905615
 42
50.0
 43
743.702703
 44
-743.702703
 50
0.0
 51
0.0
 71
     0
 72
   100
 73
     1
 74
     3
 75
     0
 76
     0
 77
     0
 78
     0
281
     0
 65
     1
110
249.444248
120
244.434018
130
0.0
111
1.0
121
0.0
131
0.0
112
0.0
122
1.0
132
0.0
 79
     0
146
0.0
1001
ACAD_NAV_VCDISPLAY
1070
     3
  0
VPORT
  5
363
330
8
100
AcDbSymbolTableRecord
100
AcDbViewportTableRecord
  2
L1
 70
     0
 10
0.0
 20
0.0
 11
1.0
 21
1.0
 12
404.3367049999999
 22
177.833685
 13
0.0
 23
0.0
 14
0.5
 24
0.5
 15
0.5
 25
0.5
 16
0.0
 26
0.0
 36
1.0
 17
0.0
 27
0.0
 37
0.0
 40
207.433333
 41
0.085602
 42
50.0
 43
743.702703
 44
-743.702703
 50
0.0
 51
0.0
 71
     0
 72
   100
 73
     1
 74
     3
 75
     0
 76
     0
 77
     0
 78
     0
281
     0
 65
     1
110
0.0
120
0.0
130
0.0
111
1.0
121
0.0
131
0.0
112
0.0
122
1.0
132
0.0
 79
     0
146
0.0
  0
VPORT
  5
364
330
8
100
AcDbSymbolTableRecord
100
AcDbViewportTableRecord
  2
L2
 70
     0
 10
0.0
 20
0.0
 11
0.5
 21
1.0
 12
0.0
 22
0.0
 13
0.0
 23
0.0
 14
0.5
 24
0.5
 15
0.5
 25
0.5
 16
0.0
 26
-1.0
 36
0.0
 17
0.0
 27
0.0
 37
0.0
 40
1478.660809
 41
0.012009
 42
50.0
 43
765.39502
 44
-765.39502
 50
0.0
 51
0.0
 71
     0
 72
   100
 73
     1
 74
     3
 75
     0
 76
     0
 77
     0
 78
     0
281
     0
 65
     1
110
0.0
120
0.0
130
0.0
111
1.0
121
0.0
131
0.0
112
0.0
122
1.0
132
0.0
 79
     0
146
0.0
  0
VPORT
  5
365
330
8
100
AcDbSymbolTableRecord
100
AcDbViewportTableRecord
  2
L2
 70
     0
 10
0.5
 20
0.0
 11
1.0
 21
1.0
 12
0.0
 22
0.0
 13
0.0
 23
0.0
 14
0.5
 24
0.5
 15
0.5
 25
0.5
 16
1.0
 26
0.0
 36
0.0
 17
0.0
 27
0.0
 37
0.0
 40
1478.660809
 41
0.012009
 42
50.0
 43
746.5698859999999
 44
-746.5698859999999
 50
0.0
 51
0.0
 71
     0
 72
   100
 73
     1
 74
     3
 75
     0
 76
     0
 77
     0
 78
     0
281
     0
 65
     1
110
0.0
120
0.0
130
0.0
111
1.0
121
0.0
131
0.0
112
0.0
122
1.0
132
0.0
 79
     0
146
0.0
  0
VPORT
  5
366
330
8
100
AcDbSymbolTableRecord
100
AcDbViewportTableRecord
  2
L3
 70
     0
 10
0.0
 20
0.5
 11
1.0
 21
1.0
 12
404.3367049999999
 22
177.833685
 13
0.0
 23
0.0
 14
0.5
 24
0.5
 15
0.5
 25
0.5
 16
0.0
 26
0.0
 36
1.0
 17
0.0
 27
0.0
 37
0.0
 40
207.433333
 41
0.085602
 42
50.0
 43
743.702703
 44
-743.702703
 50
0.0
 51
0.0
 71
     0
 72
   100
 73
     1
 74
     3
 75
     0
 76
     0
 77
     0
 78
     0
281
     0
 65
     1
110
0.0
120
0.0
130
0.0
111
1.0
121
0.0
131
0.0
112
0.0
122
1.0
132
0.0
 79
     0
146
0.0
  0
VPORT
  5
367
330
8
100
AcDbSymbolTableRecord
100
AcDbViewportTableRecord
  2
L3
 70
     0
 10
0.0
 20
0.0
 11
1.0
 21
0.5
 12
0.0
 22
0.0
 13
0.0
 23
0.0
 14
0.5
 24
0.5
 15
0.5
 25
0.5
 16
0.0
 26
-1.0
 36
0.0
 17
0.0
 27
0.0
 37
0.0
 40
1478.660809
 41
0.012009
 42
50.0
 43
765.39502
 44
-765.39502
 50
0.0
 51
0.0
 71
     0
 72
   100
 73
     1
 74
     3
 75
     0
 76
     0
 77
     0
 78
     0
281
     0
 65
     1
110
0.0
120
0.0
130
0.0
111
1.0
121
0.0
131
0.0
112
0.0
122
1.0
132
0.0
 79
     0
146
0.0
  0
VPORT
  5
368
330
8
100
AcDbSymbolTableRecord
100
AcDbViewportTableRecord
  2
L4
 70
     0
 10
0.0
 20
0.5
 11
0.5
 21
1.0
 12
404.3367049999999
 22
177.833685
 13
0.0
 23
0.0
 14
0.5
 24
0.5
 15
0.5
 25
0.5
 16
0.0
 26
0.0
 36
1.0
 17
0.0
 27
0.0
 37
0.0
 40
207.433333
 41
0.085602
 42
50.0
 43
743.702703
 44
-743.702703
 50
0.0
 51
0.0
 71
     0
 72
   100
 73
     1
 74
     3
 75
     0
 76
     0
 77
     0
 78
     0
281
     0
 65
     1
110
0.0
120
0.0
130
0.0
111
1.0
121
0.0
131
0.0
112
0.0
122
1.0
132
0.0
 79
     0
146
0.0
  0
VPORT
  5
369
330
8
100
AcDbSymbolTableRecord
100
AcDbViewportTableRecord
  2
L4
 70
     0
 10
0.0
 20
0.0
 11
0.5
 21
0.5
 12
0.0
 22
0.0
 13
0.0
 23
0.0
 14
0.5
 24
0.5
 15
0.5
 25
0.5
 16
0.0
 26
-1.0
 36
0.0
 17
0.0
 27
0.0
 37
0.0
 40
1478.660809
 41
0.012009
 42
50.0
 43
765.39502
 44
-765.39502
 50
0.0
 51
0.0
 71
     0
 72
   100
 73
     1
 74
     3
 75
     0
 76
     0
 77
     0
 78
     0
281
     0
 65
     1
110
0.0
120
0.0
130
0.0
111
1.0
121
0.0
131
0.0
112
0.0
122
1.0
132
0.0
 79
     0
146
0.0
  0
VPORT
  5
36A
330
8
100
AcDbSymbolTableRecord
100
AcDbViewportTableRecord
  2
L4
 70
     0
 10
0.5
 20
0.0
 11
1.0
 21
0.5
 12
0.0
 22
0.0
 13
0.0
 23
0.0
 14
0.5
 24
0.5
 15
0.5
 25
0.5
 16
1.0
 26
0.0
 36
0.0
 17
0.0
 27
0.0
 37
0.0
 40
1478.660809
 41
0.012009
 42
50.0
 43
746.5698859999999
 44
-746.5698859999999
 50
0.0
 51
0.0
 71
     0
 72
   100
 73
     1
 74
     3
 75
     0
 76
     0
 77
     0
 78
     0
281
     0
 65
     1
110
0.0
120
0.0
130
0.0
111
1.0
121
0.0
131
0.0
112
0.0
122
1.0
132
0.0
 79
     0
146
0.0
  0
VPORT
  5
36B
330
8
100
AcDbSymbolTableRecord
100
AcDbViewportTableRecord
  2
L4
 70
     0
 10
0.5
 20
0.5
 11
1.0
 21
1.0
 12
0.0
 22
0.0
 13
0.0
 23
0.0
 14
0.5
 24
0.5
 15
0.5
 25
0.5
 16
0.5773502691896259
 26
-0.5773502691896259
 36
0.5773502691896259
 17
0.0
 27
0.0
 37
0.0
 40
1453.705292
 41
0.012215
 42
50.0
 43
757.5245879999999
 44
-757.5245879999999
 50
0.0
 51
0.0
 71
     0
 72
   100
 73
     1
 74
     3
 75
     0
 76
     0
 77
     0
 78
     0
281
     0
 65
     1
110
0.0
120
0.0
130
0.0
111
1.0
121
0.0
131
0.0
112
0.0
122
1.0
132
0.0
 79
     0
146
0.0
  0
VPORT
  5
36C
330
8
100
AcDbSymbolTableRecord
100
AcDbViewportTableRecord
  2
L6
 70
     0
 10
0.0
 20
0.5
 11
0.333333
 21
1.0
 12
0.0
 22
0.0
 13
0.0
 23
0.0
 14
0.5
 24
0.5
 15
0.5
 25
0.5
 16
0.7188730927569434
 26
-0.5850486126764433
 36
0.3754192287502549
 17
0.0
 27
0.0
 37
0.0
 40
1534.989881
 41
0.011568
 42
50.0
 43
794.5176169999999
 44
-794.5176169999999
 50
0.0
 51
0.0
 71
     0
 72
   100
 73
     1
 74
     3
 75
     0
 76
     0
 77
     0
 78
     0
281
     0
 65
     1
110
0.0
120
0.0
130
0.0
111
1.0
121
0.0
131
0.0
112
0.0
122
1.0
132
0.0
 79
     0
146
0.0
  0
VPORT
  5
36D
330
8
100
AcDbSymbolTableRecord
100
AcDbViewportTableRecord
  2
L6
 70
     0
 10
0.0
 20
0.0
 11
0.333333
 21
0.5
 12
0.0
 22
0.0
 13
0.0
 23
0.0
 14
0.5
 24
0.5
 15
0.5
 25
0.5
 16
-1.0
 26
0.0
 36
0.0
 17
0.0
 27
0.0
 37
0.0
 40
1478.660809
 41
0.012009
 42
50.0
 43
746.5698859999999
 44
-746.5698859999999
 50
0.0
 51
0.0
 71
     0
 72
   100
 73
     1
 74
     3
 75
     0
 76
     0
 77
     0
 78
     0
281
     0
 65
     1
110
0.0
120
0.0
130
0.0
111
1.0
121
0.0
131
0.0
112
0.0
122
1.0
132
0.0
 79
     0
146
0.0
  0
VPORT
  5
36E
330
8
100
AcDbSymbolTableRecord
100
AcDbViewportTableRecord
  2
L6
 70
     0
 10
0.333333
 20
0.5
 11
0.666667
 21
1.0
 12
404.3367049999999
 22
177.833685
 13
0.0
 23
0.0
 14
0.5
 24
0.5
 15
0.5
 25
0.5
 16
0.0
 26
0.0
 36
1.0
 17
0.0
 27
0.0
 37
0.0
 40
207.433333
 41
0.085602
 42
50.0
 43
743.702703
 44
-743.702703
 50
0.0
 51
0.0
 71
     0
 72
   100
 73
     1
 74
     3
 75
     0
 76
     0
 77
     0
 78
     0
281
     0
 65
     1
110
0.0
120
0.0
130
0.0
111
1.0
121
0.0
131
0.0
112
0.0
122
1.0
132
0.0
 79
     0
146
0.0
  0
VPORT
  5
36F
330
8
100
AcDbSymbolTableRecord
100
AcDbViewportTableRecord
  2
L6
 70
     0
 10
0.333333
 20
0.0
 11
0.666667
 21
0.5
 12
0.0
 22
0.0
 13
0.0
 23
0.0
 14
0.5
 24
0.5
 15
0.5
 25
0.5
 16
0.0
 26
-1.0
 36
0.0
 17
0.0
 27
0.0
 37
0.0
 40
1478.660809
 41
0.012009
 42
50.0
 43
765.39502
 44
-765.39502
 50
0.0
 51
0.0
 71
     0
 72
   100
 73
     1
 74
     3
 75
     0
 76
     0
 77
     0
 78
     0
281
     0
 65
     1
110
0.0
120
0.0
130
0.0
111
1.0
121
0.0
131
0.0
112
0.0
122
1.0
132
0.0
 79
     0
146
0.0
  0
VPORT
  5
370
330
8
100
AcDbSymbolTableRecord
100
AcDbViewportTableRecord
  2
L6
 70
     0
 10
0.666667
 20
0.5
 11
1.0
 21
1.0
 12
0.0
 22
0.0
 13
0.0
 23
0.0
 14
0.5
 24
0.5
 15
0.5
 25
0.5
 16
0.5773502691896259
 26
-0.5773502691896259
 36
0.5773502691896259
 17
0.0
 27
0.0
 37
0.0
 40
1453.705292
 41
0.012215
 42
50.0
 43
757.5245879999999
 44
-757.5245879999999
 50
0.0
 51
0.0
 71
     0
 72
   100
 73
     1
 74
     3
 75
     0
 76
     0
 77
     0
 78
     0
281
     0
 65
     1
110
0.0
120
0.0
130
0.0
111
1.0
121
0.0
131
0.0
112
0.0
122
1.0
132
0.0
 79
     0
146
0.0
  0
VPORT
  5
371
330
8
100
AcDbSymbolTableRecord
100
AcDbViewportTableRecord
  2
L6
 70
     0
 10
0.666667
 20
0.0
 11
1.0
 21
0.5
 12
0.0
 22
0.0
 13
0.0
 23
0.0
 14
0.5
 24
0.5
 15
0.5
 25
0.5
 16
1.0
 26
0.0
 36
0.0
 17
0.0
 27
0.0
 37
0.0
 40
1478.660809
 41
0.012009
 42
50.0
 43
746.5698859999999
 44
-746.5698859999999
 50
0.0
 51
0.0
 71
     0
 72
   100
 73
     1
 74
     3
 75
     0
 76
     0
 77
     0
 78
     0
281
     0
 65
     1
110
0.0
120
0.0
130
0.0
111
1.0
121
0.0
131
0.0
112
0.0
122
1.0
132
0.0
 79
     0
146
0.0
  0
ENDTAB
  0
TABLE
  2
LTYPE
  5
5
330
0
100
AcDbSymbolTable
 70
     7
  0
LTYPE
  5
14
330
5
100
AcDbSymbolTableRecord
100
AcDbLinetypeTableRecord
  2
ByBlock
 70
     0
  3

 72
    65
 73
     0
 40
0.0
  0
LTYPE
  5
15
330
5
100
AcDbSymbolTableRecord
100
AcDbLinetypeTableRecord
  2
ByLayer
 70
     0
  3

 72
    65
 73
     0
 40
0.0
  0
LTYPE
  5
16
330
5
100
AcDbSymbolTableRecord
100
AcDbLinetypeTableRecord
  2
Continuous
 70
     0
  3
Solid line
 72
    65
 73
     0
 40
0.0
  0
LTYPE
  5
6E
330
5
100
AcDbSymbolTableRecord
100
AcDbLinetypeTableRecord
  2
CENTER
 70
     0
  3
____ _ ____ _ ____ _ ____
 72
    65
 73
     4
 40
47.4
 49
22.0
 74
     4
 75
     0
340
0
 46
0.0
 50
0.0
 44
0.0
 45
0.0
 49
-8.5
 74
     4
 75
     0
340
0
 46
0.0
 50
0.0
 44
0.0
 45
0.0
 49
8.5
 74
     4
 75
     0
340
0
 46
0.0
 50
0.0
 44
0.0
 45
0.0
 49
-8.5
 74
     4
 75
     0
340
0
 46
0.0
 50
0.0
 44
0.0
 45
0.0
  0
LTYPE
  5
6F
330
5
100
AcDbSymbolTableRecord
100
AcDbLinetypeTableRecord
  2
DASHDOT
 70
     0
  3
_._._._._._._._._._._._._._._._.
 72
    65
 73
     4
 40
70.0
 49
31.0
 74
     4
 75
     0
340
0
 46
0.0
 50
0.0
 44
0.0
 45
0.0
 49
-13.0
 74
     4
 75
     0
340
0
 46
0.0
 50
0.0
 44
0.0
 45
0.0
 49
13.0
 74
     4
 75
     0
340
0
 46
0.0
 50
0.0
 44
0.0
 45
0.0
 49
-13.0
 74
     4
 75
     0
340
0
 46
0.0
 50
0.0
 44
0.0
 45
0.0
  0
LTYPE
  5
70
330
5
100
AcDbSymbolTableRecord
100
AcDbLinetypeTableRecord
  2
DASHED
 70
     0
  3
__ __ __ __ __ __ __ __ __
 72
    65
 73
     2
 40
25.72
 49
12.86
 74
     4
 75
     0
340
0
 46
0.0
 50
0.0
 44
0.0
 45
0.0
 49
-12.86
 74
     4
 75
     0
340
0
 46
0.0
 50
0.0
 44
0.0
 45
0.0
  0
LTYPE
  5
71
330
5
100
AcDbSymbolTableRecord
100
AcDbLinetypeTableRecord
  2
DOT
 70
     0
  3
.........................
 72
    65
 73
     2
 40
10.0
 49
0.0
 74
     4
 75
     0
340
0
 46
0.0
 50
0.0
 44
0.0
 45
0.0
 49
-10.0
 74
     4
 75
     0
340
0
 46
0.0
 50
0.0
 44
0.0
 45
0.0
  0
LTYPE
  5
72
330
5
100
AcDbSymbolTableRecord
100
AcDbLinetypeTableRecord
  2
PHANTOM
 70
     0
  3
____ _ _ ____ _ _ _____ _ _ ____
 72
    65
 73
     6
 40
50.5
 49
18.0
 74
     4
 75
     0
340
0
 46
0.0
 50
0.0
 44
0.0
 45
0.0
 49
-6.5
 74
     4
 75
     0
340
0
 46
0.0
 50
0.0
 44
0.0
 45
0.0
 49
6.5
 74
     4
 75
     0
340
0
 46
0.0
 50
0.0
 44
0.0
 45
0.0
 49
-6.5
 74
     4
 75
     0
340
0
 46
0.0
 50
0.0
 44
0.0
 45
0.0
 49
6.5
 74
     4
 75
     0
340
0
 46
0.0
 50
0.0
 44
0.0
 45
0.0
 49
-6.5
 74
     4
 75
     0
340
0
 46
0.0
 50
0.0
 44
0.0
 45
0.0
  0
LTYPE
  5
415
330
5
100
AcDbSymbolTableRecord
100
AcDbLinetypeTableRecord
  2
CENTER2
 70
     0
  3
Center (.5x) ___ _ ___ _ ___ _ ___ _ ___ _ ___
 72
    65
 73
     4
 40
1.125
 49
0.75
 74
     0
 49
-0.125
 74
     0
 49
0.125
 74
     0
 49
-0.125
 74
     0
  0
ENDTAB
  0
TABLE
  2
LAYER
  5
2
102
{ACAD_XDICTIONARY
360
440
102
}
330
0
100
AcDbSymbolTable
 70
    23
  0
LAYER
  5
10
102
{ACAD_XDICTIONARY
360
421
102
}
330
2
100
AcDbSymbolTableRecord
100
AcDbLayerTableRecord
  2
0
 70
     0
 62
     7
  6
Continuous
370
    -3
390
F
  0
LAYER
  5
76
102
{ACAD_XDICTIONARY
360
423
102
}
330
2
100
AcDbSymbolTableRecord
100
AcDbLayerTableRecord
  2
60
 70
     0
 62
     7
420
 16777215
  6
Continuous
370
    -3
390
F
  0
LAYER
  5
2EC
330
2
100
AcDbSymbolTableRecord
100
AcDbLayerTableRecord
  2
Defpoints
 70
     0
 62
     7
  6
Continuous
290
     0
370
    -3
390
F
  0
LAYER
  5
412
102
{ACAD_XDICTIONARY
360
425
102
}
330
2
100
AcDbSymbolTableRecord
100
AcDbLayerTableRecord
  2
1
 70
     0
 62
     4
  6
Continuous
370
    -3
390
F
  0
LAYER
  5
413
102
{ACAD_XDICTIONARY
360
427
102
}
330
2
100
AcDbSymbolTableRecord
100
AcDbLayerTableRecord
  2
2
 70
     0
 62
     7
  6
Continuous
370
    -3
390
F
  0
LAYER
  5
414
102
{ACAD_XDICTIONARY
360
429
102
}
330
2
100
AcDbSymbolTableRecord
100
AcDbLayerTableRecord
  2
4
 70
     0
 62
     2
  6
CENTER2
370
    -3
390
F
  0
LAYER
  5
417
102
{ACAD_XDICTIONARY
360
42B
102
}
330
2
100
AcDbSymbolTableRecord
100
AcDbLayerTableRecord
  2
SK2
 70
     0
 62
     7
  6
Continuous
370
    -3
390
F
  0
LAYER
  5
418
102
{ACAD_XDICTIONARY
360
42D
102
}
330
2
100
AcDbSymbolTableRecord
100
AcDbLayerTableRecord
  2
SK3
 70
     0
 62
     1
  6
DASHED
370
    -3
390
F
  0
LAYER
  5
419
102
{ACAD_XDICTIONARY
360
42F
102
}
330
2
100
AcDbSymbolTableRecord
100
AcDbLayerTableRecord
  2
SK4
 70
     0
 62
     2
  6
CENTER2
370
    -3
390
F
  0
LAYER
  5
41A
102
{ACAD_XDICTIONARY
360
431
102
}
330
2
100
AcDbSymbolTableRecord
100
AcDbLayerTableRecord
  2
SK6
 70
     0
 62
     5
  6
Continuous
370
    -3
390
F
  0
LAYER
  5
41B
102
{ACAD_XDICTIONARY
360
433
102
}
330
2
100
AcDbSymbolTableRecord
100
AcDbLayerTableRecord
  2
CUT
 70
     0
 62
     1
  6
Continuous
370
    -3
390
F
  0
LAYER
  5
41C
102
{ACAD_XDICTIONARY
360
435
102
}
330
2
100
AcDbSymbolTableRecord
100
AcDbLayerTableRecord
  2
NOCUT
 70
     0
 62
     7
  6
Continuous
370
    -3
390
F
  0
LAYER
  5
41D
102
{ACAD_XDICTIONARY
360
437
102
}
330
2
100
AcDbSymbolTableRecord
100
AcDbLayerTableRecord
  2
80
 70
     0
 62
     6
  6
Continuous
370
    -3
390
F
  0
LAYER
  5
41E
102
{ACAD_XDICTIONARY
360
439
102
}
330
2
100
AcDbSymbolTableRecord
100
AcDbLayerTableRecord
  2
81
 70
     0
 62
     3
  6
Continuous
370
    -3
390
F
  0
LAYER
  5
41F
102
{ACAD_XDICTIONARY
360
43B
102
}
330
2
100
AcDbSymbolTableRecord
100
AcDbLayerTableRecord
  2
SK1
 70
     0
 62
     4
  6
Continuous
370
    -3
390
F
  0
ENDTAB
  0
TABLE
  2
STYLE
  5
3
330
0
100
AcDbSymbolTable
 70
     3
  0
STYLE
  5
11
330
3
100
AcDbSymbolTableRecord
100
AcDbTextStyleTableRecord
  2
Standard
 70
     0
 40
0.0
 41
1.0
 50
0.0
 71
     0
 42
0.2
  3
txt
  4

  0
STYLE
  5
2E6
330
3
100
AcDbSymbolTableRecord
100
AcDbTextStyleTableRecord
  2
cesky
 70
     0
 40
0.0
 41
1.0
 50
0.0
 71
     0
 42
0.2
  3
simplex.shx
  4

  0
STYLE
  5
2E7
330
3
100
AcDbSymbolTableRecord
100
AcDbTextStyleTableRecord
  2
DWGDirectTextStyle
 70
     0
 40
0.0
 41
1.0
 50
0.0
 71
     0
 42
0.2
  3
simplex
  4

  0
ENDTAB
  0
TABLE
  2
VIEW
  5
6
330
0
100
AcDbSymbolTable
 70
     1
  0
ENDTAB
  0
TABLE
  2
UCS
  5
7
330
0
100
AcDbSymbolTable
 70
     0
  0
ENDTAB
  0
TABLE
  2
APPID
  5
9
330
0
100
AcDbSymbolTable
 70
     7
  0
APPID
  5
12
330
9
100
AcDbSymbolTableRecord
100
AcDbRegAppTableRecord
  2
ACAD
 70
     0
  0
APPID
  5
2E8
330
9
100
AcDbSymbolTableRecord
100
AcDbRegAppTableRecord
  2
ACAD_DSTYLE_DIMBREAK
 70
     0
  0
APPID
  5
372
330
9
100
AcDbSymbolTableRecord
100
AcDbRegAppTableRecord
  2
ACAD_DSTYLE_DIM_LINETYPE
 70
     0
  0
APPID
  5
373
330
9
100
AcDbSymbolTableRecord
100
AcDbRegAppTableRecord
  2
ACAD_DSTYLE_DIM_EXT1_LINETYPE
 70
     0
  0
APPID
  5
374
330
9
100
AcDbSymbolTableRecord
100
AcDbRegAppTableRecord
  2
ACAD_DSTYLE_DIM_EXT2_LINETYPE
 70
     0
  0
APPID
  5
3B4
330
9
100
AcDbSymbolTableRecord
100
AcDbRegAppTableRecord
  2
ACAD_MLEADERVER
 70
     0
  0
APPID
  5
449
330
9
100
AcDbSymbolTableRecord
100
AcDbRegAppTableRecord
  2
ACAD_NAV_VCDISPLAY
 70
     0
  0
ENDTAB
  0
TABLE
  2
DIMSTYLE
  5
A
330
0
100
AcDbSymbolTable
 70
     1
100
AcDbDimStyleTable
 71
     0
  0
DIMSTYLE
105
27
330
A
100
AcDbSymbolTableRecord
100
AcDbDimStyleTableRecord
  2
Standard
 70
     0
340
11
1001
ACAD_DSTYLE_DIMBREAK
1070
   391
1040
6.349999999999999
  0
ENDTAB
  0
TABLE
  2
BLOCK_RECORD
  5
1
330
0
100
AcDbSymbolTable
 70
    11
  0
BLOCK_RECORD
  5
1F
102
{ACAD_XDICTIONARY
360
3C5
102
}
330
1
100
AcDbSymbolTableRecord
100
AcDbBlockTableRecord
  2
*Model_Space
340
22
  0
BLOCK_RECORD
  5
1B
330
1
100
AcDbSymbolTableRecord
100
AcDbBlockTableRecord
  2
*Paper_Space
340
1E
  0
BLOCK_RECORD
  5
23
330
1
100
AcDbSymbolTableRecord
100
AcDbBlockTableRecord
  2
*Paper_Space0
340
26
  0
BLOCK_RECORD
  5
2ED
330
1
100
AcDbSymbolTableRecord
100
AcDbBlockTableRecord
  2
*D1
340
0
  0
BLOCK_RECORD
  5
2F9
330
1
100
AcDbSymbolTableRecord
100
AcDbBlockTableRecord
  2
_U0
340
0
  0
BLOCK_RECORD
  5
306
330
1
100
AcDbSymbolTableRecord
100
AcDbBlockTableRecord
  2
*D3
340
0
  0
BLOCK_RECORD
  5
312
330
1
100
AcDbSymbolTableRecord
100
AcDbBlockTableRecord
  2
_U1
340
0
  0
BLOCK_RECORD
  5
31F
330
1
100
AcDbSymbolTableRecord
100
AcDbBlockTableRecord
  2
*D5
340
0
  0
BLOCK_RECORD
  5
32B
330
1
100
AcDbSymbolTableRecord
100
AcDbBlockTableRecord
  2
_U2
340
0
  0
BLOCK_RECORD
  5
337
330
1
100
AcDbSymbolTableRecord
100
AcDbBlockTableRecord
  2
*D7
340
0
  0
BLOCK_RECORD
  5
342
330
1
100
AcDbSymbolTableRecord
100
AcDbBlockTableRecord
  2
_U3
340
0
  0
BLOCK_RECORD
  5
34D
330
1
100
AcDbSymbolTableRecord
100
AcDbBlockTableRecord
  2
*D9
340
0
  0
BLOCK_RECORD
  5
35A
330
1
100
AcDbSymbolTableRecord
100
AcDbBlockTableRecord
  2
_U4
340
0
  0
ENDTAB
  0
ENDSEC
  0
SECTION
  2
BLOCKS
  0
BLOCK
  5
20
330
1F
100
AcDbEntity
  8
0
100
AcDbBlockBegin
  2
*Model_Space
 70
     0
 10
0.0
 20
0.0
 30
0.0
  3
*Model_Space
  1

  0
ENDBLK
  5
21
330
1F
100
AcDbEntity
  8
0
100
AcDbBlockEnd
  0
BLOCK
  5
1C
330
1B
100
AcDbEntity
 67
     1
  8
0
100
AcDbBlockBegin
  2
*Paper_Space
 70
     0
 10
0.0
 20
0.0
 30
0.0
  3
*Paper_Space
  1

  0
ENDBLK
  5
1D
330
1B
100
AcDbEntity
 67
     1
  8
0
100
AcDbBlockEnd
  0
BLOCK
  5
24
330
23
100
AcDbEntity
 67
     1
  8
0
100
AcDbBlockBegin
  2
*Paper_Space0
 70
     0
 10
0.0
 20
0.0
 30
0.0
  3
*Paper_Space0
  1

  0
ENDBLK
  5
25
330
23
100
AcDbEntity
 67
     1
  8
0
100
AcDbBlockEnd
  0
BLOCK
  5
2EE
330
2ED
100
AcDbEntity
  8
0
100
AcDbBlockBegin
  2
*D1
 70
     1
 10
0.0
 20
0.0
 30
0.0
  3
*D1
  1

  0
LINE
  5
2F0
330
2ED
100
AcDbEntity
  8
0
 62
    95
370
    -2
100
AcDbLine
 10
251.427449
 20
264.434018
 30
0.0
 11
236.312933
 21
264.434018
 31
0.0
  0
LINE
  5
2F1
330
2ED
100
AcDbEntity
  8
0
 62
    95
370
    -2
100
AcDbLine
 10
254.120532
 20
224.434018
 30
0.0
 11
236.312933
 21
224.434018
 31
0.0
  0
LINE
  5
2F2
330
2ED
100
AcDbEntity
  8
0
 62
    95
370
    -2
100
AcDbLine
 10
237.312933
 20
260.934018
 30
0.0
 11
237.312933
 21
227.934018
 31
0.0
  0
SOLID
  5
2F3
330
2ED
100
AcDbEntity
  8
0
 62
    95
100
AcDbTrace
 10
237.896266
 20
260.934018
 30
0.0
 11
236.7295990000001
 21
260.934018
 31
0.0
 12
237.312933
 22
264.434018
 32
0.0
 13
237.312933
 23
264.434018
 33
0.0
  0
SOLID
  5
2F4
330
2ED
100
AcDbEntity
  8
0
 62
    95
100
AcDbTrace
 10
236.7295990000001
 20
227.934018
 30
0.0
 11
237.896266
 21
227.934018
 31
0.0
 12
237.312933
 22
224.434018
 32
0.0
 13
237.312933
 23
224.434018
 33
0.0
  0
MTEXT
  5
2F5
330
2ED
100
AcDbEntity
  8
0
 62
    95
370
    13
100
AcDbMText
 10
232.062933
 20
244.434018
 30
0.0
 40
3.5
 41
0.0
 71
     5
 72
     1
  1
\A1;40
  7
cesky
 11
0.0
 21
1.0
 31
0.0
 73
     1
 44
1.0
  0
POINT
  5
2F6
330
2ED
100
AcDbEntity
  8
Defpoints
 62
     0
100
AcDbPoint
 10
251.427449
 20
264.434018
 30
0.0
  0
POINT
  5
2F7
330
2ED
100
AcDbEntity
  8
Defpoints
 62
     0
100
AcDbPoint
 10
254.120532
 20
224.434018
 30
0.0
  0
POINT
  5
2F8
330
2ED
100
AcDbEntity
  8
Defpoints
 62
     0
100
AcDbPoint
 10
237.312933
 20
224.434018
 30
0.0
  0
ENDBLK
  5
2EF
330
2ED
100
AcDbEntity
  8
0
100
AcDbBlockEnd
  0
BLOCK
  5
301
330
2F9
100
AcDbEntity
  8
0
100
AcDbBlockBegin
  2
_U0
 70
     0
 10
0.0
 20
0.0
 30
0.0
  3
_U0
  1

  0
ENDBLK
  5
302
330
2F9
100
AcDbEntity
  8
0
100
AcDbBlockEnd
  0
BLOCK
  5
307
330
306
100
AcDbEntity
  8
0
100
AcDbBlockBegin
  2
*D3
 70
     1
 10
0.0
 20
0.0
 30
0.0
  3
*D3
  1

  0
LINE
  5
309
330
306
100
AcDbEntity
  8
0
 62
    95
370
    -2
100
AcDbLine
 10
246.044248
 20
278.434018
 30
0.0
 11
226.23097
 21
278.521658
 31
0.0
  0
LINE
  5
30A
330
306
100
AcDbEntity
  8
0
 62
    95
370
    -2
100
AcDbLine
 10
245.744233
 20
210.607233
 30
0.0
 11
225.930954
 21
210.694872
 31
0.0
  0
LINE
  5
30B
330
306
100
AcDbEntity
  8
0
 62
    95
370
    -2
100
AcDbLine
 10
227.215479
 20
275.017269
 30
0.0
 11
226.946426
 21
214.190414
 31
0.0
  0
SOLID
  5
30C
330
306
100
AcDbEntity
  8
0
 62
    95
100
AcDbTrace
 10
227.798807
 20
275.014689
 30
0.0
 11
226.632151
 21
275.019849
 31
0.0
 12
227.23096
 22
278.517235
 32
0.0
 13
227.23096
 23
278.517235
 33
0.0
  0
SOLID
  5
30D
330
306
100
AcDbEntity
  8
0
 62
    95
100
AcDbTrace
 10
226.363098
 20
214.192995
 30
0.0
 11
227.529753
 21
214.187834
 31
0.0
 12
226.930945
 22
210.690449
 32
0.0
 13
226.930945
 23
210.690449
 33
0.0
  0
MTEXT
  5
30E
330
306
100
AcDbEntity
  8
0
 62
    95
370
    13
100
AcDbMText
 10
221.831004
 20
244.627063
 30
0.0
 40
3.5
 41
0.0
 71
     5
 72
     1
  1
\A1;67.827
  7
cesky
 11
0.004423218439911
 21
0.999990217521468
 31
0.0
 73
     1
 44
1.0
  0
POINT
  5
30F
330
306
100
AcDbEntity
  8
Defpoints
 62
     0
100
AcDbPoint
 10
246.044248
 20
278.434018
 30
0.0
  0
POINT
  5
310
330
306
100
AcDbEntity
  8
Defpoints
 62
     0
100
AcDbPoint
 10
245.744233
 20
210.607233
 30
0.0
  0
POINT
  5
311
330
306
100
AcDbEntity
  8
Defpoints
 62
     0
100
AcDbPoint
 10
226.930945
 20
210.690449
 30
0.0
  0
ENDBLK
  5
308
330
306
100
AcDbEntity
  8
0
100
AcDbBlockEnd
  0
BLOCK
  5
31A
330
312
100
AcDbEntity
  8
0
100
AcDbBlockBegin
  2
_U1
 70
     0
 10
0.0
 20
0.0
 30
0.0
  3
_U1
  1

  0
ENDBLK
  5
31B
330
312
100
AcDbEntity
  8
0
100
AcDbBlockEnd
  0
BLOCK
  5
320
330
31F
100
AcDbEntity
  8
0
100
AcDbBlockBegin
  2
*D5
 70
     1
 10
0.0
 20
0.0
 30
0.0
  3
*D5
  1

  0
LINE
  5
322
330
31F
100
AcDbEntity
  8
0
 62
   254
370
    -2
100
AcDbLine
 10
246.044248
 20
278.434018
 30
0.0
 11
233.622942
 21
278.434018
 31
0.0
  0
LINE
  5
323
330
31F
100
AcDbEntity
  8
0
 62
   254
370
    -2
100
AcDbLine
 10
253.444248
 20
324.434018
 30
0.0
 11
233.622942
 21
324.434018
 31
0.0
  0
LINE
  5
324
330
31F
100
AcDbEntity
  8
0
 62
   254
370
    -2
100
AcDbLine
 10
234.622942
 20
281.9340180000001
 30
0.0
 11
234.622942
 21
320.934018
 31
0.0
  0
SOLID
  5
325
330
31F
100
AcDbEntity
  8
0
 62
   254
100
AcDbTrace
 10
234.039609
 20
281.9340180000001
 30
0.0
 11
235.206276
 21
281.9340180000001
 31
0.0
 12
234.622942
 22
278.434018
 32
0.0
 13
234.622942
 23
278.434018
 33
0.0
  0
SOLID
  5
326
330
31F
100
AcDbEntity
  8
0
 62
   254
100
AcDbTrace
 10
235.206276
 20
320.934018
 30
0.0
 11
234.039609
 21
320.934018
 31
0.0
 12
234.622942
 22
324.434018
 32
0.0
 13
234.622942
 23
324.434018
 33
0.0
  0
MTEXT
  5
327
330
31F
100
AcDbEntity
  8
0
 62
   254
370
    13
100
AcDbMText
 10
229.372942
 20
301.434018
 30
0.0
 40
3.5
 41
0.0
 71
     5
 72
     1
  1
\A1;46
  7
cesky
 11
0.0
 21
1.0
 31
0.0
 73
     1
 44
1.0
  0
POINT
  5
328
330
31F
100
AcDbEntity
  8
Defpoints
 62
     0
100
AcDbPoint
 10
246.044248
 20
278.434018
 30
0.0
  0
POINT
  5
329
330
31F
100
AcDbEntity
  8
Defpoints
 62
     0
100
AcDbPoint
 10
253.444248
 20
324.434018
 30
0.0
  0
POINT
  5
32A
330
31F
100
AcDbEntity
  8
Defpoints
 62
     0
100
AcDbPoint
 10
234.622942
 20
324.434018
 30
0.0
  0
ENDBLK
  5
321
330
31F
100
AcDbEntity
  8
0
100
AcDbBlockEnd
  0
BLOCK
  5
332
330
32B
100
AcDbEntity
  8
0
100
AcDbBlockBegin
  2
_U2
 70
     0
 10
0.0
 20
0.0
 30
0.0
  3
_U2
  1

  0
MTEXT
  5
32C
330
32B
100
AcDbEntity
  8
60
  6
Continuous
 62
   254
440
 16777216
370
    13
100
AcDbMText
 10
235.091776
 20
299.591518
 30
0.0
 40
3.5
 41
0.0
 71
     7
 72
     5
  1
\W0.7259;46
  7
cesky
 11
0.0000000000000001
 21
1.0
 31
0.0
 73
     2
 44
0.8433729999999998
  0
LINE
  5
32D
330
32B
100
AcDbEntity
  8
60
 62
   254
440
 16777216
370
    13
100
AcDbLine
 10
246.044248
 20
278.434018
 30
0.0
 11
233.622942
 21
278.434018
 31
0.0
  0
LINE
  5
32E
330
32B
100
AcDbEntity
  8
60
 62
   254
440
 16777216
370
    13
100
AcDbLine
 10
253.444248
 20
324.434018
 30
0.0
 11
233.622942
 21
324.434018
 31
0.0
  0
LINE
  5
32F
330
32B
100
AcDbEntity
  8
60
 62
   254
440
 16777216
370
    13
100
AcDbLine
 10
234.622942
 20
278.434018
 30
0.0
 11
234.622942
 21
324.434018
 31
0.0
  0
SOLID
  5
330
330
32B
100
AcDbEntity
  8
60
 62
   254
440
 16777216
370
    13
100
AcDbTrace
 10
234.622942
 20
278.434018
 30
0.0
 11
234.005798
 21
281.934016
 31
0.0
 12
235.240087
 22
281.934021
 32
0.0
 13
235.240087
 23
281.934021
 33
0.0
  0
SOLID
  5
331
330
32B
100
AcDbEntity
  8
60
 62
   254
440
 16777216
370
    13
100
AcDbTrace
 10
234.622942
 20
324.434018
 30
0.0
 11
235.240087
 21
320.934021
 31
0.0
 12
234.005798
 22
320.934016
 32
0.0
 13
234.005798
 23
320.934016
 33
0.0
  0
ENDBLK
  5
333
330
32B
100
AcDbEntity
  8
0
100
AcDbBlockEnd
  0
BLOCK
  5
338
330
337
100
AcDbEntity
  8
0
100
AcDbBlockBegin
  2
*D7
 70
     1
 10
0.0
 20
0.0
 30
0.0
  3
*D7
  1

  0
LINE
  5
33A
330
337
100
AcDbEntity
  8
0
 62
   254
370
    -2
100
AcDbLine
 10
246.044248
 20
244.434018
 30
0.0
 11
267.823544
 21
244.434018
 31
0.0
  0
LINE
  5
33B
330
337
100
AcDbEntity
  8
0
 62
   254
370
    -2
100
AcDbLine
 10
255.444248
 20
324.434018
 30
0.0
 11
267.823544
 21
324.434018
 31
0.0
  0
LINE
  5
33C
330
337
100
AcDbEntity
  8
0
 62
   254
370
    -2
100
AcDbLine
 10
266.823544
 20
244.434018
 30
0.0
 11
266.823544
 21
324.434018
 31
0.0
  0
SOLID
  5
33D
330
337
100
AcDbEntity
  8
0
 62
   254
100
AcDbTrace
 10
267.406877
 20
320.934018
 30
0.0
 11
266.24021
 21
320.934018
 31
0.0
 12
266.823544
 22
324.434018
 32
0.0
 13
266.823544
 23
324.434018
 33
0.0
  0
MTEXT
  5
33E
330
337
100
AcDbEntity
  8
0
 62
   254
370
    13
100
AcDbMText
 10
261.573544
 20
233.267352
 30
0.0
 40
3.5
 41
0.0
 71
     5
 72
     1
  1
\A1;160
  7
cesky
 11
0.0
 21
1.0
 31
0.0
 73
     1
 44
1.0
  0
POINT
  5
33F
330
337
100
AcDbEntity
  8
Defpoints
 62
     0
100
AcDbPoint
 10
246.044248
 20
244.434018
 30
0.0
  0
POINT
  5
340
330
337
100
AcDbEntity
  8
Defpoints
 62
     0
100
AcDbPoint
 10
255.444248
 20
324.434018
 30
0.0
  0
POINT
  5
341
330
337
100
AcDbEntity
  8
Defpoints
 62
     0
100
AcDbPoint
 10
266.823544
 20
324.434018
 30
0.0
  0
ENDBLK
  5
339
330
337
100
AcDbEntity
  8
0
100
AcDbBlockEnd
  0
BLOCK
  5
348
330
342
100
AcDbEntity
  8
0
100
AcDbBlockBegin
  2
_U3
 70
     0
 10
0.0
 20
0.0
 30
0.0
  3
_U3
  1

  0
ENDBLK
  5
349
330
342
100
AcDbEntity
  8
0
100
AcDbBlockEnd
  0
BLOCK
  5
34E
330
34D
100
AcDbEntity
  8
0
100
AcDbBlockBegin
  2
*D9
 70
     1
 10
0.0
 20
0.0
 30
0.0
  3
*D9
  1

  0
LINE
  5
350
330
34D
100
AcDbEntity
  8
0
 62
   254
370
    -2
100
AcDbLine
 10
245.4467759999999
 20
324.313511
 30
0.0
 11
245.4467759999999
 21
330.713246
 31
0.0
  0
LINE
  5
351
330
34D
100
AcDbEntity
  8
0
 62
   254
370
    -2
100
AcDbLine
 10
253.444248
 20
326.434018
 30
0.0
 11
253.444248
 21
330.713246
 31
0.0
  0
LINE
  5
352
330
34D
100
AcDbEntity
  8
0
 62
   254
370
    -2
100
AcDbLine
 10
241.946776
 20
329.713246
 30
0.0
 11
238.446776
 21
329.713246
 31
0.0
  0
LINE
  5
353
330
34D
100
AcDbEntity
  8
0
 62
   254
370
    -2
100
AcDbLine
 10
256.944248
 20
329.713246
 30
0.0
 11
260.444248
 21
329.713246
 31
0.0
  0
SOLID
  5
354
330
34D
100
AcDbEntity
  8
0
 62
   254
100
AcDbTrace
 10
241.946776
 20
329.129913
 30
0.0
 11
241.946776
 21
330.29658
 31
0.0
 12
245.4467759999999
 22
329.713246
 32
0.0
 13
245.4467759999999
 23
329.713246
 33
0.0
  0
SOLID
  5
355
330
34D
100
AcDbEntity
  8
0
 62
   254
100
AcDbTrace
 10
256.944248
 20
330.29658
 30
0.0
 11
256.944248
 21
329.129913
 31
0.0
 12
253.444248
 22
329.713246
 32
0.0
 13
253.444248
 23
329.713246
 33
0.0
  0
MTEXT
  5
356
330
34D
100
AcDbEntity
  8
0
 62
   254
370
    13
100
AcDbMText
 10
249.445512
 20
334.963246
 30
0.0
 40
3.5
 41
0.0
 71
     5
 72
     1
  1
\A1;8
  7
cesky
 73
     1
 44
1.0
  0
POINT
  5
357
330
34D
100
AcDbEntity
  8
Defpoints
 62
     0
100
AcDbPoint
 10
245.4467759999999
 20
324.313511
 30
0.0
  0
POINT
  5
358
330
34D
100
AcDbEntity
  8
Defpoints
 62
     0
100
AcDbPoint
 10
253.444248
 20
326.434018
 30
0.0
  0
POINT
  5
359
330
34D
100
AcDbEntity
  8
Defpoints
 62
     0
100
AcDbPoint
 10
253.444248
 20
329.713246
 30
0.0
  0
ENDBLK
  5
34F
330
34D
100
AcDbEntity
  8
0
100
AcDbBlockEnd
  0
BLOCK
  5
361
330
35A
100
AcDbEntity
  8
0
100
AcDbBlockBegin
  2
_U4
 70
     0
 10
0.0
 20
0.0
 30
0.0
  3
_U4
  1

  0
ENDBLK
  5
362
330
35A
100
AcDbEntity
  8
0
100
AcDbBlockEnd
  0
ENDSEC
  0
SECTION
  2
ENTITIES
  0
POINT
  5
73
102
{ACAD_REACTORS
330
420
102
}
330
1F
100
AcDbEntity
  8
80
100
AcDbPoint
 10
249.444248
 20
244.434018
 30
0.0
  0
POINT
  5
75
330
1F
100
AcDbEntity
  8
SK6
 60
     1
100
AcDbPoint
 10
243.444248
 20
244.434018
 30
0.0
  0
POINT
  5
77
330
1F
100
AcDbEntity
  8
SK6
 60
     1
100
AcDbPoint
 10
255.444248
 20
244.434018
 30
0.0
  0
POINT
  5
78
330
1F
100
AcDbEntity
  8
4
 60
     1
100
AcDbPoint
 10
243.444248
 20
244.434018
 30
0.0
  0
POINT
  5
7A
330
1F
100
AcDbEntity
  8
4
 60
     1
100
AcDbPoint
 10
246.044248
 20
244.434018
 30
0.0
  0
LINE
  5
7B
330
1F
100
AcDbEntity
  8
1
100
AcDbLine
 10
255.444248
 20
211.935129
 30
0.0
 11
255.444248
 21
276.932908
 31
0.0
  0
LINE
  5
7D
330
1F
100
AcDbEntity
  8
1
100
AcDbLine
 10
243.444248
 20
211.935129
 30
0.0
 11
243.444248
 21
276.932908
 31
0.0
  0
LINE
  5
7E
330
1F
100
AcDbEntity
  8
1
100
AcDbLine
 10
253.144248
 20
168.076619
 30
0.0
 11
253.144248
 21
167.153817
 31
0.0
  0
LINE
  5
7F
330
1F
100
AcDbEntity
  8
1
100
AcDbLine
 10
245.744248
 20
321.612161
 30
0.0
 11
245.744248
 21
320.651915
 31
0.0
  0
LINE
  5
80
330
1F
100
AcDbEntity
  8
1
100
AcDbLine
 10
245.744248
 20
171.981243
 30
0.0
 11
245.744248
 21
167.153817
 31
0.0
  0
LINE
  5
81
330
1F
100
AcDbEntity
  8
1
100
AcDbLine
 10
253.144248
 20
322.733456
 30
0.0
 11
250.368266
 21
322.733456
 31
0.0
  0
LINE
  5
82
330
1F
100
AcDbEntity
  8
1
100
AcDbLine
 10
245.744248
 20
316.659739
 30
0.0
 11
245.744248
 21
307.986125
 31
0.0
  0
LINE
  5
83
330
1F
100
AcDbEntity
  8
1
100
AcDbLine
 10
253.144248
 20
310.683231
 30
0.0
 11
253.144248
 21
307.986125
 31
0.0
  0
LINE
  5
84
330
1F
100
AcDbEntity
  8
1
100
AcDbLine
 10
245.744248
 20
180.522084
 30
0.0
 11
245.744248
 21
177.856722
 31
0.0
  0
LINE
  5
85
330
1F
100
AcDbEntity
  8
1
100
AcDbLine
 10
245.744248
 20
289.668459
 30
0.0
 11
245.744248
 21
285.645104
 31
0.0
  0
LINE
  5
86
330
1F
100
AcDbEntity
  8
1
100
AcDbLine
 10
245.744248
 20
214.196041
 30
0.0
 11
245.744248
 21
198.695417
 31
0.0
  0
LINE
  5
87
330
1F
100
AcDbEntity
  8
1
100
AcDbLine
 10
245.744248
 20
231.227036
 30
0.0
 11
245.744248
 21
226.497399
 31
0.0
  0
LINE
  5
88
330
1F
100
AcDbEntity
  8
1
100
AcDbLine
 10
253.144248
 20
188.858183
 30
0.0
 11
253.144248
 21
177.856722
 31
0.0
  0
LINE
  5
89
330
1F
100
AcDbEntity
  8
1
100
AcDbLine
 10
253.144248
 20
299.59031
 30
0.0
 11
253.144248
 21
285.645104
 31
0.0
  0
LINE
  5
8A
330
1F
100
AcDbEntity
  8
1
100
AcDbLine
 10
253.144248
 20
202.697561
 30
0.0
 11
253.144248
 21
198.695417
 31
0.0
  0
LINE
  5
8B
330
1F
100
AcDbEntity
  8
1
100
AcDbLine
 10
253.144248
 20
261.767154
 30
0.0
 11
253.144248
 21
257.030069
 31
0.0
  0
LINE
  5
8C
330
1F
100
AcDbEntity
  8
1
100
AcDbLine
 10
253.144248
 20
244.137356
 30
0.0
 11
253.144248
 21
226.497399
 31
0.0
  0
LINE
  5
8D
330
1F
100
AcDbEntity
  8
80
100
AcDbLine
 10
249.444248
 20
243.434445
 30
0.0
 11
249.444248
 21
245.433592
 31
0.0
  0
LINE
  5
8E
330
1F
100
AcDbEntity
  8
80
100
AcDbLine
 10
248.444675
 20
244.434018
 30
0.0
 11
250.443822
 21
244.434018
 31
0.0
  0
LINE
  5
8F
330
1F
100
AcDbEntity
  8
1
100
AcDbLine
 10
248.403883
 20
262.8652259999999
 30
0.0
 11
252.899429
 21
262.665107
 31
0.0
  0
LINE
  5
91
330
1F
100
AcDbEntity
  8
1
100
AcDbLine
 10
248.501204
 20
265.042343
 30
0.0
 11
252.99675
 21
264.842224
 31
0.0
  0
LINE
  5
92
330
1F
100
AcDbEntity
  8
1
100
AcDbLine
 10
253.327746
 20
271.974068
 30
0.0
 11
253.375879
 21
273.152908
 31
0.0
  0
LINE
  5
93
330
1F
100
AcDbEntity
  8
1
100
AcDbLine
 10
253.375879
 20
273.152908
 30
0.0
 11
253.422955
 21
274.320467
 31
0.0
  0
LINE
  5
94
330
1F
100
AcDbEntity
  8
1
100
AcDbLine
 10
253.440432
 20
274.758617
 30
0.0
 11
253.439973
 21
274.747852
 31
0.0
  0
LINE
  5
95
330
1F
100
AcDbEntity
  8
1
100
AcDbLine
 10
253.439973
 20
274.747852
 30
0.0
 11
253.440845
 21
274.769486
 31
0.0
  0
LINE
  5
96
330
1F
100
AcDbEntity
  8
1
100
AcDbLine
 10
253.440845
 20
274.769486
 30
0.0
 11
253.232041
 21
270.103486
 31
0.0
  0
LINE
  5
97
330
1F
100
AcDbEntity
  8
1
100
AcDbLine
 10
253.232041
 20
270.103486
 30
0.0
 11
252.99675
 21
264.842224
 31
0.0
  0
LINE
  5
98
330
1F
100
AcDbEntity
  8
1
100
AcDbLine
 10
252.899429
 20
262.665107
 30
0.0
 11
252.900359
 21
262.685777
 31
0.0
  0
LINE
  5
99
330
1F
100
AcDbEntity
  8
1
100
AcDbLine
 10
252.871769
 20
261.778765
 30
0.0
 11
252.991704
 21
264.4588720000001
 31
0.0
  0
LINE
  5
9A
330
1F
100
AcDbEntity
  8
1
100
AcDbLine
 10
252.991704
 20
264.4588720000001
 30
0.0
 11
253.226995
 21
269.720134
 31
0.0
  0
LINE
  5
9B
330
1F
100
AcDbEntity
  8
1
100
AcDbLine
 10
253.324317
 20
271.89725
 30
0.0
 11
253.323387
 21
271.876581
 31
0.0
  0
LINE
  5
9C
330
1F
100
AcDbEntity
  8
1
100
AcDbLine
 10
253.323387
 20
271.876581
 30
0.0
 11
253.327746
 21
271.974068
 31
0.0
  0
LINE
  5
9D
330
1F
100
AcDbEntity
  8
1
100
AcDbLine
 10
248.474999
 20
262.308114
 30
0.0
 11
248.516952
 21
262.5469970000001
 31
0.0
  0
LINE
  5
9E
330
1F
100
AcDbEntity
  8
1
100
AcDbLine
 10
248.4004529999999
 20
262.788408
 30
0.0
 11
248.380544
 21
262.30081
 31
0.0
  0
LINE
  5
9F
330
1F
100
AcDbEntity
  8
1
100
AcDbLine
 10
252.759284
 20
262.35815
 30
0.0
 11
252.813151
 21
261.781251
 31
0.0
  0
LINE
  5
A0
330
1F
100
AcDbEntity
  8
1
100
AcDbLine
 10
252.895999
 20
262.588289
 30
0.0
 11
252.862961
 21
261.779145
 31
0.0
  0
LINE
  5
A1
330
1F
100
AcDbEntity
  8
1
100
AcDbLine
 10
252.895999
 20
262.588289
 30
0.0
 11
252.791735
 21
262.495167
 31
0.0
  0
LINE
  5
A2
330
1F
100
AcDbEntity
  8
1
100
AcDbLine
 10
252.900359
 20
262.685777
 30
0.0
 11
252.895999
 21
262.588289
 31
0.0
  0
LINE
  5
A3
330
1F
100
AcDbEntity
  8
1
100
AcDbLine
 10
248.404813
 20
262.885895
 30
0.0
 11
248.4004529999999
 21
262.788408
 31
0.0
  0
LINE
  5
A4
330
1F
100
AcDbEntity
  8
1
100
AcDbLine
 10
248.49599
 20
262.686391
 30
0.0
 11
248.4004529999999
 21
262.788408
 31
0.0
  0
LINE
  5
A5
330
1F
100
AcDbEntity
  8
1
100
AcDbLine
 10
252.791735
 20
262.495167
 30
0.0
 11
252.759284
 21
262.35815
 31
0.0
  0
LINE
  5
A6
330
1F
100
AcDbEntity
  8
1
100
AcDbLine
 10
248.49599
 20
262.686391
 30
0.0
 11
252.791735
 21
262.495167
 31
0.0
  0
LINE
  5
A7
330
1F
100
AcDbEntity
  8
1
100
AcDbLine
 10
248.516952
 20
262.5469970000001
 30
0.0
 11
248.49599
 21
262.686391
 31
0.0
  0
LINE
  5
A8
330
1F
100
AcDbEntity
  8
1
100
AcDbLine
 10
248.516952
 20
262.5469970000001
 30
0.0
 11
250.450793
 21
262.460912
 31
0.0
  0
LINE
  5
A9
330
1F
100
AcDbEntity
  8
1
100
AcDbLine
 10
252.386357
 20
262.374751
 30
0.0
 11
252.759284
 21
262.35815
 31
0.0
  0
LINE
  5
AA
330
1F
100
AcDbEntity
  8
1
100
AcDbLine
 10
253.144248
 20
167.15389
 30
0.0
 11
253.144248
 21
166.13458
 31
0.0
  0
LINE
  5
AB
330
1F
100
AcDbEntity
  8
1
100
AcDbLine
 10
249.979609
 20
166.13458
 30
0.0
 11
249.988625
 21
167.15389
 31
0.0
  0
LINE
  5
AC
330
1F
100
AcDbEntity
  8
1
100
AcDbLine
 10
253.144248
 20
166.13458
 30
0.0
 11
249.979609
 21
166.13458
 31
0.0
  0
LINE
  5
AD
330
1F
100
AcDbEntity
  8
1
100
AcDbLine
 10
248.404243
 20
311.610861
 30
0.0
 11
248.4004529999999
 21
311.564245
 31
0.0
  0
LINE
  5
AE
330
1F
100
AcDbEntity
  8
1
100
AcDbLine
 10
248.49599
 20
311.507497
 30
0.0
 11
248.4004529999999
 21
311.564245
 31
0.0
  0
LINE
  5
AF
330
1F
100
AcDbEntity
  8
1
100
AcDbLine
 10
248.49599
 20
311.507497
 30
0.0
 11
252.791735
 21
311.375105
 31
0.0
  0
LINE
  5
B0
330
1F
100
AcDbEntity
  8
1
100
AcDbLine
 10
245.448064
 20
300.930022
 30
0.0
 11
245.448415
 21
300.930015
 31
0.0
  0
LINE
  5
B1
330
1F
100
AcDbEntity
  8
1
100
AcDbLine
 10
245.656288
 20
290.742313
 30
0.0
 11
245.56075
 21
290.801459
 31
0.0
  0
LINE
  5
B2
330
1F
100
AcDbEntity
  8
1
100
AcDbLine
 10
245.656288
 20
290.742313
 30
0.0
 11
245.704011
 21
290.741459
 31
0.0
  0
LINE
  5
B3
330
1F
100
AcDbEntity
  8
1
100
AcDbLine
 10
245.56418
 20
290.840904
 30
0.0
 11
245.698835
 21
290.838495
 31
0.0
  0
LINE
  5
B4
330
1F
100
AcDbEntity
  8
1
100
AcDbLine
 10
245.512618
 20
294.665471
 30
0.0
 11
245.465542
 21
299.084293
 31
0.0
  0
LINE
  5
B5
330
1F
100
AcDbEntity
  8
1
100
AcDbLine
 10
245.56075
 20
290.801459
 30
0.0
 11
245.512618
 21
294.665471
 31
0.0
  0
LINE
  5
B6
330
1F
100
AcDbEntity
  8
1
100
AcDbLine
 10
245.56511
 20
290.858769
 30
0.0
 11
245.56075
 21
290.801459
 31
0.0
  0
LINE
  5
B7
330
1F
100
AcDbEntity
  8
1
100
AcDbLine
 10
245.56418
 20
290.840904
 30
0.0
 11
245.56511
 21
290.858769
 31
0.0
  0
LINE
  5
B8
330
1F
100
AcDbEntity
  8
1
100
AcDbLine
 10
245.656455
 20
303.8725100000001
 30
0.0
 11
245.744252
 21
305.026614
 31
0.0
  0
LINE
  5
B9
330
1F
100
AcDbEntity
  8
1
100
AcDbLine
 10
245.447652
 20
300.996904
 30
0.0
 11
245.656455
 21
303.8725100000001
 31
0.0
  0
LINE
  5
BA
330
1F
100
AcDbEntity
  8
1
100
AcDbLine
 10
245.448524
 20
300.915026
 30
0.0
 11
245.447652
 21
300.996904
 31
0.0
  0
LINE
  5
BB
330
1F
100
AcDbEntity
  8
1
100
AcDbLine
 10
245.448064
 20
300.930022
 30
0.0
 11
245.448524
 21
300.915026
 31
0.0
  0
LINE
  5
BC
330
1F
100
AcDbEntity
  8
1
100
AcDbLine
 10
253.144246
 20
183.699677
 30
0.0
 11
253.212466
 21
182.860592
 31
0.0
  0
LINE
  5
BD
330
1F
100
AcDbEntity
  8
1
100
AcDbLine
 10
253.422323
 20
274.320495
 30
0.0
 11
253.422955
 21
274.320467
 31
0.0
  0
LINE
  5
BE
330
1F
100
AcDbEntity
  8
1
100
AcDbLine
 10
249.046073
 20
274.986809
 30
0.0
 11
253.341817
 21
274.795585
 31
0.0
  0
LINE
  5
BF
330
1F
100
AcDbEntity
  8
1
100
AcDbLine
 10
248.945299
 20
274.969604
 30
0.0
 11
248.736495
 21
270.303604
 31
0.0
  0
LINE
  5
C0
330
1F
100
AcDbEntity
  8
1
100
AcDbLine
 10
249.053152
 20
274.547611
 30
0.0
 11
249.046073
 21
274.986809
 31
0.0
  0
LINE
  5
C1
330
1F
100
AcDbEntity
  8
1
100
AcDbLine
 10
249.046073
 20
274.986809
 30
0.0
 11
248.945299
 21
274.969604
 31
0.0
  0
LINE
  5
C2
330
1F
100
AcDbEntity
  8
1
100
AcDbLine
 10
253.440845
 20
274.769486
 30
0.0
 11
253.341817
 21
274.795585
 31
0.0
  0
LINE
  5
C3
330
1F
100
AcDbEntity
  8
1
100
AcDbLine
 10
253.341817
 20
274.795585
 30
0.0
 11
253.295485
 21
274.358764
 31
0.0
  0
LINE
  5
C4
330
1F
100
AcDbEntity
  8
1
100
AcDbLine
 10
248.736495
 20
270.303604
 30
0.0
 11
248.501204
 21
265.042343
 31
0.0
  0
LINE
  5
C5
330
1F
100
AcDbEntity
  8
1
100
AcDbLine
 10
253.295485
 20
274.358764
 30
0.0
 11
253.232041
 21
270.103486
 31
0.0
  0
LINE
  5
C6
330
1F
100
AcDbEntity
  8
1
100
AcDbLine
 10
249.053152
 20
274.547611
 30
0.0
 11
253.295485
 21
274.358764
 31
0.0
  0
LINE
  5
C7
330
1F
100
AcDbEntity
  8
1
100
AcDbLine
 10
248.736495
 20
270.303604
 30
0.0
 11
249.053152
 21
274.547611
 31
0.0
  0
LINE
  5
C8
330
1F
100
AcDbEntity
  8
SK3
100
AcDbLine
 10
255.444248
 20
224.434018
 30
0.0
 11
243.444248
 21
224.434018
 31
0.0
  0
LINE
  5
C9
330
1F
100
AcDbEntity
  8
1
100
AcDbLine
 10
243.444248
 20
211.935129
 30
0.0
 11
245.744233
 21
210.607233
 31
0.0
  0
LINE
  5
CA
330
1F
100
AcDbEntity
  8
SK3
100
AcDbLine
 10
243.444248
 20
264.434018
 30
0.0
 11
255.444248
 21
264.434018
 31
0.0
  0
LINE
  5
CB
330
1F
100
AcDbEntity
  8
81
100
AcDbLine
 10
253.444248
 20
322.434018
 30
0.0
 11
253.444248
 21
326.434018
 31
0.0
  0
LINE
  5
CC
330
1F
100
AcDbEntity
  8
81
100
AcDbLine
 10
251.444248
 20
324.434018
 30
0.0
 11
255.444248
 21
324.434018
 31
0.0
  0
LINE
  5
CD
330
1F
100
AcDbEntity
  8
1
100
AcDbLine
 10
245.744248
 20
232.898614
 30
0.0
 11
245.949889
 21
232.907145
 31
0.0
  0
LINE
  5
CE
330
1F
100
AcDbEntity
  8
1
100
AcDbLine
 10
253.144248
 20
257.030069
 30
0.0
 11
253.144248
 21
253.471163
 31
0.0
  0
LINE
  5
CF
330
1F
100
AcDbEntity
  8
1
100
AcDbLine
 10
245.744248
 20
253.471163
 30
0.0
 11
245.744248
 21
257.030069
 31
0.0
  0
LINE
  5
D0
330
1F
100
AcDbEntity
  8
1
100
AcDbLine
 10
248.907404
 20
274.123836
 30
0.0
 11
245.744248
 21
274.123836
 31
0.0
  0
LINE
  5
D1
330
1F
100
AcDbEntity
  8
1
100
AcDbLine
 10
245.744248
 20
257.030069
 30
0.0
 11
253.144248
 21
257.030069
 31
0.0
  0
LINE
  5
D2
330
1F
100
AcDbEntity
  8
1
100
AcDbLine
 10
245.744248
 20
226.497399
 30
0.0
 11
253.144248
 21
226.497399
 31
0.0
  0
LINE
  5
D3
330
1F
100
AcDbEntity
  8
1
100
AcDbLine
 10
249.979609
 20
244.137356
 30
0.0
 11
250.030234
 21
245.148798
 31
0.0
  0
LINE
  5
D4
330
1F
100
AcDbEntity
  8
1
100
AcDbLine
 10
253.144248
 20
244.137356
 30
0.0
 11
249.979609
 21
244.137356
 31
0.0
  0
LINE
  5
D5
330
1F
100
AcDbEntity
  8
1
100
AcDbLine
 10
253.144248
 20
245.148798
 30
0.0
 11
253.144248
 21
244.137356
 31
0.0
  0
LINE
  5
D6
330
1F
100
AcDbEntity
  8
1
100
AcDbLine
 10
248.936465
 20
220.578944
 30
0.0
 11
253.232209
 21
220.440903
 31
0.0
  0
LINE
  5
D7
330
1F
100
AcDbEntity
  8
1
100
AcDbLine
 10
253.327746
 20
220.353378
 30
0.0
 11
253.375879
 21
217.884283
 31
0.0
  0
LINE
  5
D8
330
1F
100
AcDbEntity
  8
1
100
AcDbLine
 10
253.327746
 20
220.353378
 30
0.0
 11
253.232209
 21
220.440903
 31
0.0
  0
LINE
  5
D9
330
1F
100
AcDbEntity
  8
1
100
AcDbLine
 10
253.232209
 20
220.440903
 30
0.0
 11
253.211248
 21
220.229457
 31
0.0
  0
LINE
  5
DA
330
1F
100
AcDbEntity
  8
1
100
AcDbLine
 10
252.899208
 20
203.178373
 30
0.0
 11
252.895999
 21
203.116357
 31
0.0
  0
LINE
  5
DB
330
1F
100
AcDbEntity
  8
1
100
AcDbLine
 10
252.895999
 20
203.116357
 30
0.0
 11
252.791735
 21
203.035253
 31
0.0
  0
LINE
  5
DC
330
1F
100
AcDbEntity
  8
1
100
AcDbLine
 10
248.49599
 20
203.173293
 30
0.0
 11
248.4004529999999
 21
203.260819
 31
0.0
  0
LINE
  5
DD
330
1F
100
AcDbEntity
  8
1
100
AcDbLine
 10
248.49599
 20
203.173293
 30
0.0
 11
252.791735
 21
203.035253
 31
0.0
  0
LINE
  5
DE
330
1F
100
AcDbEntity
  8
1
100
AcDbLine
 10
248.968915
 20
220.365782
 30
0.0
 11
248.936465
 21
220.578944
 31
0.0
  0
LINE
  5
DF
330
1F
100
AcDbEntity
  8
1
100
AcDbLine
 10
248.936465
 20
220.578944
 30
0.0
 11
248.898975
 21
220.549782
 31
0.0
  0
LINE
  5
E0
330
1F
100
AcDbEntity
  8
1
100
AcDbLine
 10
248.403883
 20
203.322828
 30
0.0
 11
252.899429
 21
203.178366
 31
0.0
  0
LINE
  5
E1
330
1F
100
AcDbEntity
  8
1
100
AcDbLine
 10
247.825824
 20
249.397513
 30
0.0
 11
249.904417
 21
249.63146
 31
0.0
  0
LINE
  5
E2
330
1F
100
AcDbEntity
  8
1
100
AcDbLine
 10
249.003794
 20
223.302665
 30
0.0
 11
251.070185
 21
223.011127
 31
0.0
  0
LINE
  5
E3
330
1F
100
AcDbEntity
  8
1
100
AcDbLine
 10
253.288418
 20
278.177553
 30
0.0
 11
253.232041
 21
279.293629
 31
0.0
  0
LINE
  5
E4
330
1F
100
AcDbEntity
  8
1
100
AcDbLine
 10
253.232041
 20
279.293629
 30
0.0
 11
253.144245
 21
280.990122
 31
0.0
  0
LINE
  5
E5
330
1F
100
AcDbEntity
  8
1
100
AcDbLine
 10
245.74425
 20
177.764139
 30
0.0
 11
245.661502
 21
177.435716
 31
0.0
  0
LINE
  5
E6
330
1F
100
AcDbEntity
  8
1
100
AcDbLine
 10
245.448318
 20
164.728567
 30
0.0
 11
245.447652
 21
164.653372
 31
0.0
  0
LINE
  5
E7
330
1F
100
AcDbEntity
  8
1
100
AcDbLine
 10
249.943198
 20
164.580652
 30
0.0
 11
249.842424
 21
164.48375
 31
0.0
  0
LINE
  5
E8
330
1F
100
AcDbEntity
  8
1
100
AcDbLine
 10
245.54668
 20
164.553237
 30
0.0
 11
245.447652
 21
164.653372
 31
0.0
  0
LINE
  5
E9
330
1F
100
AcDbEntity
  8
1
100
AcDbLine
 10
245.54668
 20
164.553237
 30
0.0
 11
249.842424
 21
164.48375
 31
0.0
  0
LINE
  5
EA
330
1F
100
AcDbEntity
  8
1
100
AcDbLine
 10
245.448064
 20
164.728572
 30
0.0
 11
249.94361
 21
164.655853
 31
0.0
  0
LINE
  5
EB
330
1F
100
AcDbEntity
  8
1
100
AcDbLine
 10
245.56075
 20
176.988336
 30
0.0
 11
245.512618
 21
172.22208
 31
0.0
  0
LINE
  5
EC
330
1F
100
AcDbEntity
  8
1
100
AcDbLine
 10
245.661502
 20
177.435716
 30
0.0
 11
245.744318
 21
177.434376
 31
0.0
  0
LINE
  5
ED
330
1F
100
AcDbEntity
  8
1
100
AcDbLine
 10
245.56418
 20
177.007685
 30
0.0
 11
245.56511
 21
177.00564
 31
0.0
  0
LINE
  5
EE
330
1F
100
AcDbEntity
  8
1
100
AcDbLine
 10
245.56418
 20
177.007685
 30
0.0
 11
245.744283
 21
177.004772
 31
0.0
  0
LINE
  5
EF
330
1F
100
AcDbEntity
  8
1
100
AcDbLine
 10
249.94361
 20
164.655853
 30
0.0
 11
249.94407
 21
164.679088
 31
0.0
  0
LINE
  5
F0
330
1F
100
AcDbEntity
  8
1
100
AcDbLine
 10
249.94407
 20
164.679088
 30
0.0
 11
249.943198
 21
164.580652
 31
0.0
  0
LINE
  5
F1
330
1F
100
AcDbEntity
  8
1
100
AcDbLine
 10
249.943198
 20
164.580652
 30
0.0
 11
250.152001
 21
165.276248
 31
0.0
  0
LINE
  5
F2
330
1F
100
AcDbEntity
  8
1
100
AcDbLine
 10
250.152001
 20
165.276248
 30
0.0
 11
250.368263
 21
166.13457
 31
0.0
  0
LINE
  5
F3
330
1F
100
AcDbEntity
  8
1
100
AcDbLine
 10
245.512618
 20
172.22208
 30
0.0
 11
245.677249
 21
176.511007
 31
0.0
  0
LINE
  5
F4
330
1F
100
AcDbEntity
  8
1
100
AcDbLine
 10
245.512618
 20
172.22208
 30
0.0
 11
245.465542
 21
166.909646
 31
0.0
  0
LINE
  5
F5
330
1F
100
AcDbEntity
  8
1
100
AcDbLine
 10
245.465542
 20
166.909646
 30
0.0
 11
249.961088
 21
166.836927
 31
0.0
  0
LINE
  5
F6
330
1F
100
AcDbEntity
  8
1
100
AcDbLine
 10
249.963896
 20
167.1538469999999
 30
0.0
 11
249.961088
 21
166.836927
 31
0.0
  0
LINE
  5
F7
330
1F
100
AcDbEntity
  8
1
100
AcDbLine
 10
245.56511
 20
177.00564
 30
0.0
 11
245.7443
 21
177.002741
 31
0.0
  0
LINE
  5
F8
330
1F
100
AcDbEntity
  8
1
100
AcDbLine
 10
245.56511
 20
177.00564
 30
0.0
 11
245.56075
 21
176.988336
 31
0.0
  0
LINE
  5
F9
330
1F
100
AcDbEntity
  8
1
100
AcDbLine
 10
245.656288
 20
176.969402
 30
0.0
 11
245.56075
 21
176.988336
 31
0.0
  0
LINE
  5
FA
330
1F
100
AcDbEntity
  8
1
100
AcDbLine
 10
245.656288
 20
176.969402
 30
0.0
 11
245.744283
 21
176.967979
 31
0.0
  0
LINE
  5
FB
330
1F
100
AcDbEntity
  8
1
100
AcDbLine
 10
245.677249
 20
176.511007
 30
0.0
 11
245.656288
 21
176.969402
 31
0.0
  0
LINE
  5
FC
330
1F
100
AcDbEntity
  8
1
100
AcDbLine
 10
245.677249
 20
176.511007
 30
0.0
 11
245.744265
 21
176.509923
 31
0.0
  0
LINE
  5
FD
330
1F
100
AcDbEntity
  8
1
100
AcDbLine
 10
245.56418
 20
293.3823680000001
 30
0.0
 11
245.56432
 21
293.382374
 31
0.0
  0
LINE
  5
FE
330
1F
100
AcDbEntity
  8
1
100
AcDbLine
 10
253.375879
 20
217.884283
 30
0.0
 11
253.422955
 21
214.985881
 31
0.0
  0
LINE
  5
FF
330
1F
100
AcDbEntity
  8
1
100
AcDbLine
 10
253.211248
 20
220.229457
 30
0.0
 11
253.375879
 21
217.884283
 31
0.0
  0
LINE
  5
100
330
1F
100
AcDbEntity
  8
1
100
AcDbLine
 10
248.968915
 20
220.365782
 30
0.0
 11
253.211248
 21
220.229457
 31
0.0
  0
LINE
  5
101
330
1F
100
AcDbEntity
  8
1
100
AcDbLine
 10
248.880333
 20
218.028744
 30
0.0
 11
248.968915
 21
220.365782
 31
0.0
  0
LINE
  5
102
330
1F
100
AcDbEntity
  8
1
100
AcDbLine
 10
248.501204
 20
205.172344
 30
0.0
 11
252.99675
 21
205.027882
 31
0.0
  0
LINE
  5
103
330
1F
100
AcDbEntity
  8
1
100
AcDbLine
 10
253.232041
 20
209.574408
 30
0.0
 11
252.99675
 21
205.027882
 31
0.0
  0
LINE
  5
104
330
1F
100
AcDbEntity
  8
1
100
AcDbLine
 10
248.944886
 20
213.899171
 30
0.0
 11
253.440432
 21
213.754709
 31
0.0
  0
LINE
  5
105
330
1F
100
AcDbEntity
  8
1
100
AcDbLine
 10
248.927409
 20
215.130343
 30
0.0
 11
253.422955
 21
214.985881
 31
0.0
  0
LINE
  5
106
330
1F
100
AcDbEntity
  8
1
100
AcDbLine
 10
253.295485
 20
213.25081
 30
0.0
 11
253.232041
 21
209.574408
 31
0.0
  0
LINE
  5
107
330
1F
100
AcDbEntity
  8
1
100
AcDbLine
 10
253.440845
 20
213.708022
 30
0.0
 11
253.232041
 21
209.574408
 31
0.0
  0
LINE
  5
108
330
1F
100
AcDbEntity
  8
1
100
AcDbLine
 10
248.880333
 20
218.028744
 30
0.0
 11
248.927409
 21
215.130343
 31
0.0
  0
LINE
  5
109
330
1F
100
AcDbEntity
  8
1
100
AcDbLine
 10
248.863213
 20
218.906971
 30
0.0
 11
248.880333
 21
218.028744
 31
0.0
  0
LINE
  5
10A
330
1F
100
AcDbEntity
  8
1
100
AcDbLine
 10
248.4004529999999
 20
203.260819
 30
0.0
 11
248.395947
 21
203.491949
 31
0.0
  0
LINE
  5
10B
330
1F
100
AcDbEntity
  8
1
100
AcDbLine
 10
248.404813
 20
203.345062
 30
0.0
 11
248.4004529999999
 21
203.260819
 31
0.0
  0
LINE
  5
10C
330
1F
100
AcDbEntity
  8
1
100
AcDbLine
 10
248.403883
 20
203.322828
 30
0.0
 11
248.404813
 21
203.345062
 31
0.0
  0
LINE
  5
10D
330
1F
100
AcDbEntity
  8
1
100
AcDbLine
 10
248.736495
 20
209.718869
 30
0.0
 11
248.501204
 21
205.172344
 31
0.0
  0
LINE
  5
10E
330
1F
100
AcDbEntity
  8
1
100
AcDbLine
 10
248.944886
 20
213.899171
 30
0.0
 11
248.9444259999999
 21
213.906189
 31
0.0
  0
LINE
  5
10F
330
1F
100
AcDbEntity
  8
1
100
AcDbLine
 10
248.736495
 20
209.718869
 30
0.0
 11
249.053152
 21
213.387135
 31
0.0
  0
LINE
  5
110
330
1F
100
AcDbEntity
  8
1
100
AcDbLine
 10
248.945299
 20
213.852484
 30
0.0
 11
248.736495
 21
209.718869
 31
0.0
  0
LINE
  5
111
330
1F
100
AcDbEntity
  8
1
100
AcDbLine
 10
253.341817
 20
213.657482
 30
0.0
 11
253.295485
 21
213.25081
 31
0.0
  0
LINE
  5
112
330
1F
100
AcDbEntity
  8
1
100
AcDbLine
 10
249.053152
 20
213.387135
 30
0.0
 11
249.046073
 21
213.795523
 31
0.0
  0
LINE
  5
113
330
1F
100
AcDbEntity
  8
1
100
AcDbLine
 10
249.053152
 20
213.387135
 30
0.0
 11
253.295485
 21
213.25081
 31
0.0
  0
LINE
  5
114
330
1F
100
AcDbEntity
  8
1
100
AcDbLine
 10
253.440845
 20
213.708022
 30
0.0
 11
253.341817
 21
213.657482
 31
0.0
  0
LINE
  5
115
330
1F
100
AcDbEntity
  8
1
100
AcDbLine
 10
253.440086
 20
213.75472
 30
0.0
 11
253.440845
 21
213.708022
 31
0.0
  0
LINE
  5
116
330
1F
100
AcDbEntity
  8
1
100
AcDbLine
 10
248.9444259999999
 20
213.906189
 30
0.0
 11
248.945299
 21
213.852484
 31
0.0
  0
LINE
  5
117
330
1F
100
AcDbEntity
  8
1
100
AcDbLine
 10
249.046073
 20
213.795523
 30
0.0
 11
248.945299
 21
213.852484
 31
0.0
  0
LINE
  5
118
330
1F
100
AcDbEntity
  8
1
100
AcDbLine
 10
249.046073
 20
213.795523
 30
0.0
 11
253.341817
 21
213.657482
 31
0.0
  0
LINE
  5
119
330
1F
100
AcDbEntity
  8
1
100
AcDbLine
 10
249.046073
 20
318.280685
 30
0.0
 11
248.945299
 21
318.199393
 31
0.0
  0
LINE
  5
11A
330
1F
100
AcDbEntity
  8
1
100
AcDbLine
 10
253.440845
 20
318.060844
 30
0.0
 11
253.341817
 21
318.148294
 31
0.0
  0
LINE
  5
11B
330
1F
100
AcDbEntity
  8
1
100
AcDbLine
 10
253.341817
 20
318.148294
 30
0.0
 11
253.295485
 21
317.937207
 31
0.0
  0
LINE
  5
11C
330
1F
100
AcDbEntity
  8
1
100
AcDbLine
 10
248.736495
 20
315.734286
 30
0.0
 11
248.501204
 21
312.840265
 31
0.0
  0
LINE
  5
11D
330
1F
100
AcDbEntity
  8
1
100
AcDbLine
 10
253.295485
 20
317.937207
 30
0.0
 11
253.232041
 21
315.595737
 31
0.0
  0
LINE
  5
11E
330
1F
100
AcDbEntity
  8
1
100
AcDbLine
 10
249.053152
 20
318.067953
 30
0.0
 11
253.295485
 21
317.937207
 31
0.0
  0
LINE
  5
11F
330
1F
100
AcDbEntity
  8
1
100
AcDbLine
 10
248.736495
 20
315.734286
 30
0.0
 11
249.053152
 21
318.067953
 31
0.0
  0
LINE
  5
120
330
1F
100
AcDbEntity
  8
1
100
AcDbLine
 10
248.403883
 20
311.610873
 30
0.0
 11
252.899429
 21
311.472324
 31
0.0
  0
LINE
  5
121
330
1F
100
AcDbEntity
  8
1
100
AcDbLine
 10
248.501204
 20
312.840265
 30
0.0
 11
252.99675
 21
312.701716
 31
0.0
  0
LINE
  5
122
330
1F
100
AcDbEntity
  8
1
100
AcDbLine
 10
248.511573
 20
310.978982
 30
0.0
 11
248.516952
 21
311.098917
 31
0.0
  0
LINE
  5
123
330
1F
100
AcDbEntity
  8
1
100
AcDbLine
 10
248.4004529999999
 20
311.564245
 30
0.0
 11
248.393585
 21
310.974057
 31
0.0
  0
LINE
  5
124
330
1F
100
AcDbEntity
  8
1
100
AcDbLine
 10
253.327746
 20
307.462171
 30
0.0
 11
253.375879
 21
311.598397
 31
0.0
  0
LINE
  5
125
330
1F
100
AcDbEntity
  8
1
100
AcDbLine
 10
253.375879
 20
311.598397
 30
0.0
 11
253.422955
 21
316.147976
 31
0.0
  0
LINE
  5
126
330
1F
100
AcDbEntity
  8
1
100
AcDbLine
 10
253.43997
 20
317.976317
 30
0.0
 11
253.440845
 21
318.060844
 31
0.0
  0
LINE
  5
127
330
1F
100
AcDbEntity
  8
1
100
AcDbLine
 10
253.440845
 20
318.060844
 30
0.0
 11
253.232041
 21
315.595737
 31
0.0
  0
LINE
  5
128
330
1F
100
AcDbEntity
  8
1
100
AcDbLine
 10
253.232041
 20
315.595737
 30
0.0
 11
252.99675
 21
312.701716
 31
0.0
  0
LINE
  5
129
330
1F
100
AcDbEntity
  8
1
100
AcDbLine
 10
252.899429
 20
311.472324
 30
0.0
 11
252.900359
 21
311.47932
 31
0.0
  0
LINE
  5
12A
330
1F
100
AcDbEntity
  8
1
100
AcDbLine
 10
253.144246
 20
305.16836
 30
0.0
 11
253.226995
 21
306.186151
 31
0.0
  0
LINE
  5
12B
330
1F
100
AcDbEntity
  8
1
100
AcDbLine
 10
253.324317
 20
307.415543
 30
0.0
 11
253.323387
 21
307.408547
 31
0.0
  0
LINE
  5
12C
330
1F
100
AcDbEntity
  8
1
100
AcDbLine
 10
253.323387
 20
307.408547
 30
0.0
 11
253.327746
 21
307.462171
 31
0.0
  0
LINE
  5
12D
330
1F
100
AcDbEntity
  8
1
100
AcDbLine
 10
252.759284
 20
310.9681720000001
 30
0.0
 11
252.765935
 21
310.691982
 31
0.0
  0
LINE
  5
12E
330
1F
100
AcDbEntity
  8
1
100
AcDbLine
 10
252.895999
 20
311.425696
 30
0.0
 11
252.887428
 21
310.689189
 31
0.0
  0
LINE
  5
12F
330
1F
100
AcDbEntity
  8
1
100
AcDbLine
 10
252.791735
 20
311.375105
 30
0.0
 11
252.759284
 21
310.9681720000001
 31
0.0
  0
LINE
  5
130
330
1F
100
AcDbEntity
  8
1
100
AcDbLine
 10
248.516952
 20
311.098917
 30
0.0
 11
248.49599
 21
311.507497
 31
0.0
  0
LINE
  5
131
330
1F
100
AcDbEntity
  8
1
100
AcDbLine
 10
248.516952
 20
311.098917
 30
0.0
 11
250.164568
 21
311.048139
 31
0.0
  0
LINE
  5
132
330
1F
100
AcDbEntity
  8
1
100
AcDbLine
 10
252.386357
 20
310.979665
 30
0.0
 11
252.759284
 21
310.9681720000001
 31
0.0
  0
LINE
  5
133
330
1F
100
AcDbEntity
  8
1
100
AcDbLine
 10
252.895999
 20
311.425696
 30
0.0
 11
252.791735
 21
311.375105
 31
0.0
  0
LINE
  5
134
330
1F
100
AcDbEntity
  8
1
100
AcDbLine
 10
252.900359
 20
311.47932
 30
0.0
 11
252.895999
 21
311.425696
 31
0.0
  0
LINE
  5
135
330
1F
100
AcDbEntity
  8
1
100
AcDbLine
 10
245.744248
 20
198.695417
 30
0.0
 11
253.144248
 21
198.695417
 31
0.0
  0
LINE
  5
136
330
1F
100
AcDbEntity
  8
1
100
AcDbLine
 10
245.744248
 20
214.196041
 30
0.0
 11
245.744248
 21
217.320759
 31
0.0
  0
LINE
  5
137
330
1F
100
AcDbEntity
  8
1
100
AcDbLine
 10
248.858263
 20
217.320759
 30
0.0
 11
248.908888
 21
214.196041
 31
0.0
  0
LINE
  5
138
330
1F
100
AcDbEntity
  8
1
100
AcDbLine
 10
248.908888
 20
214.196041
 30
0.0
 11
245.744248
 21
214.196041
 31
0.0
  0
LINE
  5
139
330
1F
100
AcDbEntity
  8
1
100
AcDbLine
 10
253.144248
 20
226.497399
 30
0.0
 11
253.144248
 21
225.572011
 31
0.0
  0
LINE
  5
13A
330
1F
100
AcDbEntity
  8
1
100
AcDbLine
 10
245.744248
 20
225.572011
 30
0.0
 11
245.744248
 21
226.497399
 31
0.0
  0
LINE
  5
13B
330
1F
100
AcDbEntity
  8
1
100
AcDbLine
 10
249.016239
 20
276.303182
 30
0.0
 11
249.019945
 21
276.387554
 31
0.0
  0
LINE
  5
13C
330
1F
100
AcDbEntity
  8
1
100
AcDbLine
 10
252.363218
 20
261.800388
 30
0.0
 11
252.386778
 21
262.384517
 31
0.0
  0
LINE
  5
13D
330
1F
100
AcDbEntity
  8
1
100
AcDbLine
 10
245.744248
 20
231.227036
 30
0.0
 11
245.744248
 21
232.898614
 31
0.0
  0
LINE
  5
13E
330
1F
100
AcDbEntity
  8
1
100
AcDbLine
 10
253.144248
 20
207.877981
 30
0.0
 11
253.144248
 21
202.697561
 31
0.0
  0
LINE
  5
13F
330
1F
100
AcDbEntity
  8
1
100
AcDbLine
 10
253.144248
 20
299.59031
 30
0.0
 11
250.013085
 21
299.59031
 31
0.0
  0
LINE
  5
140
330
1F
100
AcDbEntity
  8
1
100
AcDbLine
 10
253.144248
 20
285.645104
 30
0.0
 11
253.144248
 21
279.994491
 31
0.0
  0
LINE
  5
141
330
1F
100
AcDbEntity
  8
1
100
AcDbLine
 10
245.744248
 20
279.994491
 30
0.0
 11
245.744248
 21
285.645104
 31
0.0
  0
LINE
  5
142
330
1F
100
AcDbEntity
  8
1
100
AcDbLine
 10
245.744248
 20
285.645104
 30
0.0
 11
253.144248
 21
285.645104
 31
0.0
  0
LINE
  5
143
330
1F
100
AcDbEntity
  8
1
100
AcDbLine
 10
245.744248
 20
236.574575
 30
0.0
 11
245.744248
 21
237.47992
 31
0.0
  0
LINE
  5
144
330
1F
100
AcDbEntity
  8
1
100
AcDbLine
 10
245.744248
 20
246.412306
 30
0.0
 11
245.744248
 21
248.086867
 31
0.0
  0
LINE
  5
145
330
1F
100
AcDbEntity
  8
1
100
AcDbLine
 10
253.144248
 20
262.071684
 30
0.0
 11
253.144248
 21
261.767082
 31
0.0
  0
LINE
  5
146
330
1F
100
AcDbEntity
  8
1
100
AcDbLine
 10
252.885382
 20
262.083208
 30
0.0
 11
253.144248
 21
262.071684
 31
0.0
  0
LINE
  5
147
330
1F
100
AcDbEntity
  8
1
100
AcDbLine
 10
247.880735
 20
248.175768
 30
0.0
 11
247.954854
 21
246.504162
 31
0.0
  0
LINE
  5
148
330
1F
100
AcDbEntity
  8
1
100
AcDbLine
 10
245.982603
 20
248.096789
 30
0.0
 11
246.056719
 21
246.425266
 31
0.0
  0
LINE
  5
149
330
1F
100
AcDbEntity
  8
1
100
AcDbLine
 10
245.744248
 20
232.898623
 30
0.0
 11
245.744248
 21
236.574575
 31
0.0
  0
LINE
  5
14A
330
1F
100
AcDbEntity
  8
1
100
AcDbLine
 10
245.784312
 20
236.576237
 30
0.0
 11
245.744248
 21
236.574575
 31
0.0
  0
LINE
  5
14B
330
1F
100
AcDbEntity
  8
1
100
AcDbLine
 10
245.744248
 20
249.972223
 30
0.0
 11
245.744248
 21
248.086901
 31
0.0
  0
LINE
  5
14C
330
1F
100
AcDbEntity
  8
1
100
AcDbLine
 10
245.744248
 20
248.086901
 30
0.0
 11
245.982603
 21
248.096789
 31
0.0
  0
LINE
  5
14D
330
1F
100
AcDbEntity
  8
1
100
AcDbLine
 10
245.677249
 20
197.774017
 30
0.0
 11
249.919582
 21
197.84993
 31
0.0
  0
LINE
  5
14E
330
1F
100
AcDbEntity
  8
1
100
AcDbLine
 10
245.512618
 20
194.202566
 30
0.0
 11
245.677249
 21
197.774017
 31
0.0
  0
LINE
  5
14F
330
1F
100
AcDbEntity
  8
1
100
AcDbLine
 10
245.656455
 20
184.995527
 30
0.0
 11
245.891746
 21
181.902579
 31
0.0
  0
LINE
  5
150
330
1F
100
AcDbEntity
  8
1
100
AcDbLine
 10
245.891746
 20
181.902579
 30
0.0
 11
250.387292
 21
181.983024
 31
0.0
  0
LINE
  5
151
330
1F
100
AcDbEntity
  8
1
100
AcDbLine
 10
245.656455
 20
184.995527
 30
0.0
 11
245.593012
 21
187.496038
 31
0.0
  0
LINE
  5
152
330
1F
100
AcDbEntity
  8
1
100
AcDbLine
 10
245.447652
 20
187.871133
 30
0.0
 11
245.656455
 21
184.995527
 31
0.0
  0
LINE
  5
153
330
1F
100
AcDbEntity
  8
1
100
AcDbLine
 10
245.448064
 20
187.938015
 30
0.0
 11
249.94361
 21
188.01846
 31
0.0
  0
LINE
  5
154
330
1F
100
AcDbEntity
  8
1
100
AcDbLine
 10
245.465542
 20
189.783744
 30
0.0
 11
249.961088
 21
189.8641879999999
 31
0.0
  0
LINE
  5
155
330
1F
100
AcDbEntity
  8
1
100
AcDbLine
 10
250.025303
 20
195.658901
 30
0.0
 11
250.008164
 21
194.283011
 31
0.0
  0
LINE
  5
156
330
1F
100
AcDbEntity
  8
1
100
AcDbLine
 10
250.008164
 20
194.283011
 30
0.0
 11
249.961088
 21
189.8641879999999
 31
0.0
  0
LINE
  5
157
330
1F
100
AcDbEntity
  8
1
100
AcDbLine
 10
249.94361
 20
188.01846
 30
0.0
 11
249.94407
 21
188.033455
 31
0.0
  0
LINE
  5
158
330
1F
100
AcDbEntity
  8
1
100
AcDbLine
 10
250.152001
 20
185.075971
 30
0.0
 11
250.387292
 21
181.983024
 31
0.0
  0
LINE
  5
159
330
1F
100
AcDbEntity
  8
1
100
AcDbLine
 10
250.484614
 20
180.744762
 30
0.0
 11
250.483684
 21
180.762626
 31
0.0
  0
LINE
  5
15A
330
1F
100
AcDbEntity
  8
1
100
AcDbLine
 10
250.483684
 20
180.762626
 30
0.0
 11
250.488044
 21
180.705316
 31
0.0
  0
LINE
  5
15B
330
1F
100
AcDbEntity
  8
1
100
AcDbLine
 10
250.488044
 20
180.705316
 30
0.0
 11
250.492549
 21
181.067024
 31
0.0
  0
LINE
  5
15C
330
1F
100
AcDbEntity
  8
1
100
AcDbLine
 10
249.94407
 20
188.033455
 30
0.0
 11
249.943198
 21
187.951578
 31
0.0
  0
LINE
  5
15D
330
1F
100
AcDbEntity
  8
1
100
AcDbLine
 10
245.448364
 20
187.938019
 30
0.0
 11
245.447652
 21
187.871133
 31
0.0
  0
LINE
  5
15E
330
1F
100
AcDbEntity
  8
1
100
AcDbLine
 10
245.54668
 20
187.790974
 30
0.0
 11
245.447652
 21
187.871133
 31
0.0
  0
LINE
  5
15F
330
1F
100
AcDbEntity
  8
1
100
AcDbLine
 10
249.835345
 20
187.571951
 30
0.0
 11
250.152001
 21
185.075971
 31
0.0
  0
LINE
  5
160
330
1F
100
AcDbEntity
  8
1
100
AcDbLine
 10
249.943198
 20
187.951578
 30
0.0
 11
250.152001
 21
185.075971
 31
0.0
  0
LINE
  5
161
330
1F
100
AcDbEntity
  8
1
100
AcDbLine
 10
249.943198
 20
187.951578
 30
0.0
 11
249.842424
 21
187.867843
 31
0.0
  0
LINE
  5
162
330
1F
100
AcDbEntity
  8
1
100
AcDbLine
 10
249.842424
 20
187.867843
 30
0.0
 11
249.835345
 21
187.571951
 31
0.0
  0
LINE
  5
163
330
1F
100
AcDbEntity
  8
1
100
AcDbLine
 10
245.54668
 20
187.790974
 30
0.0
 11
249.842424
 21
187.867843
 31
0.0
  0
LINE
  5
164
330
1F
100
AcDbEntity
  8
1
100
AcDbLine
 10
245.593012
 20
187.496038
 30
0.0
 11
245.54668
 21
187.790974
 31
0.0
  0
LINE
  5
165
330
1F
100
AcDbEntity
  8
1
100
AcDbLine
 10
245.593012
 20
187.496038
 30
0.0
 11
249.835345
 21
187.571951
 31
0.0
  0
LINE
  5
166
330
1F
100
AcDbEntity
  8
1
100
AcDbLine
 10
253.323895
 20
307.415556
 30
0.0
 11
253.324317
 21
307.415543
 31
0.0
  0
LINE
  5
167
330
1F
100
AcDbEntity
  8
1
100
AcDbLine
 10
249.046073
 20
318.280685
 30
0.0
 11
253.341817
 21
318.148294
 31
0.0
  0
LINE
  5
168
330
1F
100
AcDbEntity
  8
1
100
AcDbLine
 10
248.945299
 20
318.199393
 30
0.0
 11
248.736495
 21
315.734286
 31
0.0
  0
LINE
  5
169
330
1F
100
AcDbEntity
  8
1
100
AcDbLine
 10
249.053152
 20
318.067953
 30
0.0
 11
249.046073
 21
318.280685
 31
0.0
  0
LINE
  5
16A
330
1F
100
AcDbEntity
  8
1
100
AcDbLine
 10
248.883154
 20
177.856652
 30
0.0
 11
248.927409
 21
172.905796
 31
0.0
  0
LINE
  5
16B
330
1F
100
AcDbEntity
  8
1
100
AcDbLine
 10
248.4004529999999
 20
167.851931
 30
0.0
 11
248.395947
 21
168.28915
 31
0.0
  0
LINE
  5
16C
330
1F
100
AcDbEntity
  8
1
100
AcDbLine
 10
248.404813
 20
167.873583
 30
0.0
 11
248.4004529999999
 21
167.851931
 31
0.0
  0
LINE
  5
16D
330
1F
100
AcDbEntity
  8
1
100
AcDbLine
 10
248.403883
 20
167.862808
 30
0.0
 11
248.404813
 21
167.873583
 31
0.0
  0
LINE
  5
16E
330
1F
100
AcDbEntity
  8
1
100
AcDbLine
 10
248.736495
 20
169.469798
 30
0.0
 11
248.501204
 21
168.301301
 31
0.0
  0
LINE
  5
16F
330
1F
100
AcDbEntity
  8
1
100
AcDbLine
 10
248.944886
 20
170.726506
 30
0.0
 11
248.9444259999999
 21
170.747196
 31
0.0
  0
LINE
  5
170
330
1F
100
AcDbEntity
  8
1
100
AcDbLine
 10
248.736495
 20
169.469798
 30
0.0
 11
249.053152
 21
170.413502
 31
0.0
  0
LINE
  5
171
330
1F
100
AcDbEntity
  8
1
100
AcDbLine
 10
248.945299
 20
170.649611
 30
0.0
 11
248.736495
 21
169.469798
 31
0.0
  0
LINE
  5
172
330
1F
100
AcDbEntity
  8
1
100
AcDbLine
 10
253.341817
 20
170.547857
 30
0.0
 11
253.295485
 21
170.409557
 31
0.0
  0
LINE
  5
173
330
1F
100
AcDbEntity
  8
1
100
AcDbLine
 10
249.053152
 20
170.413502
 30
0.0
 11
249.046073
 21
170.551851
 31
0.0
  0
LINE
  5
174
330
1F
100
AcDbEntity
  8
1
100
AcDbLine
 10
249.053152
 20
170.413502
 30
0.0
 11
253.295485
 21
170.409557
 31
0.0
  0
LINE
  5
175
330
1F
100
AcDbEntity
  8
1
100
AcDbLine
 10
253.440845
 20
170.645431
 30
0.0
 11
253.341817
 21
170.547857
 31
0.0
  0
LINE
  5
176
330
1F
100
AcDbEntity
  8
1
100
AcDbLine
 10
253.4401569999999
 20
170.722324
 30
0.0
 11
253.440845
 21
170.645431
 31
0.0
  0
LINE
  5
177
330
1F
100
AcDbEntity
  8
1
100
AcDbLine
 10
248.9444259999999
 20
170.747196
 30
0.0
 11
248.945299
 21
170.649611
 31
0.0
  0
LINE
  5
178
330
1F
100
AcDbEntity
  8
1
100
AcDbLine
 10
249.046073
 20
170.551851
 30
0.0
 11
248.945299
 21
170.649611
 31
0.0
  0
LINE
  5
179
330
1F
100
AcDbEntity
  8
1
100
AcDbLine
 10
249.046073
 20
170.551851
 30
0.0
 11
253.341817
 21
170.547857
 31
0.0
  0
LINE
  5
17A
330
1F
100
AcDbEntity
  8
1
100
AcDbLine
 10
245.989496
 20
180.664324
 30
0.0
 11
245.992498
 21
180.624872
 31
0.0
  0
LINE
  5
17B
330
1F
100
AcDbEntity
  8
1
100
AcDbLine
 10
250.488044
 20
180.705316
 30
0.0
 11
250.392506
 21
180.64617
 31
0.0
  0
LINE
  5
17C
330
1F
100
AcDbEntity
  8
1
100
AcDbLine
 10
246.096762
 20
180.569301
 30
0.0
 11
245.992498
 21
180.624872
 31
0.0
  0
LINE
  5
17D
330
1F
100
AcDbEntity
  8
1
100
AcDbLine
 10
246.096762
 20
180.569301
 30
0.0
 11
250.392506
 21
180.64617
 31
0.0
  0
LINE
  5
17E
330
1F
100
AcDbEntity
  8
1
100
AcDbLine
 10
245.989068
 20
180.664317
 30
0.0
 11
250.484614
 21
180.744762
 31
0.0
  0
LINE
  5
17F
330
1F
100
AcDbEntity
  8
1
100
AcDbLine
 10
245.656288
 20
198.125724
 30
0.0
 11
249.952032
 21
198.202593
 31
0.0
  0
LINE
  5
180
330
1F
100
AcDbEntity
  8
1
100
AcDbLine
 10
245.56075
 20
198.066578
 30
0.0
 11
245.512618
 21
194.202566
 31
0.0
  0
LINE
  5
181
330
1F
100
AcDbEntity
  8
1
100
AcDbLine
 10
245.677249
 20
197.774017
 30
0.0
 11
245.656288
 21
198.125724
 31
0.0
  0
LINE
  5
182
330
1F
100
AcDbEntity
  8
1
100
AcDbLine
 10
245.656288
 20
198.125724
 30
0.0
 11
245.56075
 21
198.066578
 31
0.0
  0
LINE
  5
183
330
1F
100
AcDbEntity
  8
1
100
AcDbLine
 10
249.96217
 20
198.1971899999999
 30
0.0
 11
249.952032
 21
198.202593
 31
0.0
  0
LINE
  5
184
330
1F
100
AcDbEntity
  8
1
100
AcDbLine
 10
249.952032
 20
198.202593
 30
0.0
 11
249.919582
 21
197.84993
 31
0.0
  0
LINE
  5
185
330
1F
100
AcDbEntity
  8
1
100
AcDbLine
 10
245.512618
 20
194.202566
 30
0.0
 11
245.465542
 21
189.783744
 31
0.0
  0
LINE
  5
186
330
1F
100
AcDbEntity
  8
1
100
AcDbLine
 10
249.919582
 20
197.84993
 30
0.0
 11
250.008164
 21
194.283011
 31
0.0
  0
LINE
  5
187
330
1F
100
AcDbEntity
  8
1
100
AcDbLine
 10
250.371545
 20
321.733233
 30
0.0
 11
250.372654
 21
321.704349
 31
0.0
  0
LINE
  5
188
330
1F
100
AcDbEntity
  8
1
100
AcDbLine
 10
250.488044
 20
322.2105620000001
 30
0.0
 11
250.392506
 21
322.191628
 31
0.0
  0
LINE
  5
189
330
1F
100
AcDbEntity
  8
1
100
AcDbLine
 10
250.483684
 20
322.227866
 30
0.0
 11
250.488044
 21
322.2105620000001
 31
0.0
  0
LINE
  5
18A
330
1F
100
AcDbEntity
  8
1
100
AcDbLine
 10
245.988138
 20
322.155146
 30
0.0
 11
250.483684
 21
322.227866
 31
0.0
  0
LINE
  5
18B
330
1F
100
AcDbEntity
  8
1
100
AcDbLine
 10
245.988138
 20
322.155146
 30
0.0
 11
245.992498
 21
322.137842
 31
0.0
  0
LINE
  5
18C
330
1F
100
AcDbEntity
  8
1
100
AcDbLine
 10
246.128188
 20
321.614971
 30
0.0
 11
246.129212
 21
321.664609
 31
0.0
  0
LINE
  5
18D
330
1F
100
AcDbEntity
  8
1
100
AcDbLine
 10
246.096762
 20
322.12214
 30
0.0
 11
245.992498
 21
322.137842
 31
0.0
  0
LINE
  5
18E
330
1F
100
AcDbEntity
  8
1
100
AcDbLine
 10
245.992498
 20
322.137842
 30
0.0
 11
245.997788
 21
321.614001
 31
0.0
  0
LINE
  5
18F
330
1F
100
AcDbEntity
  8
1
100
AcDbLine
 10
250.392506
 20
322.191628
 30
0.0
 11
250.371545
 21
321.733233
 31
0.0
  0
LINE
  5
190
330
1F
100
AcDbEntity
  8
1
100
AcDbLine
 10
246.096762
 20
322.12214
 30
0.0
 11
250.392506
 21
322.191628
 31
0.0
  0
LINE
  5
191
330
1F
100
AcDbEntity
  8
1
100
AcDbLine
 10
246.129212
 20
321.664609
 30
0.0
 11
246.096762
 21
322.12214
 31
0.0
  0
LINE
  5
192
330
1F
100
AcDbEntity
  8
1
100
AcDbLine
 10
246.129212
 20
321.664609
 30
0.0
 11
246.50214
 21
321.670641
 31
0.0
  0
LINE
  5
193
330
1F
100
AcDbEntity
  8
1
100
AcDbLine
 10
249.376585
 20
321.717138
 30
0.0
 11
250.371545
 21
321.733233
 31
0.0
  0
LINE
  5
194
330
1F
100
AcDbEntity
  8
1
100
AcDbLine
 10
252.898189
 20
167.858628
 30
0.0
 11
252.895999
 21
167.847751
 31
0.0
  0
LINE
  5
195
330
1F
100
AcDbEntity
  8
1
100
AcDbLine
 10
252.895999
 20
167.847751
 30
0.0
 11
252.791735
 21
167.826174
 31
0.0
  0
LINE
  5
196
330
1F
100
AcDbEntity
  8
1
100
AcDbLine
 10
248.49599
 20
167.830169
 30
0.0
 11
248.4004529999999
 21
167.851931
 31
0.0
  0
LINE
  5
197
330
1F
100
AcDbEntity
  8
1
100
AcDbLine
 10
248.49599
 20
167.830169
 30
0.0
 11
252.791735
 21
167.826174
 31
0.0
  0
LINE
  5
198
330
1F
100
AcDbEntity
  8
1
100
AcDbLine
 10
248.403883
 20
167.862808
 30
0.0
 11
252.899429
 21
167.858627
 31
0.0
  0
LINE
  5
199
330
1F
100
AcDbEntity
  8
1
100
AcDbLine
 10
253.144213
 20
182.860645
 30
0.0
 11
253.232209
 21
182.860563
 31
0.0
  0
LINE
  5
19A
330
1F
100
AcDbEntity
  8
1
100
AcDbLine
 10
253.327746
 20
182.8388
 30
0.0
 11
253.375879
 21
178.168133
 31
0.0
  0
LINE
  5
19B
330
1F
100
AcDbEntity
  8
1
100
AcDbLine
 10
253.327746
 20
182.8388
 30
0.0
 11
253.232209
 21
182.860563
 31
0.0
  0
LINE
  5
19C
330
1F
100
AcDbEntity
  8
1
100
AcDbLine
 10
253.232209
 20
182.860563
 30
0.0
 11
253.211248
 21
182.422139
 31
0.0
  0
LINE
  5
19D
330
1F
100
AcDbEntity
  8
1
100
AcDbLine
 10
253.375879
 20
178.168133
 30
0.0
 11
253.422955
 21
172.901615
 31
0.0
  0
LINE
  5
19E
330
1F
100
AcDbEntity
  8
1
100
AcDbLine
 10
253.211248
 20
182.422139
 30
0.0
 11
253.375879
 21
178.168133
 31
0.0
  0
LINE
  5
19F
330
1F
100
AcDbEntity
  8
1
100
AcDbLine
 10
253.144232
 20
182.422201
 30
0.0
 11
253.211248
 21
182.422139
 31
0.0
  0
LINE
  5
1A0
330
1F
100
AcDbEntity
  8
1
100
AcDbLine
 10
253.232041
 20
169.465617
 30
0.0
 11
252.99675
 21
168.297121
 31
0.0
  0
LINE
  5
1A1
330
1F
100
AcDbEntity
  8
1
100
AcDbLine
 10
248.501204
 20
168.301301
 30
0.0
 11
252.99675
 21
168.297121
 31
0.0
  0
LINE
  5
1A2
330
1F
100
AcDbEntity
  8
1
100
AcDbLine
 10
253.295485
 20
170.409557
 30
0.0
 11
253.232041
 21
169.465617
 31
0.0
  0
LINE
  5
1A3
330
1F
100
AcDbEntity
  8
1
100
AcDbLine
 10
253.440845
 20
170.645431
 30
0.0
 11
253.232041
 21
169.465617
 31
0.0
  0
LINE
  5
1A4
330
1F
100
AcDbEntity
  8
1
100
AcDbLine
 10
248.944886
 20
170.726506
 30
0.0
 11
253.440432
 21
170.722325
 31
0.0
  0
LINE
  5
1A5
330
1F
100
AcDbEntity
  8
1
100
AcDbLine
 10
248.927409
 20
172.905796
 30
0.0
 11
253.422955
 21
172.901615
 31
0.0
  0
LINE
  5
1A6
330
1F
100
AcDbEntity
  8
1
100
AcDbLine
 10
250.392506
 20
290.612036
 30
0.0
 11
250.371545
 21
290.315475
 31
0.0
  0
LINE
  5
1A7
330
1F
100
AcDbEntity
  8
1
100
AcDbLine
 10
246.129212
 20
290.142513
 30
0.0
 11
246.096762
 21
290.4368970000001
 31
0.0
  0
LINE
  5
1A8
330
1F
100
AcDbEntity
  8
1
100
AcDbLine
 10
246.129212
 20
290.142513
 30
0.0
 11
246.50214
 21
290.157717
 31
0.0
  0
LINE
  5
1A9
330
1F
100
AcDbEntity
  8
1
100
AcDbLine
 10
248.544558
 20
290.240988
 30
0.0
 11
250.371545
 21
290.315475
 31
0.0
  0
LINE
  5
1AA
330
1F
100
AcDbEntity
  8
1
100
AcDbLine
 10
250.488044
 20
290.697959
 30
0.0
 11
250.392506
 21
290.612036
 31
0.0
  0
LINE
  5
1AB
330
1F
100
AcDbEntity
  8
1
100
AcDbLine
 10
250.484482
 20
290.764761
 30
0.0
 11
250.488044
 21
290.697959
 31
0.0
  0
LINE
  5
1AC
330
1F
100
AcDbEntity
  8
1
100
AcDbLine
 10
245.988138
 20
290.596454
 30
0.0
 11
245.992498
 21
290.514674
 31
0.0
  0
LINE
  5
1AD
330
1F
100
AcDbEntity
  8
1
100
AcDbLine
 10
246.096762
 20
290.4368970000001
 30
0.0
 11
245.992498
 21
290.514674
 31
0.0
  0
LINE
  5
1AE
330
1F
100
AcDbEntity
  8
1
100
AcDbLine
 10
246.096762
 20
290.4368970000001
 30
0.0
 11
250.392506
 21
290.612036
 31
0.0
  0
LINE
  5
1AF
330
1F
100
AcDbEntity
  8
1
100
AcDbLine
 10
253.440152
 20
318.145711
 30
0.0
 11
253.440432
 21
318.145712
 31
0.0
  0
LINE
  5
1B0
330
1F
100
AcDbEntity
  8
1
100
AcDbLine
 10
253.327746
 20
306.029237
 30
0.0
 11
253.232209
 21
306.007474
 31
0.0
  0
LINE
  5
1B1
330
1F
100
AcDbEntity
  8
1
100
AcDbLine
 10
253.212408
 20
306.007456
 30
0.0
 11
253.232209
 21
306.007474
 31
0.0
  0
LINE
  5
1B2
330
1F
100
AcDbEntity
  8
1
100
AcDbLine
 10
253.215089
 20
306.040011
 30
0.0
 11
253.324317
 21
306.040113
 31
0.0
  0
LINE
  5
1B3
330
1F
100
AcDbEntity
  8
1
100
AcDbLine
 10
253.327746
 20
306.029237
 30
0.0
 11
253.375879
 21
310.699904
 31
0.0
  0
LINE
  5
1B4
330
1F
100
AcDbEntity
  8
1
100
AcDbLine
 10
253.375879
 20
310.699904
 30
0.0
 11
253.422955
 21
315.966422
 31
0.0
  0
LINE
  5
1B5
330
1F
100
AcDbEntity
  8
1
100
AcDbLine
 10
253.440432
 20
318.145712
 30
0.0
 11
253.439973
 21
318.125022
 31
0.0
  0
LINE
  5
1B6
330
1F
100
AcDbEntity
  8
1
100
AcDbLine
 10
253.439973
 20
318.125022
 30
0.0
 11
253.440845
 21
318.222606
 31
0.0
  0
LINE
  5
1B7
330
1F
100
AcDbEntity
  8
1
100
AcDbLine
 10
253.440845
 20
318.222606
 30
0.0
 11
253.232041
 21
319.402419
 31
0.0
  0
LINE
  5
1B8
330
1F
100
AcDbEntity
  8
1
100
AcDbLine
 10
253.232041
 20
319.402419
 30
0.0
 11
253.144245
 21
319.838433
 31
0.0
  0
LINE
  5
1B9
330
1F
100
AcDbEntity
  8
1
100
AcDbLine
 10
253.324317
 20
306.040113
 30
0.0
 11
253.323387
 21
306.050888
 31
0.0
  0
LINE
  5
1BA
330
1F
100
AcDbEntity
  8
1
100
AcDbLine
 10
253.323387
 20
306.050888
 30
0.0
 11
253.327746
 21
306.029237
 31
0.0
  0
LINE
  5
1BB
330
1F
100
AcDbEntity
  8
1
100
AcDbLine
 10
245.74425
 20
198.881469
 30
0.0
 11
245.704008
 21
198.126604
 31
0.0
  0
LINE
  5
1BC
330
1F
100
AcDbEntity
  8
1
100
AcDbLine
 10
245.656288
 20
246.408817
 30
0.0
 11
249.952032
 21
246.587014
 31
0.0
  0
LINE
  5
1BD
330
1F
100
AcDbEntity
  8
1
100
AcDbLine
 10
245.56075
 20
246.306237
 30
0.0
 11
245.512618
 21
245.607956
 31
0.0
  0
LINE
  5
1BE
330
1F
100
AcDbEntity
  8
1
100
AcDbLine
 10
245.677249
 20
246.369823
 30
0.0
 11
245.656288
 21
246.408817
 31
0.0
  0
LINE
  5
1BF
330
1F
100
AcDbEntity
  8
1
100
AcDbLine
 10
245.656288
 20
246.408817
 30
0.0
 11
245.56075
 21
246.306237
 31
0.0
  0
LINE
  5
1C0
330
1F
100
AcDbEntity
  8
1
100
AcDbLine
 10
250.013751
 20
246.531198
 30
0.0
 11
249.952032
 21
246.587014
 31
0.0
  0
LINE
  5
1C1
330
1F
100
AcDbEntity
  8
1
100
AcDbLine
 10
249.952032
 20
246.587014
 30
0.0
 11
249.919582
 21
246.545804
 31
0.0
  0
LINE
  5
1C2
330
1F
100
AcDbEntity
  8
1
100
AcDbLine
 10
245.512618
 20
245.607956
 30
0.0
 11
245.465542
 21
244.671231
 31
0.0
  0
LINE
  5
1C3
330
1F
100
AcDbEntity
  8
1
100
AcDbLine
 10
249.919582
 20
246.545804
 30
0.0
 11
250.008164
 21
245.794441
 31
0.0
  0
LINE
  5
1C4
330
1F
100
AcDbEntity
  8
1
100
AcDbLine
 10
245.677249
 20
246.369823
 30
0.0
 11
249.919582
 21
246.545804
 31
0.0
  0
LINE
  5
1C5
330
1F
100
AcDbEntity
  8
1
100
AcDbLine
 10
245.448524
 20
244.240022
 30
0.0
 11
245.447652
 21
244.222666
 31
0.0
  0
LINE
  5
1C6
330
1F
100
AcDbEntity
  8
1
100
AcDbLine
 10
245.54668
 20
244.209438
 30
0.0
 11
245.447652
 21
244.222666
 31
0.0
  0
LINE
  5
1C7
330
1F
100
AcDbEntity
  8
1
100
AcDbLine
 10
245.54668
 20
244.209438
 30
0.0
 11
249.842424
 21
244.387635
 31
0.0
  0
LINE
  5
1C8
330
1F
100
AcDbEntity
  8
1
100
AcDbLine
 10
245.56418
 20
311.860352
 30
0.0
 11
245.59305
 21
311.860819
 31
0.0
  0
LINE
  5
1C9
330
1F
100
AcDbEntity
  8
1
100
AcDbLine
 10
245.54668
 20
324.3148
 30
0.0
 11
249.842424
 21
324.384287
 31
0.0
  0
LINE
  5
1CA
330
1F
100
AcDbEntity
  8
1
100
AcDbLine
 10
249.943198
 20
324.287385
 30
0.0
 11
250.152001
 21
323.591789
 31
0.0
  0
LINE
  5
1CB
330
1F
100
AcDbEntity
  8
1
100
AcDbLine
 10
249.943198
 20
324.287385
 30
0.0
 11
249.842424
 21
324.384287
 31
0.0
  0
LINE
  5
1CC
330
1F
100
AcDbEntity
  8
1
100
AcDbLine
 10
249.842424
 20
324.384287
 30
0.0
 11
249.835345
 21
324.344031
 31
0.0
  0
LINE
  5
1CD
330
1F
100
AcDbEntity
  8
1
100
AcDbLine
 10
245.593012
 20
324.275408
 30
0.0
 11
245.54668
 21
324.3148
 31
0.0
  0
LINE
  5
1CE
330
1F
100
AcDbEntity
  8
1
100
AcDbLine
 10
245.54668
 20
324.3148
 30
0.0
 11
245.447652
 21
324.214665
 31
0.0
  0
LINE
  5
1CF
330
1F
100
AcDbEntity
  8
1
100
AcDbLine
 10
250.152001
 20
323.591789
 30
0.0
 11
250.387292
 21
322.657942
 31
0.0
  0
LINE
  5
1D0
330
1F
100
AcDbEntity
  8
1
100
AcDbLine
 10
249.835345
 20
324.344031
 30
0.0
 11
250.152001
 21
323.591789
 31
0.0
  0
LINE
  5
1D1
330
1F
100
AcDbEntity
  8
1
100
AcDbLine
 10
245.593012
 20
324.275408
 30
0.0
 11
249.835345
 21
324.344031
 31
0.0
  0
LINE
  5
1D2
330
1F
100
AcDbEntity
  8
1
100
AcDbLine
 10
245.656455
 20
323.51907
 30
0.0
 11
245.593012
 21
324.275408
 31
0.0
  0
LINE
  5
1D3
330
1F
100
AcDbEntity
  8
1
100
AcDbLine
 10
250.488044
 20
322.2105620000001
 30
0.0
 11
250.493171
 21
321.702807
 31
0.0
  0
LINE
  5
1D4
330
1F
100
AcDbEntity
  8
1
100
AcDbLine
 10
245.891746
 20
322.5852220000001
 30
0.0
 11
250.387292
 21
322.657942
 31
0.0
  0
LINE
  5
1D5
330
1F
100
AcDbEntity
  8
1
100
AcDbLine
 10
250.484614
 20
322.229911
 30
0.0
 11
250.483684
 21
322.227866
 31
0.0
  0
LINE
  5
1D6
330
1F
100
AcDbEntity
  8
1
100
AcDbLine
 10
245.989068
 20
322.157191
 30
0.0
 11
250.484614
 21
322.229911
 31
0.0
  0
LINE
  5
1D7
330
1F
100
AcDbEntity
  8
1
100
AcDbLine
 10
245.512618
 20
316.645957
 30
0.0
 11
245.465542
 21
321.95839
 31
0.0
  0
LINE
  5
1D8
330
1F
100
AcDbEntity
  8
1
100
AcDbLine
 10
245.56075
 20
311.879701
 30
0.0
 11
245.512618
 21
316.645957
 31
0.0
  0
LINE
  5
1D9
330
1F
100
AcDbEntity
  8
1
100
AcDbLine
 10
245.56511
 20
311.8623970000001
 30
0.0
 11
245.56075
 21
311.879701
 31
0.0
  0
LINE
  5
1DA
330
1F
100
AcDbEntity
  8
1
100
AcDbLine
 10
245.56418
 20
311.860352
 30
0.0
 11
245.56511
 21
311.8623970000001
 31
0.0
  0
LINE
  5
1DB
330
1F
100
AcDbEntity
  8
1
100
AcDbLine
 10
245.74425
 20
311.103898
 30
0.0
 11
245.661502
 21
311.432321
 31
0.0
  0
LINE
  5
1DC
330
1F
100
AcDbEntity
  8
1
100
AcDbLine
 10
245.989068
 20
322.157191
 30
0.0
 11
245.988138
 21
322.155146
 31
0.0
  0
LINE
  5
1DD
330
1F
100
AcDbEntity
  8
1
100
AcDbLine
 10
245.656455
 20
323.51907
 30
0.0
 11
245.891746
 21
322.5852220000001
 31
0.0
  0
LINE
  5
1DE
330
1F
100
AcDbEntity
  8
1
100
AcDbLine
 10
245.447652
 20
324.214665
 30
0.0
 11
245.656455
 21
323.51907
 31
0.0
  0
LINE
  5
1DF
330
1F
100
AcDbEntity
  8
1
100
AcDbLine
 10
245.448526
 20
324.115965
 30
0.0
 11
245.447652
 21
324.214665
 31
0.0
  0
LINE
  5
1E0
330
1F
100
AcDbEntity
  8
1
100
AcDbLine
 10
245.512618
 20
245.607956
 30
0.0
 11
245.677249
 21
246.369823
 31
0.0
  0
LINE
  5
1E1
330
1F
100
AcDbEntity
  8
1
100
AcDbLine
 10
245.989167
 20
231.973218
 30
0.0
 11
245.992498
 21
231.898082
 31
0.0
  0
LINE
  5
1E2
330
1F
100
AcDbEntity
  8
1
100
AcDbLine
 10
250.488044
 20
232.084567
 30
0.0
 11
250.392506
 21
231.981988
 31
0.0
  0
LINE
  5
1E3
330
1F
100
AcDbEntity
  8
1
100
AcDbLine
 10
246.096762
 20
231.803791
 30
0.0
 11
245.992498
 21
231.898082
 31
0.0
  0
LINE
  5
1E4
330
1F
100
AcDbEntity
  8
1
100
AcDbLine
 10
246.096762
 20
231.803791
 30
0.0
 11
250.392506
 21
231.981988
 31
0.0
  0
LINE
  5
1E5
330
1F
100
AcDbEntity
  8
1
100
AcDbLine
 10
245.989068
 20
231.973215
 30
0.0
 11
250.484614
 21
232.1597
 31
0.0
  0
LINE
  5
1E6
330
1F
100
AcDbEntity
  8
1
100
AcDbLine
 10
245.448064
 20
244.242051
 30
0.0
 11
245.448524
 21
244.240022
 31
0.0
  0
LINE
  5
1E7
330
1F
100
AcDbEntity
  8
1
100
AcDbLine
 10
245.448064
 20
244.242051
 30
0.0
 11
249.94361
 21
244.428536
 31
0.0
  0
LINE
  5
1E8
330
1F
100
AcDbEntity
  8
1
100
AcDbLine
 10
245.465542
 20
244.671231
 30
0.0
 11
249.961088
 21
244.857716
 31
0.0
  0
LINE
  5
1E9
330
1F
100
AcDbEntity
  8
1
100
AcDbLine
 10
250.02537
 20
246.044066
 30
0.0
 11
250.008164
 21
245.794441
 31
0.0
  0
LINE
  5
1EA
330
1F
100
AcDbEntity
  8
1
100
AcDbLine
 10
250.008164
 20
245.794441
 30
0.0
 11
249.961088
 21
244.857716
 31
0.0
  0
LINE
  5
1EB
330
1F
100
AcDbEntity
  8
1
100
AcDbLine
 10
249.94361
 20
244.428536
 30
0.0
 11
249.94407
 21
244.426508
 31
0.0
  0
LINE
  5
1EC
330
1F
100
AcDbEntity
  8
1
100
AcDbLine
 10
250.484614
 20
232.1597
 30
0.0
 11
250.483684
 21
232.182919
 31
0.0
  0
LINE
  5
1ED
330
1F
100
AcDbEntity
  8
1
100
AcDbLine
 10
250.483684
 20
232.182919
 30
0.0
 11
250.488044
 21
232.084567
 31
0.0
  0
LINE
  5
1EE
330
1F
100
AcDbEntity
  8
1
100
AcDbLine
 10
250.488044
 20
232.084567
 30
0.0
 11
250.492549
 21
232.149933
 31
0.0
  0
LINE
  5
1EF
330
1F
100
AcDbEntity
  8
1
100
AcDbLine
 10
245.447652
 20
244.222666
 30
0.0
 11
245.656455
 21
239.4603490000001
 31
0.0
  0
LINE
  5
1F0
330
1F
100
AcDbEntity
  8
1
100
AcDbLine
 10
245.656455
 20
239.4603490000001
 30
0.0
 11
245.593012
 21
243.752943
 31
0.0
  0
LINE
  5
1F1
330
1F
100
AcDbEntity
  8
1
100
AcDbLine
 10
245.656455
 20
239.4603490000001
 30
0.0
 11
245.891746
 21
234.152413
 31
0.0
  0
LINE
  5
1F2
330
1F
100
AcDbEntity
  8
1
100
AcDbLine
 10
245.891746
 20
234.152413
 30
0.0
 11
250.387292
 21
234.338898
 31
0.0
  0
LINE
  5
1F3
330
1F
100
AcDbEntity
  8
1
100
AcDbLine
 10
250.152001
 20
239.646834
 30
0.0
 11
250.387292
 21
234.338898
 31
0.0
  0
LINE
  5
1F4
330
1F
100
AcDbEntity
  8
1
100
AcDbLine
 10
249.835345
 20
243.928925
 30
0.0
 11
250.152001
 21
239.646834
 31
0.0
  0
LINE
  5
1F5
330
1F
100
AcDbEntity
  8
1
100
AcDbLine
 10
249.943198
 20
244.409151
 30
0.0
 11
250.152001
 21
239.646834
 31
0.0
  0
LINE
  5
1F6
330
1F
100
AcDbEntity
  8
1
100
AcDbLine
 10
249.842424
 20
244.387635
 30
0.0
 11
249.835345
 21
243.928925
 31
0.0
  0
LINE
  5
1F7
330
1F
100
AcDbEntity
  8
1
100
AcDbLine
 10
245.593012
 20
243.752943
 30
0.0
 11
245.54668
 21
244.209438
 31
0.0
  0
LINE
  5
1F8
330
1F
100
AcDbEntity
  8
1
100
AcDbLine
 10
245.593012
 20
243.752943
 30
0.0
 11
249.835345
 21
243.928925
 31
0.0
  0
LINE
  5
1F9
330
1F
100
AcDbEntity
  8
1
100
AcDbLine
 10
249.943198
 20
244.409151
 30
0.0
 11
249.842424
 21
244.387635
 31
0.0
  0
LINE
  5
1FA
330
1F
100
AcDbEntity
  8
1
100
AcDbLine
 10
249.94407
 20
244.426508
 30
0.0
 11
249.943198
 21
244.409151
 31
0.0
  0
LINE
  5
1FB
330
1F
100
AcDbEntity
  8
1
100
AcDbLine
 10
245.448524
 20
244.240022
 30
0.0
 11
249.94407
 21
244.426508
 31
0.0
  0
LINE
  5
1FC
330
1F
100
AcDbEntity
  8
1
100
AcDbLine
 10
246.501718
 20
321.716512
 30
0.0
 11
246.502597
 21
321.617673
 31
0.0
  0
LINE
  5
1FD
330
1F
100
AcDbEntity
  8
1
100
AcDbLine
 10
253.144248
 20
169.029674
 30
0.0
 11
253.144248
 21
168.076619
 31
0.0
  0
LINE
  5
1FE
330
1F
100
AcDbEntity
  8
1
100
AcDbLine
 10
253.144248
 20
320.651915
 30
0.0
 11
253.144248
 21
318.15438
 31
0.0
  0
LINE
  5
1FF
330
1F
100
AcDbEntity
  8
1
100
AcDbLine
 10
245.744248
 20
316.6597450000001
 30
0.0
 11
245.744248
 21
320.651915
 31
0.0
  0
LINE
  5
200
330
1F
100
AcDbEntity
  8
1
100
AcDbLine
 10
245.744248
 20
320.651915
 30
0.0
 11
253.144248
 21
320.651915
 31
0.0
  0
LINE
  5
201
330
1F
100
AcDbEntity
  8
1
100
AcDbLine
 10
245.744248
 20
167.153817
 30
0.0
 11
253.144248
 21
167.153817
 31
0.0
  0
LINE
  5
202
330
1F
100
AcDbEntity
  8
1
100
AcDbLine
 10
245.744248
 20
171.981243
 30
0.0
 11
245.744248
 21
177.656078
 31
0.0
  0
LINE
  5
203
330
1F
100
AcDbEntity
  8
1
100
AcDbLine
 10
248.858263
 20
177.656078
 30
0.0
 11
248.908888
 21
171.981243
 31
0.0
  0
LINE
  5
204
330
1F
100
AcDbEntity
  8
1
100
AcDbLine
 10
248.908888
 20
171.981243
 30
0.0
 11
245.744248
 21
171.981243
 31
0.0
  0
LINE
  5
205
330
1F
100
AcDbEntity
  8
1
100
AcDbLine
 10
252.383478
 20
310.70086
 30
0.0
 11
252.386778
 21
311.018818
 31
0.0
  0
LINE
  5
206
330
1F
100
AcDbEntity
  8
1
100
AcDbLine
 10
245.744248
 20
180.522084
 30
0.0
 11
245.744248
 21
183.841524
 31
0.0
  0
LINE
  5
207
330
1F
100
AcDbEntity
  8
1
100
AcDbLine
 10
248.814839
 20
316.659739
 30
0.0
 11
245.744248
 21
316.659739
 31
0.0
  0
LINE
  5
208
330
1F
100
AcDbEntity
  8
1
100
AcDbLine
 10
253.144248
 20
307.986125
 30
0.0
 11
253.144248
 21
301.104059
 31
0.0
  0
LINE
  5
209
330
1F
100
AcDbEntity
  8
1
100
AcDbLine
 10
245.744248
 20
301.104059
 30
0.0
 11
245.744248
 21
307.986125
 31
0.0
  0
LINE
  5
20A
330
1F
100
AcDbEntity
  8
1
100
AcDbLine
 10
245.744248
 20
307.986125
 30
0.0
 11
253.144248
 21
307.986125
 31
0.0
  0
LINE
  5
20B
330
1F
100
AcDbEntity
  8
1
100
AcDbLine
 10
245.744248
 20
198.127293
 30
0.0
 11
245.744248
 21
198.695405
 31
0.0
  0
LINE
  5
20C
330
1F
100
AcDbEntity
  8
1
100
AcDbLine
 10
246.01661
 20
198.695341
 30
0.0
 11
246.0594509999999
 21
198.132852
 31
0.0
  0
LINE
  5
20D
330
1F
100
AcDbEntity
  8
1
100
AcDbLine
 10
247.917413
 20
198.695361
 30
0.0
 11
247.957664
 21
198.166878
 31
0.0
  0
LINE
  5
20E
330
1F
100
AcDbEntity
  8
1
100
AcDbLine
 10
245.744248
 20
289.668598
 30
0.0
 11
245.744248
 21
289.9866
 31
0.0
  0
LINE
  5
20F
330
1F
100
AcDbEntity
  8
1
100
AcDbLine
 10
253.144248
 20
193.620467
 30
0.0
 11
253.144248
 21
188.858183
 31
0.0
  0
LINE
  5
210
330
1F
100
AcDbEntity
  8
1
100
AcDbLine
 10
249.979609
 20
188.858183
 30
0.0
 11
250.030234
 21
193.620467
 31
0.0
  0
LINE
  5
211
330
1F
100
AcDbEntity
  8
1
100
AcDbLine
 10
245.744248
 20
177.856722
 30
0.0
 11
253.144248
 21
177.856722
 31
0.0
  0
LINE
  5
212
330
1F
100
AcDbEntity
  8
1
100
AcDbLine
 10
253.144248
 20
188.858183
 30
0.0
 11
249.979609
 21
188.858183
 31
0.0
  0
LINE
  5
213
330
1F
100
AcDbEntity
  8
1
100
AcDbLine
 10
253.144248
 20
274.804384
 30
0.0
 11
253.144248
 21
275.907773
 31
0.0
  0
LINE
  5
214
330
1F
100
AcDbEntity
  8
1
100
AcDbLine
 10
253.144248
 20
267.869814
 30
0.0
 11
253.144248
 21
262.071684
 31
0.0
  0
LINE
  5
215
330
1F
100
AcDbEntity
  8
1
100
AcDbLine
 10
253.144248
 20
221.896607
 30
0.0
 11
253.144248
 21
220.443721
 31
0.0
  0
LINE
  5
216
330
1F
100
AcDbEntity
  8
1
100
AcDbLine
 10
246.50917
 20
289.695685
 30
0.0
 11
246.501718
 21
290.184192
 31
0.0
  0
LINE
  5
217
330
1F
100
AcDbEntity
  8
1
100
AcDbLine
 10
251.007762
 20
221.966081
 30
0.0
 11
250.932607
 21
220.514751
 31
0.0
  0
LINE
  5
218
330
1F
100
AcDbEntity
  8
1
100
AcDbLine
 10
252.905893
 20
221.904343
 30
0.0
 11
252.830773
 21
220.453686
 31
0.0
  0
LINE
  5
219
330
1F
100
AcDbEntity
  8
1
100
AcDbLine
 10
253.144248
 20
221.896684
 30
0.0
 11
253.144248
 21
223.193531
 31
0.0
  0
LINE
  5
21A
330
1F
100
AcDbEntity
  8
1
100
AcDbLine
 10
253.144248
 20
221.896684
 30
0.0
 11
252.905893
 21
221.904343
 31
0.0
  0
LINE
  5
21B
330
1F
100
AcDbEntity
  8
1
100
AcDbLine
 10
245.448064
 20
300.658538
 30
0.0
 11
245.448275
 21
300.658547
 31
0.0
  0
LINE
  5
21C
330
1F
100
AcDbEntity
  8
1
100
AcDbLine
 10
245.54668
 20
300.759458
 30
0.0
 11
249.842424
 21
300.934598
 31
0.0
  0
LINE
  5
21D
330
1F
100
AcDbEntity
  8
1
100
AcDbLine
 10
249.943198
 20
300.881291
 30
0.0
 11
250.152001
 21
297.021964
 31
0.0
  0
LINE
  5
21E
330
1F
100
AcDbEntity
  8
1
100
AcDbLine
 10
249.943198
 20
300.881291
 30
0.0
 11
249.842424
 21
300.934598
 31
0.0
  0
LINE
  5
21F
330
1F
100
AcDbEntity
  8
1
100
AcDbLine
 10
249.842424
 20
300.934598
 30
0.0
 11
249.835345
 21
300.581775
 31
0.0
  0
LINE
  5
220
330
1F
100
AcDbEntity
  8
1
100
AcDbLine
 10
245.593012
 20
300.408813
 30
0.0
 11
245.54668
 21
300.759458
 31
0.0
  0
LINE
  5
221
330
1F
100
AcDbEntity
  8
1
100
AcDbLine
 10
245.54668
 20
300.759458
 30
0.0
 11
245.447652
 21
300.698006
 31
0.0
  0
LINE
  5
222
330
1F
100
AcDbEntity
  8
1
100
AcDbLine
 10
250.152001
 20
297.021964
 30
0.0
 11
250.387292
 21
292.6083569999999
 31
0.0
  0
LINE
  5
223
330
1F
100
AcDbEntity
  8
1
100
AcDbLine
 10
249.835345
 20
300.581775
 30
0.0
 11
250.152001
 21
297.021964
 31
0.0
  0
LINE
  5
224
330
1F
100
AcDbEntity
  8
1
100
AcDbLine
 10
245.593012
 20
300.408813
 30
0.0
 11
249.835345
 21
300.581775
 31
0.0
  0
LINE
  5
225
330
1F
100
AcDbEntity
  8
1
100
AcDbLine
 10
245.656455
 20
296.838679
 30
0.0
 11
245.593012
 21
300.408813
 31
0.0
  0
LINE
  5
226
330
1F
100
AcDbEntity
  8
1
100
AcDbLine
 10
245.989068
 20
290.581482
 30
0.0
 11
250.484614
 21
290.764768
 31
0.0
  0
LINE
  5
227
330
1F
100
AcDbEntity
  8
1
100
AcDbLine
 10
245.891746
 20
292.425071
 30
0.0
 11
250.387292
 21
292.6083569999999
 31
0.0
  0
LINE
  5
228
330
1F
100
AcDbEntity
  8
1
100
AcDbLine
 10
250.371545
 20
290.315475
 30
0.0
 11
250.384294
 21
290.122345
 31
0.0
  0
LINE
  5
229
330
1F
100
AcDbEntity
  8
1
100
AcDbLine
 10
250.488044
 20
290.697959
 30
0.0
 11
250.497798
 21
290.11502
 31
0.0
  0
LINE
  5
22A
330
1F
100
AcDbEntity
  8
1
100
AcDbLine
 10
245.512618
 20
296.325669
 30
0.0
 11
245.465542
 21
299.419762
 31
0.0
  0
LINE
  5
22B
330
1F
100
AcDbEntity
  8
1
100
AcDbLine
 10
245.56075
 20
293.449176
 30
0.0
 11
245.512618
 21
296.325669
 31
0.0
  0
LINE
  5
22C
330
1F
100
AcDbEntity
  8
1
100
AcDbLine
 10
245.56511
 20
293.3673950000001
 30
0.0
 11
245.56075
 21
293.449176
 31
0.0
  0
LINE
  5
22D
330
1F
100
AcDbEntity
  8
1
100
AcDbLine
 10
245.56418
 20
293.3823680000001
 30
0.0
 11
245.56511
 21
293.3673950000001
 31
0.0
  0
LINE
  5
22E
330
1F
100
AcDbEntity
  8
1
100
AcDbLine
 10
245.76118
 20
289.668995
 30
0.0
 11
245.661502
 21
291.538779
 31
0.0
  0
LINE
  5
22F
330
1F
100
AcDbEntity
  8
1
100
AcDbLine
 10
245.989068
 20
290.581482
 30
0.0
 11
245.988138
 21
290.596454
 31
0.0
  0
LINE
  5
230
330
1F
100
AcDbEntity
  8
1
100
AcDbLine
 10
245.656455
 20
296.838679
 30
0.0
 11
245.891746
 21
292.425071
 31
0.0
  0
LINE
  5
231
330
1F
100
AcDbEntity
  8
1
100
AcDbLine
 10
245.447652
 20
300.698006
 30
0.0
 11
245.656455
 21
296.838679
 31
0.0
  0
LINE
  5
232
330
1F
100
AcDbEntity
  8
1
100
AcDbLine
 10
245.448524
 20
300.640674
 30
0.0
 11
245.447652
 21
300.698006
 31
0.0
  0
LINE
  5
233
330
1F
100
AcDbEntity
  8
1
100
AcDbLine
 10
245.448064
 20
300.658538
 30
0.0
 11
245.448524
 21
300.640674
 31
0.0
  0
LINE
  5
234
330
1F
100
AcDbEntity
  8
1
100
AcDbLine
 10
246.112908
 20
289.681559
 30
0.0
 11
246.129212
 21
290.142513
 31
0.0
  0
LINE
  5
235
330
1F
100
AcDbEntity
  8
1
100
AcDbLine
 10
245.992498
 20
290.514674
 30
0.0
 11
246.006501
 21
289.677794
 31
0.0
  0
LINE
  5
236
330
1F
100
AcDbEntity
  8
1
100
AcDbLine
 10
249.991103
 20
247.300272
 30
0.0
 11
253.144248
 21
247.300272
 31
0.0
  0
LINE
  5
237
330
1F
100
AcDbEntity
  8
1
100
AcDbLine
 10
247.244251
 20
223.967455
 30
0.0
 11
251.644245
 21
223.967455
 31
0.0
  0
LINE
  5
238
330
1F
100
AcDbEntity
  8
1
100
AcDbLine
 10
245.744233
 20
278.260804
 30
0.0
 11
243.444248
 21
276.932908
 31
0.0
  0
LINE
  5
239
330
1F
100
AcDbEntity
  8
1
100
AcDbLine
 10
255.444248
 20
276.932908
 30
0.0
 11
253.144264
 21
278.260804
 31
0.0
  0
LINE
  5
23A
330
1F
100
AcDbEntity
  8
1
100
AcDbLine
 10
253.288442
 20
210.690474
 30
0.0
 11
255.444248
 21
211.935129
 31
0.0
  0
LINE
  5
23B
330
1F
100
AcDbEntity
  8
1
100
AcDbLine
 10
245.744248
 20
274.123836
 30
0.0
 11
245.744248
 21
257.030069
 31
0.0
  0
LINE
  5
23C
330
1F
100
AcDbEntity
  8
1
100
AcDbLine
 10
253.144248
 20
322.733456
 30
0.0
 11
253.144248
 21
320.651915
 31
0.0
  0
LINE
  5
23D
330
1F
100
AcDbEntity
  8
NOCUT
100
AcDbLine
 10
243.444248
 20
276.932908
 30
0.0
 11
246.044248
 21
278.434018
 31
0.0
  0
LINE
  5
23F
330
1F
100
AcDbEntity
  8
NOCUT
100
AcDbLine
 10
246.044248
 20
278.434018
 30
0.0
 11
246.044248
 21
306.434018
 31
0.0
  0
LINE
  5
240
330
1F
100
AcDbEntity
  8
NOCUT
100
AcDbLine
 10
245.744248
 20
306.434018
 30
0.0
 11
245.744248
 21
322.734018
 31
0.0
  0
LINE
  5
241
330
1F
100
AcDbEntity
  8
NOCUT
100
AcDbLine
 10
245.744248
 20
322.734018
 30
0.0
 11
253.144248
 21
322.734018
 31
0.0
  0
LINE
  5
242
330
1F
100
AcDbEntity
  8
NOCUT
100
AcDbLine
 10
253.144248
 20
306.434018
 30
0.0
 11
252.844248
 21
306.434018
 31
0.0
  0
LINE
  5
243
330
1F
100
AcDbEntity
  8
NOCUT
100
AcDbLine
 10
252.844248
 20
278.434018
 30
0.0
 11
255.444248
 21
276.932908
 31
0.0
  0
LINE
  5
244
330
1F
100
AcDbEntity
  8
NOCUT
100
AcDbLine
 10
255.444248
 20
276.932908
 30
0.0
 11
255.444248
 21
267.934018
 31
0.0
  0
LINE
  5
245
330
1F
100
AcDbEntity
  8
NOCUT
100
AcDbLine
 10
243.444248
 20
267.934018
 30
0.0
 11
243.444248
 21
276.932908
 31
0.0
  0
LINE
  5
246
330
1F
100
AcDbEntity
  8
NOCUT
100
AcDbLine
 10
255.444248
 20
267.934018
 30
0.0
 11
243.444248
 21
267.934018
 31
0.0
  0
LINE
  5
247
330
1F
100
AcDbEntity
  8
NOCUT
100
AcDbLine
 10
246.044248
 20
306.434018
 30
0.0
 11
245.744248
 21
306.434018
 31
0.0
  0
LINE
  5
248
330
1F
100
AcDbEntity
  8
NOCUT
100
AcDbLine
 10
253.144248
 20
322.734018
 30
0.0
 11
253.144248
 21
306.434018
 31
0.0
  0
LINE
  5
249
330
1F
100
AcDbEntity
  8
NOCUT
100
AcDbLine
 10
252.844248
 20
306.434018
 30
0.0
 11
252.844248
 21
278.434018
 31
0.0
  0
ELLIPSE
  5
24F
330
1F
100
AcDbEntity
  8
1
100
AcDbEllipse
 10
253.5999180000001
 20
278.302761
 30
0.0
 11
-0.1778832195749129
 21
-3.996042737533428
 31
0.0
210
0.0
220
0.0
230
1.0
 40
0.000929
 41
5.803050020424778
 42
6.366204181581926
  0
ELLIPSE
  5
250
330
1F
100
AcDbEntity
  8
1
100
AcDbEllipse
 10
252.9783
 20
264.511023
 30
0.0
 11
-0.1778832195749129
 21
-3.996042737533428
 31
0.0
210
0.0
220
0.0
230
1.0
 40
0.000929
 41
1.090661040040153
 42
1.653815201197388
  0
ELLIPSE
  5
251
330
1F
100
AcDbEntity
  8
1
100
AcDbEllipse
 10
253.245445
 20
270.051335
 30
0.0
 11
-0.1778832195749129
 21
-3.996042737533428
 31
0.0
210
0.0
220
0.0
230
1.0
 40
0.000929
 41
4.232253693630004
 42
4.795407854787193
  0
ELLIPSE
  5
252
330
1F
100
AcDbEntity
  8
1
100
AcDbEllipse
 10
253.111873
 20
267.281179
 30
0.0
 11
-0.1734361390855401
 21
-3.896141669095094
 31
0.0
210
0.0
220
0.0
230
1.0
 40
0.000929
 41
0.0
 42
6.283185307179585
  0
ELLIPSE
  5
253
330
1F
100
AcDbEntity
  8
1
100
AcDbEllipse
 10
245.643051
 20
288.269632
 30
0.0
 11
-0.0715655689121447
 21
-3.999359744927464
 31
0.0
210
0.0
220
0.0
230
1.0
 40
0.04073
 41
3.556589399196765
 42
4.014812229370321
  0
ELLIPSE
  5
254
330
1F
100
AcDbEntity
  8
1
100
AcDbEllipse
 10
245.288579
 20
297.866781
 30
0.0
 11
-0.0715655689121447
 21
-3.999359744927464
 31
0.0
210
0.0
220
0.0
230
1.0
 40
0.04073
 41
1.880861741418214
 42
1.954696529906176
  0
ELLIPSE
  5
255
330
1F
100
AcDbEntity
  8
1
100
AcDbEllipse
 10
245.288579
 20
297.866781
 30
0.0
 11
-0.0715655689121447
 21
-3.999359744927464
 31
0.0
210
0.0
220
0.0
230
1.0
 40
0.04073
 41
2.00274065696587
 42
2.033538190646965
  0
ELLIPSE
  5
256
330
1F
100
AcDbEntity
  8
1
100
AcDbEllipse
 10
245.288579
 20
297.866781
 30
0.0
 11
-0.0715655689121447
 21
-3.999359744927464
 31
0.0
210
0.0
220
0.0
230
1.0
 40
0.04073
 41
2.359498713843337
 42
2.444015902575424
  0
ELLIPSE
  5
257
330
1F
100
AcDbEntity
  8
1
100
AcDbEllipse
 10
245.776624
 20
299.522312
 30
0.0
 11
-0.0697764296893411
 21
-3.899375751304278
 31
0.0
210
0.0
220
0.0
230
1.0
 40
0.04073
 41
3.743293476992973
 42
4.389087059298161
  0
ELLIPSE
  5
258
330
1F
100
AcDbEntity
  8
1
100
AcDbEllipse
 10
248.482754
 20
264.711141
 30
0.0
 11
-0.1778832195749129
 21
-3.996042737533428
 31
0.0
210
0.0
220
0.0
230
1.0
 40
0.000929
 41
1.090661040040211
 42
1.653815201197399
  0
ELLIPSE
  5
259
330
1F
100
AcDbEntity
  8
1
100
AcDbEllipse
 10
247.654628
 20
244.434018
 30
0.0
 11
-3.485515299392166
 21
-78.29999991262432
 31
0.0
210
0.0
220
0.0
230
1.0
 40
0.000928
 41
4.477265379754415
 42
4.482219792760858
  0
ELLIPSE
  5
25A
330
1F
100
AcDbEntity
  8
1
100
AcDbEllipse
 10
236.539372
 20
244.435608
 30
0.0
 11
-985.6242046893767
 21
-76.46249759682281
 31
0.0
210
0.0
220
0.0
230
0.9999999999999996
 40
0.017092
 41
4.69691000270692
 42
4.699050328094134
  0
ELLIPSE
  5
25B
330
1F
100
AcDbEntity
  8
1
100
AcDbEllipse
 10
251.233869
 20
244.434018
 30
0.0
 11
-3.248906560883752
 21
78.2999824191772
 31
0.0
210
0.0
220
0.0
230
1.0
 40
0.016148
 41
1.573915089099839
 42
1.732614870376164
  0
ELLIPSE
  5
25C
330
1F
100
AcDbEntity
  8
1
100
AcDbEllipse
 10
262.315143
 20
244.399707
 30
0.0
 11
-984.3220404671352
 21
77.02056713773536
 31
0.0
210
0.0
220
0.0
230
0.9999999999999998
 40
0.013689
 41
1.558011111474105
 42
1.559873448278086
  0
ELLIPSE
  5
25D
330
1F
100
AcDbEntity
  8
1
100
AcDbEllipse
 10
247.229893
 20
244.433791
 30
0.0
 11
-3.24888062112199
 21
78.29926997312897
 31
0.0
210
0.0
220
0.0
230
1.0
 40
0.016148
 41
1.731920141016136
 42
1.739169806255986
  0
ELLIPSE
  5
25E
330
1F
100
AcDbEntity
  8
1
100
AcDbEllipse
 10
252.9783
 20
201.975003
 30
0.0
 11
-0.1284709790788165
 21
-3.997936368620007
 31
0.0
210
0.0
220
0.0
230
1.0
 40
0.030789
 41
3.844487286335993
 42
4.407641447493206
  0
ELLIPSE
  5
25F
330
1F
100
AcDbEntity
  8
1
100
AcDbEllipse
 10
253.111873
 20
277.133169
 30
0.0
 11
0.1252592046018461
 21
-3.897987959404506
 31
0.0
210
0.0
220
0.0
230
1.0
 40
0.030789
 41
1.855974408663311
 42
2.146571759000944
  0
ELLIPSE
  5
260
330
1F
100
AcDbEntity
  8
1
100
AcDbEllipse
 10
245.288579
 20
165.079243
 30
0.0
 11
-0.0646952573743717
 21
-3.999476781239424
 31
0.0
210
0.0
220
0.0
230
1.0
 40
0.041441
 41
1.48367475099104
 42
2.046828912148245
  0
ELLIPSE
  5
261
330
1F
100
AcDbEntity
  8
1
100
AcDbEllipse
 10
245.643051
 20
180.99176
 30
0.0
 11
-0.0646952573743717
 21
-3.999476781239424
 31
0.0
210
0.0
220
0.0
230
1.0
 40
0.041441
 41
0.0871225356667997
 42
0.4760325853533535
  0
ELLIPSE
  5
262
330
1F
100
AcDbEntity
  8
1
100
AcDbEllipse
 10
249.784125
 20
165.006524
 30
0.0
 11
-0.0646952573743717
 21
-3.999476781239424
 31
0.0
210
0.0
220
0.0
230
1.0
 40
0.041441
 41
1.483674750991032
 42
2.046828912148245
  0
ELLIPSE
  5
263
330
1F
100
AcDbEntity
  8
1
100
AcDbEllipse
 10
253.5999180000001
 20
217.567245
 30
0.0
 11
-0.1284709790788165
 21
-3.997936368620007
 31
0.0
210
0.0
220
0.0
230
1.0
 40
0.030789
 41
5.415283613130894
 42
5.978437774288106
  0
ELLIPSE
  5
264
330
1F
100
AcDbEntity
  8
1
100
AcDbEllipse
 10
248.482754
 20
202.119464
 30
0.0
 11
-0.1284709790788165
 21
-3.997936368620007
 31
0.0
210
0.0
220
0.0
230
1.0
 40
0.030789
 41
3.844487286335996
 42
4.407641447493209
  0
ELLIPSE
  5
265
330
1F
100
AcDbEntity
  8
1
100
AcDbEllipse
 10
249.104372
 20
217.711706
 30
0.0
 11
-0.1284709790788165
 21
-3.997936368620007
 31
0.0
210
0.0
220
0.0
230
1.0
 40
0.030789
 41
5.415283613130894
 42
5.978437774288106
  0
ELLIPSE
  5
266
330
1F
100
AcDbEntity
  8
1
100
AcDbEllipse
 10
248.482754
 20
315.424755
 30
0.0
 11
-0.1232181889232855
 21
-3.998101709301361
 31
0.0
210
0.0
220
0.0
230
1.0
 40
0.032103
 41
0.3057369056385979
 42
0.868891066795812
  0
ELLIPSE
  5
267
330
1F
100
AcDbEntity
  8
1
100
AcDbEllipse
 10
253.5999180000001
 20
319.198426
 30
0.0
 11
-0.1232181889232855
 21
-3.998101709301361
 31
0.0
210
0.0
220
0.0
230
1.0
 40
0.032103
 41
5.024022771743025
 42
5.581280047180491
  0
ELLIPSE
  5
268
330
1F
100
AcDbEntity
  8
1
100
AcDbEllipse
 10
252.9783
 20
315.286206
 30
0.0
 11
-0.1232181889232855
 21
-3.998101709301361
 31
0.0
210
0.0
220
0.0
230
1.0
 40
0.032103
 41
0.3057369056385946
 42
0.8688910667958076
  0
ELLIPSE
  5
269
330
1F
100
AcDbEntity
  8
1
100
AcDbEllipse
 10
253.245445
 20
303.601661
 30
0.0
 11
-0.1232181889232855
 21
-3.998101709301361
 31
0.0
210
0.0
220
0.0
230
1.0
 40
0.032103
 41
3.447329559228392
 42
4.010483720385606
  0
ELLIPSE
  5
26A
330
1F
100
AcDbEntity
  8
1
100
AcDbEllipse
 10
253.111873
 20
309.443933
 30
0.0
 11
-0.1201377342002034
 21
-3.898149166568828
 31
0.0
210
0.0
220
0.0
230
0.9999999999999998
 40
0.032103
 41
0.9527741903493055
 42
4.389087398352689
  0
ELLIPSE
  5
26B
330
1F
100
AcDbEntity
  8
1
100
AcDbEllipse
 10
247.654628
 20
244.434018
 30
0.0
 11
-2.518505927490603
 21
-78.29996160737074
 31
0.0
210
0.0
220
0.0
230
1.0
 40
0.030787
 41
1.016598935899313
 42
1.175298717167865
  0
ELLIPSE
  5
26C
330
1F
100
AcDbEntity
  8
1
100
AcDbEllipse
 10
251.658598
 20
244.433572
 30
0.0
 11
-2.518500226265603
 21
-78.29942096429076
 31
0.0
210
0.0
220
0.0
230
1.0
 40
0.030787
 41
1.010045007022593
 42
1.014897636665464
  0
ELLIPSE
  5
26D
330
1F
100
AcDbEntity
  8
1
100
AcDbEllipse
 10
236.531107
 20
244.455172
 30
0.0
 11
-985.9173562318757
 21
-66.17531719117632
 31
0.0
210
0.0
220
0.0
230
1.0
 40
0.0425
 41
1.579961140802915
 42
1.580115665637922
  0
ELLIPSE
  5
26E
330
1F
100
AcDbEntity
  8
1
100
AcDbEllipse
 10
251.233869
 20
244.434018
 30
0.0
 11
-3.193348278992417
 21
78.29997921535443
 31
0.0
210
0.0
220
0.0
230
1.0
 40
0.017865
 41
5.334569985511416
 42
5.339524394978999
  0
ELLIPSE
  5
26F
330
1F
100
AcDbEntity
  8
1
100
AcDbEllipse
 10
262.262372
 20
244.746392
 30
0.0
 11
-982.2924791818758
 21
64.04607410269604
 31
0.0
210
0.0
220
0.0
230
1.0
 40
0.045218
 41
4.727302284928363
 42
4.729449861163543
  0
ELLIPSE
  5
270
330
1F
100
AcDbEntity
  8
1
100
AcDbEllipse
 10
223.869349
 20
243.104003
 30
0.0
 11
-1850.5201533892
 21
-65.07174340043063
 31
0.0
210
0.0
220
0.0
230
1.0
 40
0.024983
 41
4.698253989324504
 42
4.699279910650558
  0
ELLIPSE
  5
271
330
1F
100
AcDbEntity
  8
1
100
AcDbEllipse
 10
247.229908
 20
244.433875
 30
0.0
 11
-3.193352933834244
 21
78.30014467808438
 31
0.0
210
0.0
220
0.0
230
1.0
 40
0.017865
 41
5.328014407135853
 42
5.335670240746155
  0
ELLIPSE
  5
272
330
1F
100
AcDbEntity
  8
1
100
AcDbEllipse
 10
245.956519
 20
247.573718
 30
0.0
 11
0.1243397567576056
 21
-2.997422163274547
 31
0.0
210
0.0
220
0.0
230
1.0
 40
0.01616
 41
1.745531006972315
 42
2.500221065864506
  0
ELLIPSE
  5
273
330
1F
100
AcDbEntity
  8
1
100
AcDbEllipse
 10
245.288579
 20
191.001256
 30
0.0
 11
0.071565568912144
 21
-3.999359744927464
 31
0.0
210
0.0
220
0.0
230
1.0
 40
0.04073
 41
0.6975767510143668
 42
1.260730912171585
  0
ELLIPSE
  5
274
330
1F
100
AcDbEntity
  8
1
100
AcDbEllipse
 10
249.784125
 20
191.081701
 30
0.0
 11
0.071565568912144
 21
-3.999359744927464
 31
0.0
210
0.0
220
0.0
230
1.0
 40
0.04073
 41
0.6975767510143698
 42
1.260730912171583
  0
ELLIPSE
  5
275
330
1F
100
AcDbEntity
  8
1
100
AcDbEllipse
 10
250.405743
 20
178.173489
 30
0.0
 11
0.071565568912144
 21
-3.999359744927464
 31
0.0
210
0.0
220
0.0
230
1.0
 40
0.04073
 41
2.268373077809266
 42
2.831527238966479
  0
ELLIPSE
  5
276
330
1F
100
AcDbEntity
  8
1
100
AcDbEllipse
 10
248.482754
 20
164.315079
 30
0.0
 11
-0.003719804185582
 21
-3.999998270381727
 31
0.0
210
0.0
220
0.0
230
1.0
 40
0.044471
 41
3.058615134858852
 42
3.621769296016063
  0
ELLIPSE
  5
277
330
1F
100
AcDbEntity
  8
1
100
AcDbEllipse
 10
249.104372
 20
172.574102
 30
0.0
 11
-0.003719804185582
 21
-3.999998270381727
 31
0.0
210
0.0
220
0.0
230
1.0
 40
0.044471
 41
4.629411461653752
 42
5.192565622810967
  0
ELLIPSE
  5
278
330
1F
100
AcDbEntity
  8
1
100
AcDbEllipse
 10
245.910196
 20
178.093045
 30
0.0
 11
0.071565568912144
 21
-3.999359744927464
 31
0.0
210
0.0
220
0.0
230
1.0
 40
0.04073
 41
2.268373077809263
 42
2.831527238966478
  0
ELLIPSE
  5
279
330
1F
100
AcDbEntity
  8
1
100
AcDbEllipse
 10
252.9783
 20
164.310899
 30
0.0
 11
-0.003719804185582
 21
-3.999998270381727
 31
0.0
210
0.0
220
0.0
230
1.0
 40
0.044471
 41
3.224578229161764
 42
3.621769296016065
  0
ELLIPSE
  5
27A
330
1F
100
AcDbEntity
  8
1
100
AcDbEllipse
 10
253.5999180000001
 20
172.569921
 30
0.0
 11
-0.003719804185582
 21
-3.999998270381727
 31
0.0
210
0.0
220
0.0
230
1.0
 40
0.044471
 41
4.629411461653752
 42
5.192565622810967
  0
ELLIPSE
  5
27B
330
1F
100
AcDbEntity
  8
1
100
AcDbEllipse
 10
253.5999180000001
 20
316.298116
 30
0.0
 11
0.0037198041855824
 21
-3.999998270381727
 31
0.0
210
0.0
220
0.0
230
1.0
 40
0.044471
 41
4.762298677004775
 42
4.795366499115623
  0
ELLIPSE
  5
27C
330
1F
100
AcDbEntity
  8
1
100
AcDbEllipse
 10
253.5999180000001
 20
316.298116
 30
0.0
 11
0.0037198041855824
 21
-3.999998270381727
 31
0.0
210
0.0
220
0.0
230
1.0
 40
0.044471
 41
4.642690193412365
 42
4.684081977207907
  0
ELLIPSE
  5
27D
330
1F
100
AcDbEntity
  8
1
100
AcDbEllipse
 10
253.5999180000001
 20
316.298116
 30
0.0
 11
0.0037198041855824
 21
-3.999998270381727
 31
0.0
210
0.0
220
0.0
230
1.0
 40
0.044471
 41
4.232212337958412
 42
4.255451219774518
  0
ELLIPSE
  5
27E
330
1F
100
AcDbEntity
  8
1
100
AcDbEllipse
 10
253.245445
 20
302.492385
 30
0.0
 11
0.0037198041855824
 21
-3.999998270381727
 31
0.0
210
0.0
220
0.0
230
1.0
 40
0.044471
 41
2.661416011163515
 42
3.119638353338084
  0
ELLIPSE
  5
27F
330
1F
100
AcDbEntity
  8
1
100
AcDbEllipse
 10
250.405743
 20
326.213985
 30
0.0
 11
0.0646952573743713
 21
-3.999476781239423
 31
0.0
210
0.0
220
0.0
230
1.0
 40
0.041441
 41
5.807152721826236
 42
6.196062771512793
  0
ELLIPSE
  5
280
330
1F
100
AcDbEntity
  8
1
100
AcDbEllipse
 10
245.643051
 20
307.876277
 30
0.0
 11
0.0646952573743713
 21
-3.999476781239423
 31
0.0
210
0.0
220
0.0
230
1.0
 40
0.041441
 41
2.665560068236445
 42
3.22871422939366
  0
ELLIPSE
  5
281
330
1F
100
AcDbEntity
  8
1
100
AcDbEllipse
 10
245.910196
 20
326.141266
 30
0.0
 11
0.0646952573743713
 21
-3.999476781239423
 31
0.0
210
0.0
220
0.0
230
1.0
 40
0.041441
 41
5.807152721826239
 42
6.370306882983454
  0
ELLIPSE
  5
282
330
1F
100
AcDbEntity
  8
1
100
AcDbEllipse
 10
245.288579
 20
323.788794
 30
0.0
 11
0.0646952573743713
 21
-3.999476781239423
 31
0.0
210
0.0
220
0.0
230
1.0
 40
0.041441
 41
1.094763741441552
 42
1.652021016879019
  0
ELLIPSE
  5
283
330
1F
100
AcDbEntity
  8
1
100
AcDbEllipse
 10
245.776624
 20
317.008771
 30
0.0
 11
0.063077875940012
 21
-3.899489861708437
 31
0.0
210
0.0
220
0.0
230
0.9999999999999998
 40
0.041441
 41
2.957196186182584
 42
5.723270058883053
  0
ELLIPSE
  5
284
330
1F
100
AcDbEntity
  8
1
100
AcDbEllipse
 10
245.910196
 20
232.320961
 30
0.0
 11
0.1657863423434741
 21
-3.996562884366061
 31
0.0
210
0.0
220
0.0
230
1.0
 40
0.01616
 41
1.483004401560386
 42
2.046158562717601
  0
ELLIPSE
  5
285
330
1F
100
AcDbEntity
  8
1
100
AcDbEllipse
 10
245.288579
 20
248.223457
 30
0.0
 11
0.1657863423434741
 21
-3.996562884366061
 31
0.0
210
0.0
220
0.0
230
1.0
 40
0.01616
 41
0.0877974097490855
 42
0.4753622359227104
  0
ELLIPSE
  5
286
330
1F
100
AcDbEntity
  8
1
100
AcDbEllipse
 10
249.784125
 20
248.409942
 30
0.0
 11
0.1657863423434741
 21
-3.996562884366061
 31
0.0
210
0.0
220
0.0
230
1.0
 40
0.01616
 41
6.195393381945075
 42
6.758547543102289
  0
ELLIPSE
  5
287
330
1F
100
AcDbEntity
  8
1
100
AcDbEllipse
 10
250.405743
 20
232.507447
 30
0.0
 11
0.1657863423434741
 21
-3.996562884366061
 31
0.0
210
0.0
220
0.0
230
1.0
 40
0.01616
 41
1.483004401560386
 42
2.0461585627176
  0
ELLIPSE
  5
288
330
1F
100
AcDbEntity
  8
1
100
AcDbEllipse
 10
251.233869
 20
244.434018
 30
0.0
 11
-1.26875772600683
 21
78.29998230989855
 31
0.0
210
0.0
220
0.0
230
1.0
 40
0.041471
 41
6.120024734206071
 42
6.124979142136818
  0
ELLIPSE
  5
289
330
1F
100
AcDbEntity
  8
1
100
AcDbEllipse
 10
262.316297
 20
244.637455
 30
0.0
 11
-984.3691699169561
 21
13.65703762944248
 31
0.0
210
0.0
220
0.0
230
1.0
 40
0.078114
 41
4.725467356821346
 42
4.727610411204859
  0
ELLIPSE
  5
28A
330
1F
100
AcDbEntity
  8
1
100
AcDbEllipse
 10
223.881463
 20
242.220677
 30
0.0
 11
-1850.150199970483
 21
-13.75713209806987
 31
0.0
210
0.0
220
0.0
230
1.0
 40
0.042877
 41
4.698817554848393
 42
4.699843681607811
  0
ELLIPSE
  5
28B
330
1F
100
AcDbEntity
  8
1
100
AcDbEllipse
 10
247.229919
 20
244.432566
 30
0.0
 11
-1.2687713067469
 21
78.30143525378426
 31
0.0
210
0.0
220
0.0
230
0.9999999999999998
 40
0.041471
 41
6.113469977628844
 42
6.121125751340624
  0
ELLIPSE
  5
28C
330
1F
100
AcDbEntity
  8
1
100
AcDbEllipse
 10
247.654628
 20
244.434018
 30
0.0
 11
-0.072959773216358
 21
-78.29999993328655
 31
0.0
210
0.0
220
0.0
230
1.0
 40
0.044515
 41
0.2302519813134026
 42
0.3889517625799072
  0
ELLIPSE
  5
28D
330
1F
100
AcDbEntity
  8
1
100
AcDbEllipse
 10
236.563209
 20
244.286083
 30
0.0
 11
-984.7099913761438
 21
-17.03730063844296
 31
0.0
210
0.0
220
0.0
230
1.0
 40
0.077457
 41
1.581455789364022
 42
1.581473898594284
  0
ELLIPSE
  5
28E
330
1F
100
AcDbEntity
  8
1
100
AcDbEllipse
 10
247.654628
 20
244.434018
 30
0.0
 11
-2.415632123098076
 21
-78.29996158130362
 31
0.0
210
0.0
220
0.0
230
1.0
 40
0.032104
 41
3.692816351386266
 42
3.697770748498129
  0
ELLIPSE
  5
28F
330
1F
100
AcDbEntity
  8
1
100
AcDbEllipse
 10
251.658612
 20
244.435992
 30
0.0
 11
-2.415604068487378
 21
-78.29796144666251
 31
0.0
210
0.0
220
0.0
230
0.9999999999999998
 40
0.032104
 41
3.696677866235911
 42
3.704333825687127
  0
ELLIPSE
  5
290
330
1F
100
AcDbEntity
  8
1
100
AcDbEllipse
 10
275.434264
 20
241.309464
 30
0.0
 11
-1866.511669425217
 21
43.07085368273589
 31
0.0
210
0.0
220
0.0
230
1.0
 40
0.037046
 41
4.725592039600996
 42
4.726609172743025
  0
ELLIPSE
  5
291
330
1F
100
AcDbEntity
  8
1
100
AcDbEllipse
 10
236.590741
 20
244.703443
 30
0.0
 11
-983.6677156103815
 21
-42.16779584980105
 31
0.0
210
0.0
220
0.0
230
1.0
 40
0.066741
 41
4.695399060967518
 42
4.697543635779252
  0
ELLIPSE
  5
292
330
1F
100
AcDbEntity
  8
1
100
AcDbEllipse
 10
251.233869
 20
244.434018
 30
0.0
 11
-1.403452020686531
 21
78.29997910409574
 31
0.0
210
0.0
220
0.0
230
1.0
 40
0.040757
 41
2.359252750858871
 42
2.517952532128785
  0
ELLIPSE
  5
293
330
1F
100
AcDbEntity
  8
1
100
AcDbEllipse
 10
262.324591
 20
244.309809
 30
0.0
 11
-984.6995619537448
 21
45.06058839686559
 31
0.0
210
0.0
220
0.0
230
0.9999999999999998
 40
0.064872
 41
1.561745906107753
 42
1.561765923559196
  0
ELLIPSE
  5
294
330
1F
100
AcDbEntity
  8
1
100
AcDbEllipse
 10
247.229901
 20
244.433584
 30
0.0
 11
-1.403454388128319
 21
78.29953494441179
 31
0.0
210
0.0
220
0.0
230
1.0
 40
0.040757
 41
2.523731748893454
 42
2.524507254791875
  0
ELLIPSE
  5
295
330
1F
100
AcDbEntity
  8
1
100
AcDbEllipse
 10
252.931978
 20
274.378777
 30
0.0
 11
-0.1334124146811847
 21
-2.997032053150071
 31
0.0
210
0.0
220
0.0
230
0.9999999999999998
 40
0.000929
 41
1.716193577440598
 42
2.107877704344448
  0
ELLIPSE
  5
296
330
1F
100
AcDbEntity
  8
1
100
AcDbEllipse
 10
252.931978
 20
220.290668
 30
0.0
 11
-0.0963532343091125
 21
-2.998452276465006
 31
0.0
210
0.0
220
0.0
230
1.0
 40
0.030789
 41
3.390424783189023
 42
4.145114842081281
  0
ELLIPSE
  5
297
330
1F
100
AcDbEntity
  8
1
100
AcDbEllipse
 10
250.405743
 20
293.827828
 30
0.0
 11
0.1629465342484829
 21
-3.996679675302538
 31
0.0
210
0.0
220
0.0
230
1.0
 40
0.017877
 41
5.021725559854366
 42
5.584879721011581
  0
ELLIPSE
  5
298
330
1F
100
AcDbEntity
  8
1
100
AcDbEllipse
 10
245.643051
 20
290.319308
 30
0.0
 11
0.1629465342484829
 21
-3.996679675302538
 31
0.0
210
0.0
220
0.0
230
1.0
 40
0.017877
 41
1.880132906264573
 42
2.443287067421783
  0
ELLIPSE
  5
299
330
1F
100
AcDbEntity
  8
1
100
AcDbEllipse
 10
245.910196
 20
293.644542
 30
0.0
 11
0.1629465342484829
 21
-3.996679675302538
 31
0.0
210
0.0
220
0.0
230
1.0
 40
0.017877
 41
5.021725559854362
 42
5.584879721011582
  0
ELLIPSE
  5
29A
330
1F
100
AcDbEntity
  8
1
100
AcDbEllipse
 10
245.288579
 20
303.225856
 30
0.0
 11
0.1629465342484829
 21
-3.996679675302538
 31
0.0
210
0.0
220
0.0
230
1.0
 40
0.017877
 41
0.3093365794696734
 42
0.8724907406268885
  0
ELLIPSE
  5
29B
330
1F
100
AcDbEntity
  8
1
100
AcDbEllipse
 10
245.776624
 20
291.981925
 30
0.0
 11
0.1588728708922709
 21
-3.896762683419975
 31
0.0
210
0.0
220
0.0
230
1.0
 40
0.017877
 41
5.323080489276476
 42
5.346544162373933
  0
ELLIPSE
  5
29C
330
1F
100
AcDbEntity
  8
1
100
AcDbEllipse
 10
245.776624
 20
291.981925
 30
0.0
 11
0.1588728708922709
 21
-3.896762683419975
 31
0.0
210
0.0
220
0.0
230
1.0
 40
0.017877
 41
0.9365334432788731
 42
5.323080489276513
  0
SPLINE
  5
2B8
330
1F
100
AcDbEntity
  8
1
100
AcDbSpline
210
0.0
220
0.0
230
1.0
 70
    12
 71
     2
 72
     6
 73
     3
 74
     0
 42
0.000000001
 43
0.0000000001
 40
0.0
 40
0.0
 40
0.0
 40
1.0
 40
1.0
 40
1.0
 10
253.1442482849924
 20
261.7671538951471
 30
0.0
 41
0.4999997052480852
 10
252.752451593509
 20
261.7838321298247
 30
0.0
 41
0.5000002947519149
 10
252.3606556170689
 20
261.800508708903
 30
0.0
 41
0.4999997052480852
  0
SPLINE
  5
2B9
330
1F
100
AcDbEntity
  8
1
100
AcDbSpline
210
0.0
220
0.0
230
1.0
 70
    12
 71
     2
 72
     6
 73
     3
 74
     0
 42
0.000000001
 43
0.0000000001
 40
0.0
 40
0.0
 40
0.0
 40
1.0
 40
1.0
 40
1.0
 10
252.3606556170687
 20
261.8005087089027
 30
0.0
 41
0.5000018316365469
 10
252.3737274645465
 20
262.092771357584
 30
0.0
 41
0.4999981683634532
 10
252.3867783543367
 20
262.384516501624
 30
0.0
 41
0.5000018316365469
  0
SPLINE
  5
2BA
330
1F
100
AcDbEntity
  8
1
100
AcDbSpline
210
0.0
220
0.0
230
1.0
 70
    12
 71
     2
 72
     6
 73
     3
 74
     0
 42
0.000000001
 43
0.0000000001
 40
0.0
 40
0.0
 40
0.0
 40
1.0
 40
1.0
 40
1.0
 10
252.3867783543367
 20
262.3845165016243
 30
0.0
 41
0.5000000749546104
 10
251.437604856628
 20
262.4241753898137
 30
0.0
 41
0.4999999250453896
 10
250.4884437683615
 20
262.4638245355237
 30
0.0
 41
0.5000000749546104
  0
SPLINE
  5
2BB
330
1F
100
AcDbEntity
  8
1
100
AcDbSpline
210
0.0
220
0.0
230
1.0
 70
    12
 71
     2
 72
     6
 73
     3
 74
     0
 42
0.000000001
 43
0.0000000001
 40
0.0
 40
0.0
 40
0.0
 40
1.0
 40
1.0
 40
1.0
 10
246.5278409529163
 20
231.2607521685169
 30
0.0
 41
0.5000003164781937
 10
246.1360449752213
 20
231.2438934059876
 30
0.0
 41
0.4999996835218063
 10
245.7442482849924
 20
231.2270359020092
 30
0.0
 41
0.5000003164781937
  0
SPLINE
  5
2BC
330
1F
100
AcDbEntity
  8
1
100
AcDbSpline
210
0.0
220
0.0
230
1.0
 70
    24
 71
     3
 72
    34
 73
    30
 74
     0
 42
0.000000001
 43
0.0000000001
 40
0.0
 40
0.0
 40
0.0
 40
0.0
 40
0.1250000000000141
 40
0.1250000000000141
 40
0.1562500000000148
 40
0.1562500000000148
 40
0.1875000000000156
 40
0.1875000000000156
 40
0.2500000000000164
 40
0.3125000000000172
 40
0.3125000000000172
 40
0.3750000000000178
 40
0.3750000000000178
 40
0.5000000000000195
 40
0.5000000000000195
 40
0.5312500000000203
 40
0.5312500000000203
 40
0.5625000000000209
 40
0.6250000000000164
 40
0.6250000000000164
 40
0.7500000000000055
 40
0.7500000000000055
 40
0.8125000000000023
 40
0.8125000000000023
 40
0.8437500000000037
 40
0.8437500000000037
 40
0.8750000000000051
 40
0.8750000000000051
 40
1.0
 40
1.0
 40
1.0
 40
1.0
 10
253.1442482849925
 20
225.57201137864
 30
0.0
 10
253.1442482849925
 20
225.5485382244964
 30
0.0
 10
253.1442482849925
 20
225.5144137090841
 30
0.0
 10
253.1442482849925
 20
225.4585493522986
 30
0.0
 10
253.1442482849925
 20
225.4467137973865
 30
0.0
 10
253.1442482849925
 20
225.4217109386451
 30
0.0
 10
253.1442482849925
 20
225.4085334439558
 30
0.0
 10
253.1442482849925
 20
225.3671202922047
 30
0.0
 10
253.1442482849925
 20
225.3068417172202
 30
0.0
 10
253.1442482849925
 20
225.2365101062373
 30
0.0
 10
253.1442482849925
 20
225.161131747896
 30
0.0
 10
253.1442482849925
 20
225.1208552908286
 30
0.0
 10
253.1442482849925
 20
224.9931643158596
 30
0.0
 10
253.1442482849925
 20
224.8987690109119
 30
0.0
 10
253.1442482849925
 20
224.7691636462751
 30
0.0
 10
253.1442482849925
 20
224.7426277657269
 30
0.0
 10
253.1442482849925
 20
224.6886266346485
 30
0.0
 10
253.1442482849925
 20
224.6061843604573
 30
0.0
 10
253.1442482849925
 20
224.5194795921385
 30
0.0
 10
253.1442482849925
 20
224.3404840553181
 30
0.0
 10
253.1442482849925
 20
224.2137251011527
 30
0.0
 10
253.1442482849925
 20
224.0124687160368
 30
0.0
 10
253.1442482849925
 20
223.9435253990701
 30
0.0
 10
253.1442482849925
 20
223.837281784763
 30
0.0
 10
253.1442482849925
 20
223.8013954872031
 30
0.0
 10
253.1442482849925
 20
223.7286683993212
 30
0.0
 10
253.1442482849925
 20
223.6917835939429
 30
0.0
 10
253.1442482849925
 20
223.5054411472706
 30
0.0
 10
253.1442482849925
 20
223.3517223796205
 30
0.0
 10
253.1442482849925
 20
223.1935311957727
 30
0.0
  0
SPLINE
  5
2BD
330
1F
100
AcDbEntity
  8
1
100
AcDbSpline
210
0.0
220
0.0
230
1.0
 70
    24
 71
     3
 72
    70
 73
    66
 74
     0
 42
0.000000001
 43
0.0000000001
 40
0.0
 40
0.0
 40
0.0
 40
0.0
 40
0.062499999999999
 40
0.062499999999999
 40
0.1249999999999981
 40
0.1249999999999981
 40
0.1328124999999984
 40
0.1328124999999984
 40
0.1406249999999987
 40
0.1406249999999987
 40
0.1562500000000016
 40
0.1562500000000016
 40
0.187500000000006
 40
0.187500000000006
 40
0.2500000000000168
 40
0.2500000000000168
 40
0.2656250000000209
 40
0.2734375000000225
 40
0.2734375000000225
 40
0.2812500000000241
 40
0.2812500000000241
 40
0.3125000000000279
 40
0.3125000000000279
 40
0.3750000000000352
 40
0.3750000000000352
 40
0.4062500000000388
 40
0.4062500000000388
 40
0.4218750000000401
 40
0.4218750000000401
 40
0.4375000000000413
 40
0.4375000000000413
 40
0.5000000000000462
 40
0.5000000000000462
 40
0.5312500000000488
 40
0.5312500000000488
 40
0.5468750000000496
 40
0.5468750000000496
 40
0.5625000000000502
 40
0.5625000000000502
 40
0.6250000000000578
 40
0.6250000000000578
 40
0.6875000000000652
 40
0.6875000000000652
 40
0.6953125000000657
 40
0.6953125000000657
 40
0.7031250000000661
 40
0.7187500000000653
 40
0.7187500000000653
 40
0.7500000000000636
 40
0.7500000000000636
 40
0.8125000000000598
 40
0.8125000000000598
 40
0.8281250000000579
 40
0.8281250000000579
 40
0.8437500000000561
 40
0.8437500000000561
 40
0.8750000000000493
 40
0.8750000000000493
 40
0.8906250000000444
 40
0.8906250000000444
 40
0.9062500000000394
 40
0.9062500000000394
 40
0.9375000000000264
 40
0.9375000000000264
 40
1.0
 40
1.0
 40
1.0
 40
1.0
 10
245.7442482849924
 20
217.3207587315679
 30
0.0
 10
245.7442482849924
 20
217.4449104653966
 30
0.0
 10
245.7442482849924
 20
217.5823306375945
 30
0.0
 10
245.7442482849924
 20
217.8826011360889
 30
0.0
 10
245.7442482849924
 20
218.0454537422269
 30
0.0
 10
245.7442482849924
 20
218.2433669896149
 30
0.0
 10
245.7442482849924
 20
218.2655627609334
 30
0.0
 10
245.7442482849924
 20
218.3103686007356
 30
0.0
 10
245.7442482849924
 20
218.3330031098071
 30
0.0
 10
245.7442482849924
 20
218.4013330250299
 30
0.0
 10
245.7442482849924
 20
218.4474215768535
 30
0.0
 10
245.7442482849924
 20
218.5872665586945
 30
0.0
 10
245.7442482849924
 20
218.6826000007034
 30
0.0
 10
245.7442482849924
 20
218.9747869608119
 30
0.0
 10
245.7442482849924
 20
219.1777917490967
 30
0.0
 10
245.7442482849924
 20
219.4419454516841
 30
0.0
 10
245.7442482849924
 20
219.5219756208928
 30
0.0
 10
245.7442482849924
 20
219.6031986909591
 30
0.0
 10
245.7442482849924
 20
219.6576149550678
 30
0.0
 10
245.7442482849924
 20
219.6849720318583
 30
0.0
 10
245.7442482849924
 20
219.8218444808416
 30
0.0
 10
245.7442482849924
 20
219.9320536180754
 30
0.0
 10
245.7442482849924
 20
220.2647569337401
 30
0.0
 10
245.7442482849924
 20
220.4893153806616
 30
0.0
 10
245.7442482849924
 20
220.830278869797
 30
0.0
 10
245.7442482849924
 20
220.9446239185172
 30
0.0
 10
245.7442482849924
 20
221.1172038002063
 30
0.0
 10
245.7442482849924
 20
221.1750237365876
 30
0.0
 10
245.7442482849924
 20
221.290143650405
 30
0.0
 10
245.7442482849924
 20
221.3475054968129
 30
0.0
 10
245.7442482849924
 20
221.6333392055689
 30
0.0
 10
245.7442482849924
 20
221.85890140602
 30
0.0
 10
245.7442482849924
 20
222.1926658041407
 30
0.0
 10
245.7442482849924
 20
222.3031541368247
 30
0.0
 10
245.7442482849924
 20
222.4677164438491
 30
0.0
 10
245.7442482849924
 20
222.5223753007832
 30
0.0
 10
245.7442482849924
 20
222.6312964083651
 30
0.0
 10
245.7442482849924
 20
222.6856108417088
 30
0.0
 10
245.7442482849924
 20
222.9538685411956
 30
0.0
 10
245.7442482849924
 20
223.1597135782685
 30
0.0
 10
245.7442482849924
 20
223.5544331246317
 30
0.0
 10
245.7442482849924
 20
223.7433082410167
 30
0.0
 10
245.7442482849924
 20
223.9458771865478
 30
0.0
 10
245.7442482849924
 20
223.9682658106233
 30
0.0
 10
245.7442482849924
 20
224.012585490726
 30
0.0
 10
245.7442482849924
 20
224.0784297162812
 30
0.0
 10
245.7442482849924
 20
224.1423854251191
 30
0.0
 10
245.7442482849924
 20
224.2678138637758
 30
0.0
 10
245.7442482849924
 20
224.3481257770197
 30
0.0
 10
245.7442482849924
 20
224.5792846123279
 30
0.0
 10
245.7442482849924
 20
224.7204118070186
 30
0.0
 10
245.7442482849924
 20
224.8802200725057
 30
0.0
 10
245.7442482849924
 20
224.9113471397734
 30
0.0
 10
245.7442482849924
 20
224.9719036869902
 30
0.0
 10
245.7442482849924
 20
225.0012358832673
 30
0.0
 10
245.7442482849924
 20
225.0861876993882
 30
0.0
 10
245.7442482849924
 20
225.1388637761963
 30
0.0
 10
245.7442482849924
 20
225.2119544769719
 30
0.0
 10
245.7442482849924
 20
225.2353297192446
 30
0.0
 10
245.7442482849924
 20
225.280092765079
 30
0.0
 10
245.7442482849924
 20
225.3014896938451
 30
0.0
 10
245.7442482849924
 20
225.3623626576781
 30
0.0
 10
245.7442482849924
 20
225.3986451240155
 30
0.0
 10
245.7442482849924
 20
225.4947892685147
 30
0.0
 10
245.7442482849926
 20
225.5420227525175
 30
0.0
 10
245.7442482849926
 20
225.5720113786399
 30
0.0
  0
SPLINE
  5
2BE
330
1F
100
AcDbEntity
  8
1
100
AcDbSpline
210
0.0
220
0.0
230
1.0
 70
     8
 71
     3
 72
    52
 73
    48
 74
     0
 42
0.000000001
 43
0.0000000001
 40
0.0
 40
0.0
 40
0.0
 40
0.0
 40
0.031250000000003
 40
0.031250000000003
 40
0.062500000000006
 40
0.062500000000006
 40
0.1250000000000133
 40
0.1875000000000206
 40
0.1875000000000206
 40
0.2187500000000243
 40
0.2187500000000243
 40
0.2343750000000254
 40
0.2343750000000254
 40
0.2500000000000265
 40
0.2500000000000265
 40
0.3125000000000303
 40
0.3125000000000303
 40
0.3750000000000339
 40
0.3750000000000339
 40
0.4375000000000376
 40
0.4375000000000376
 40
0.453125000000039
 40
0.453125000000039
 40
0.4687500000000404
 40
0.4687500000000404
 40
0.5000000000000416
 40
0.5000000000000416
 40
0.562500000000044
 40
0.6250000000000464
 40
0.6250000000000464
 40
0.6562500000000478
 40
0.6562500000000478
 40
0.6718750000000464
 40
0.6718750000000464
 40
0.6875000000000452
 40
0.6875000000000452
 40
0.7500000000000382
 40
0.8125000000000312
 40
0.8125000000000312
 40
0.8750000000000241
 40
0.8750000000000241
 40
0.8906250000000211
 40
0.8906250000000211
 40
0.9062500000000181
 40
0.937500000000012
 40
0.937500000000012
 40
1.0
 40
1.0
 40
1.0
 40
1.0
 10
249.0199447934395
 20
223.6194006839304
 30
0.0
 10
249.0166665225237
 20
223.5573069682808
 30
0.0
 10
249.0133925287028
 20
223.4939832740352
 30
0.0
 10
249.0068551245374
 20
223.3648581559527
 30
0.0
 10
249.0036190532251
 20
223.2995969751468
 30
0.0
 10
248.9940066317505
 20
223.1017625250062
 30
0.0
 10
248.9814450411419
 20
222.8325243450621
 30
0.0
 10
248.9693830708394
 20
222.5525893407514
 30
0.0
 10
248.9605256663004
 20
222.3385900481206
 30
0.0
 10
248.9576047675745
 20
222.2665810515033
 30
0.0
 10
248.953271525838
 20
222.1575376040401
 30
0.0
 10
248.9518351335174
 20
222.1210180466893
 30
0.0
 10
248.9489785657288
 20
222.0476317306777
 30
0.0
 10
248.9475566610802
 20
222.0107189246253
 30
0.0
 10
248.9405240930675
 20
221.8262242737391
 30
0.0
 10
248.9351239668518
 20
221.6783589024947
 30
0.0
 10
248.9247612136119
 20
221.3821059945827
 30
0.0
 10
248.91979862459
 20
221.2337184125585
 30
0.0
 10
248.9103099729283
 20
220.9364222441577
 30
0.0
 10
248.9057838831735
 20
220.7875136901434
 30
0.0
 10
248.9004066284551
 20
220.6010433844824
 30
0.0
 10
248.8993452291294
 20
220.5637325524185
 30
0.0
 10
248.8972508626518
 20
220.4890769538324
 30
0.0
 10
248.8962206852992
 20
220.4518307976246
 30
0.0
 10
248.8931880253861
 20
220.3406000055629
 30
0.0
 10
248.8912402268031
 20
220.2670106132476
 30
0.0
 10
248.8856147421203
 20
220.0479052219176
 30
0.0
 10
248.8786941381338
 20
219.7601907531166
 30
0.0
 10
248.8729175674577
 20
219.4812059104266
 30
0.0
 10
248.8690209252553
 20
219.2752925724406
 30
0.0
 10
248.8677948079782
 20
219.2072100197552
 30
0.0
 10
248.8660668879199
 20
219.1059351363194
 30
0.0
 10
248.8655087189564
 20
219.072270952356
 30
0.0
 10
248.8644345251232
 20
219.0055174750332
 30
0.0
 10
248.8639183996854
 20
218.9724258406136
 30
0.0
 10
248.8614414646989
 20
218.8083773491166
 30
0.0
 10
248.8581403798158
 20
218.5548997084777
 30
0.0
 10
248.8561300597003
 20
218.3189698294645
 30
0.0
 10
248.8547678116666
 20
218.0918503973212
 30
0.0
 10
248.8544106615329
 20
217.9826950596585
 30
0.0
 10
248.854383233084
 20
217.8519472577215
 30
0.0
 10
248.8543988033389
 20
217.8261075917284
 30
0.0
 10
248.8544718474991
 20
217.7752242642181
 30
0.0
 10
248.8546442522891
 20
217.7000156264548
 30
0.0
 10
248.8550041120887
 20
217.6281372064846
 30
0.0
 10
248.8559727193239
 20
217.4888019610161
 30
0.0
 10
248.8569496745696
 20
217.4017960095107
 30
0.0
 10
248.8582626011629
 20
217.3207587315679
 30
0.0
  0
SPLINE
  5
2BF
330
1F
100
AcDbEntity
  8
1
100
AcDbSpline
210
0.0
220
0.0
230
1.0
 70
     8
 71
     3
 72
     8
 73
     4
 74
     0
 42
0.000000001
 43
0.0000000001
 40
0.0
 40
0.0
 40
0.0
 40
0.0
 40
1.0
 40
1.0
 40
1.0
 40
1.0
 10
249.0199447934394
 20
223.6194006839305
 30
0.0
 10
249.3152247576111
 20
223.5666450594296
 30
0.0
 10
249.6107834568936
 20
223.5142705956683
 30
0.0
 10
249.9065890674582
 20
223.4622337746473
 30
0.0
  0
SPLINE
  5
2C0
330
1F
100
AcDbEntity
  8
1
100
AcDbSpline
210
0.0
220
0.0
230
1.0
 70
     8
 71
     3
 72
     8
 73
     4
 74
     0
 42
0.000000001
 43
0.0000000001
 40
0.0
 40
0.0
 40
0.0
 40
0.0
 40
1.0
 40
1.0
 40
1.0
 40
1.0
 10
249.9065890674582
 20
223.4622337746473
 30
0.0
 10
250.3018696854878
 20
223.3926977481521
 30
0.0
 10
250.697324651814
 20
223.3227854029462
 30
0.0
 10
251.0929684111357
 20
223.2526300429513
 30
0.0
  0
SPLINE
  5
2C1
330
1F
100
AcDbEntity
  8
1
100
AcDbSpline
210
0.0
220
0.0
230
1.0
 70
     8
 71
     3
 72
     8
 73
     4
 74
     0
 42
0.000000001
 43
0.0000000001
 40
0.0
 40
0.0
 40
0.0
 40
0.0
 40
1.0
 40
1.0
 40
1.0
 40
1.0
 10
251.0929684111357
 20
223.2526300429513
 30
0.0
 10
251.7295193916844
 20
223.2342637431024
 30
0.0
 10
252.3660726026594
 20
223.2158892504143
 30
0.0
 10
253.0026277608921
 20
223.1975001654877
 30
0.0
  0
SPLINE
  5
2C2
330
1F
100
AcDbEntity
  8
1
100
AcDbSpline
210
0.0
220
0.0
230
1.0
 70
     8
 71
     3
 72
     8
 73
     4
 74
     0
 42
0.000000001
 43
0.0000000001
 40
0.0
 40
0.0
 40
0.0
 40
0.0
 40
1.0
 40
1.0
 40
1.0
 40
1.0
 10
253.1442482849925
 20
223.1935311957727
 30
0.0
 10
253.0970414358378
 20
223.1948543108268
 30
0.0
 10
253.049834594427
 20
223.1961772999774
 30
0.0
 10
253.002627760892
 20
223.1975001654877
 30
0.0
  0
SPLINE
  5
2C3
330
1F
100
AcDbEntity
  8
1
100
AcDbSpline
210
0.0
220
0.0
230
1.0
 70
    12
 71
     2
 72
     6
 73
     3
 74
     0
 42
0.000000001
 43
0.0000000001
 40
0.0
 40
0.0
 40
0.0
 40
1.0
 40
1.0
 40
1.0
 10
253.1442482849924
 20
202.6975612806721
 30
0.0
 41
0.5000005178562911
 10
252.7524515949995
 20
202.7120316518289
 30
0.0
 41
0.4999994821437089
 10
252.3606556170689
 20
202.7265060039944
 30
0.0
 41
0.5000005178562911
  0
SPLINE
  5
2C4
330
1F
100
AcDbEntity
  8
1
100
AcDbSpline
210
0.0
220
0.0
230
1.0
 70
    24
 71
     3
 72
    74
 73
    70
 74
     0
 42
0.000000001
 43
0.0000000001
 40
0.0
 40
0.0
 40
0.0
 40
0.0
 40
0.0625000000000169
 40
0.0625000000000169
 40
0.0781250000000198
 40
0.0781250000000198
 40
0.0937500000000228
 40
0.0937500000000228
 40
0.1250000000000258
 40
0.1250000000000258
 40
0.1406250000000261
 40
0.1406250000000261
 40
0.1562500000000263
 40
0.1562500000000263
 40
0.1875000000000245
 40
0.1875000000000245
 40
0.2031250000000225
 40
0.2031250000000225
 40
0.2187500000000205
 40
0.2187500000000205
 40
0.2500000000000182
 40
0.2500000000000182
 40
0.3125000000000123
 40
0.3125000000000123
 40
0.3281250000000109
 40
0.3359375000000106
 40
0.3359375000000106
 40
0.3437500000000103
 40
0.3437500000000103
 40
0.3750000000000092
 40
0.3750000000000092
 40
0.4375000000000065
 40
0.4375000000000065
 40
0.4687500000000053
 40
0.4687500000000053
 40
0.4765625000000053
 40
0.4765625000000053
 40
0.4843750000000053
 40
0.4843750000000053
 40
0.5000000000000043
 40
0.5000000000000043
 40
0.5625000000000011
 40
0.5625000000000011
 40
0.5937499999999991
 40
0.5937499999999991
 40
0.6093749999999986
 40
0.6093749999999986
 40
0.6249999999999982
 40
0.6249999999999982
 40
0.6874999999999984
 40
0.749999999999999
 40
0.749999999999999
 40
0.7578124999999983
 40
0.7578124999999983
 40
0.7656249999999976
 40
0.7812499999999992
 40
0.7812499999999992
 40
0.8125000000000021
 40
0.8125000000000021
 40
0.8750000000000087
 40
0.8750000000000087
 40
0.8906250000000119
 40
0.8906250000000119
 40
0.8984375000000135
 40
0.8984375000000135
 40
0.9062500000000152
 40
0.9375000000000111
 40
0.9375000000000111
 40
1.0
 40
1.0
 40
1.0
 40
1.0
 10
253.1442482849925
 20
253.4711627486659
 30
0.0
 10
253.1442482849925
 20
253.3559434775456
 30
0.0
 10
253.1442482849925
 20
253.2261653409664
 30
0.0
 10
253.1442482849925
 20
253.0457892731729
 30
0.0
 10
253.1442482849925
 20
253.0088002002585
 30
0.0
 10
253.1442482849925
 20
252.9333110638306
 30
0.0
 10
253.1442482849925
 20
252.8947729799465
 30
0.0
 10
253.1442482849925
 20
252.7767883899275
 30
0.0
 10
253.1442482849925
 20
252.6949750345566
 30
0.0
 10
253.1442482849925
 20
252.5674974148247
 30
0.0
 10
253.1442482849925
 20
252.5241634549035
 30
0.0
 10
253.1442482849925
 20
252.4361846604998
 30
0.0
 10
253.1442482849925
 20
252.3915388210438
 30
0.0
 10
253.1442482849925
 20
252.2556433258263
 30
0.0
 10
253.1442482849925
 20
252.162438561265
 30
0.0
 10
253.1442482849925
 20
252.0187130479555
 30
0.0
 10
253.1442482849925
 20
251.9701423314153
 30
0.0
 10
253.1442482849925
 20
251.8717176973686
 30
0.0
 10
253.1442482849925
 20
251.8220872127132
 30
0.0
 10
253.1442482849925
 20
251.6719626948619
 30
0.0
 10
253.1442482849925
 20
251.5702374117477
 30
0.0
 10
253.1442482849925
 20
251.2602369091516
 30
0.0
 10
253.1442482849925
 20
251.0471645058194
 30
0.0
 10
253.1442482849925
 20
250.7727335671922
 30
0.0
 10
253.1442482849925
 20
250.6897942159182
 30
0.0
 10
253.1442482849925
 20
250.6059272246854
 30
0.0
 10
253.1442482849925
 20
250.5498079040225
 30
0.0
 10
253.1442482849925
 20
250.5216134686893
 30
0.0
 10
253.1442482849925
 20
250.3805987817721
 30
0.0
 10
253.1442482849925
 20
250.2675937069373
 30
0.0
 10
253.1442482849925
 20
249.9280148739379
 30
0.0
 10
253.1442482849925
 20
249.7008806569368
 30
0.0
 10
253.1442482849925
 20
249.3590618769965
 30
0.0
 10
253.1442482849925
 20
249.2449352497243
 30
0.0
 10
253.1442482849925
 20
249.1020375018342
 30
0.0
 10
253.1442482849925
 20
249.0734459619011
 30
0.0
 10
253.1442482849925
 20
249.0162386888723
 30
0.0
 10
253.1442482849925
 20
248.9876242372969
 30
0.0
 10
253.1442482849925
 20
248.9021180079328
 30
0.0
 10
253.1442482849925
 20
248.8454381023863
 30
0.0
 10
253.1442482849925
 20
248.5636342616456
 30
0.0
 10
253.1442482849925
 20
248.3432697296359
 30
0.0
 10
253.1442482849925
 20
248.0201950464275
 30
0.0
 10
253.1442482849925
 20
247.9137542654369
 30
0.0
 10
253.1442482849925
 20
247.7560003280171
 30
0.0
 10
253.1442482849925
 20
247.7037339005107
 30
0.0
 10
253.1442482849925
 20
247.5998470244545
 30
0.0
 10
253.1442482849925
 20
247.5481422602516
 30
0.0
 10
253.1442482849925
 20
247.293329583731
 30
0.0
 10
253.1442482849925
 20
246.9065558508012
 30
0.0
 10
253.1442482849925
 20
246.5602303584701
 30
0.0
 10
253.1442482849925
 20
246.377211769776
 30
0.0
 10
253.1442482849925
 20
246.3570198438954
 30
0.0
 10
253.1442482849925
 20
246.3170855584622
 30
0.0
 10
253.1442482849925
 20
246.2578768908416
 30
0.0
 10
253.1442482849925
 20
246.2007270870494
 30
0.0
 10
253.1442482849925
 20
246.0891331653682
 30
0.0
 10
253.1442482849925
 20
246.018340889367
 30
0.0
 10
253.1442482849925
 20
245.8166077648533
 30
0.0
 10
253.1442482849925
 20
245.6962488951757
 30
0.0
 10
253.1442482849925
 20
245.5638355391531
 30
0.0
 10
253.1442482849925
 20
245.5382595423944
 30
0.0
 10
253.1442482849925
 20
245.5012778896826
 30
0.0
 10
253.1442482849925
 20
245.4891758429668
 30
0.0
 10
253.1442482849925
 20
245.4655245736722
 30
0.0
 10
253.1442482849925
 20
245.4077244499721
 30
0.0
 10
253.1442482849925
 20
245.3565068021785
 30
0.0
 10
253.1442482849925
 20
245.2460455426128
 30
0.0
 10
253.1442482849922
 20
245.1889458053368
 30
0.0
 10
253.1442482849922
 20
245.1487984152273
 30
0.0
  0
SPLINE
  5
2C5
330
1F
100
AcDbEntity
  8
1
100
AcDbSpline
210
0.0
220
0.0
230
1.0
 70
     8
 71
     3
 72
    48
 73
    44
 74
     0
 42
0.000000001
 43
0.0000000001
 40
0.0
 40
0.0
 40
0.0
 40
0.0
 40
0.0625000000000113
 40
0.0625000000000113
 40
0.1250000000000226
 40
0.1875000000000339
 40
0.1875000000000339
 40
0.2031250000000367
 40
0.2031250000000367
 40
0.2187500000000395
 40
0.2187500000000395
 40
0.2500000000000401
 40
0.2500000000000401
 40
0.3125000000000462
 40
0.3750000000000523
 40
0.3750000000000523
 40
0.4062500000000553
 40
0.4218750000000568
 40
0.4218750000000568
 40
0.4375000000000583
 40
0.4375000000000583
 40
0.5000000000000569
 40
0.5000000000000569
 40
0.5625000000000555
 40
0.5625000000000555
 40
0.6250000000000539
 40
0.6250000000000539
 40
0.6406250000000529
 40
0.6406250000000529
 40
0.6562500000000517
 40
0.6875000000000476
 40
0.6875000000000476
 40
0.7500000000000392
 40
0.8125000000000307
 40
0.8125000000000307
 40
0.8437500000000262
 40
0.8437500000000262
 40
0.8593750000000236
 40
0.8593750000000236
 40
0.8750000000000211
 40
0.8750000000000211
 40
0.9375000000000104
 40
1.0
 40
1.0
 40
1.0
 40
1.0
 10
250.030233968822
 20
245.1487984152272
 30
0.0
 10
250.031548388558
 20
245.1750592587101
 30
0.0
 10
250.0325213332888
 20
245.2085446651992
 30
0.0
 10
250.0338082841983
 20
245.2894565954361
 30
0.0
 10
250.034436128744
 20
245.3843131933085
 30
0.0
 10
250.0337534076906
 20
245.506897336688
 30
0.0
 10
250.0329072015902
 20
245.5923878738496
 30
0.0
 10
250.0327169350178
 20
245.609930813203
 30
0.0
 10
250.0322938951713
 20
245.6459160032493
 30
0.0
 10
250.0320607727639
 20
245.6643821608166
 30
0.0
 10
250.0313009744487
 20
245.7208509659862
 30
0.0
 10
250.030713382058
 20
245.7599816842477
 30
0.0
 10
250.0287122295415
 20
245.8817403625925
 30
0.0
 10
250.0254095277623
 20
246.0557079133716
 30
0.0
 10
250.0208593877745
 20
246.2525258488898
 30
0.0
 10
250.01697310759
 20
246.4088160111999
 30
0.0
 10
250.0149113327683
 20
246.4891342254138
 30
0.0
 10
250.0126684477596
 20
246.5727699886872
 30
0.0
 10
250.0111324403669
 20
246.629273629741
 30
0.0
 10
250.0103462965764
 20
246.6578160815268
 30
0.0
 10
250.0063334844753
 20
246.8016870331336
 30
0.0
 10
250.0028534718539
 20
246.9207662668668
 30
0.0
 10
249.9953692252284
 20
247.1666637410655
 30
0.0
 10
249.9913649549227
 20
247.2934825174485
 30
0.0
 10
249.9828315581398
 20
247.5548684482426
 30
0.0
 10
249.9783024738132
 20
247.6894349803918
 30
0.0
 10
249.9723028143047
 20
247.8626374815512
 30
0.0
 10
249.971084175266
 20
247.8975778823867
 30
0.0
 10
249.9686239831944
 20
247.9676413251422
 30
0.0
 10
249.9648982791309
 20
248.0730428066062
 30
0.0
 10
249.9610675806076
 20
248.1793523991635
 30
0.0
 10
249.9532684790308
 20
248.3931626091351
 30
0.0
 10
249.9425031244452
 20
248.6814132504365
 30
0.0
 10
249.9310122501365
 20
248.9759390086346
 30
0.0
 10
249.9221167170107
 20
249.1992324013798
 30
0.0
 10
249.9191052248307
 20
249.2740641123372
 30
0.0
 10
249.9145170342668
 20
249.3869253546322
 30
0.0
 10
249.9129784869674
 20
249.4245817002209
 30
0.0
 10
249.9098942112121
 20
249.4996970393985
 30
0.0
 10
249.9083468361872
 20
249.5371965800482
 30
0.0
 10
249.9005840415609
 20
249.724406593636
 30
0.0
 10
249.8879980836976
 20
250.0221058229702
 30
0.0
 10
249.8750882796575
 20
250.3162105697446
 30
0.0
 10
249.8685517765454
 20
250.4623572239258
 30
0.0
  0
SPLINE
  5
2C6
330
1F
100
AcDbEntity
  8
1
100
AcDbSpline
210
0.0
220
0.0
230
1.0
 70
    24
 71
     3
 72
    30
 73
    26
 74
     0
 42
0.000000001
 43
0.0000000001
 40
0.0
 40
0.0
 40
0.0
 40
0.0
 40
0.1249999999999938
 40
0.1249999999999938
 40
0.1874999999999906
 40
0.1874999999999906
 40
0.2187499999999893
 40
0.2187499999999893
 40
0.2499999999999881
 40
0.2499999999999881
 40
0.3749999999999934
 40
0.4999999999999988
 40
0.4999999999999988
 40
0.5625000000000036
 40
0.5625000000000036
 40
0.6250000000000088
 40
0.6250000000000088
 40
0.6875000000000142
 40
0.6875000000000142
 40
0.7187500000000173
 40
0.7187500000000173
 40
0.7500000000000203
 40
0.7500000000000203
 40
0.8750000000000101
 40
1.0
 40
1.0
 40
1.0
 40
1.0
 10
245.7442482849925
 20
249.9722227109886
 30
0.0
 10
245.7442482849925
 20
250.1501573453432
 30
0.0
 10
245.7442482849925
 20
250.3267880298486
 30
0.0
 10
245.7442482849925
 20
250.5897607957095
 30
0.0
 10
245.7442482849925
 20
250.6770886486798
 30
0.0
 10
245.7442482849925
 20
250.8075755084175
 30
0.0
 10
245.7442482849924
 20
250.851044004034
 30
0.0
 10
245.7442482849924
 20
250.9375416958804
 30
0.0
 10
245.7442482849925
 20
250.98048280302
 30
0.0
 10
245.7442482849925
 20
251.1936702943898
 30
0.0
 10
245.7442482849925
 20
251.5250882873624
 30
0.0
 10
245.7442482849925
 20
251.8376466526982
 30
0.0
 10
245.7442482849925
 20
252.0648758328349
 30
0.0
 10
245.7442482849925
 20
252.1394174953305
 30
0.0
 10
245.7442482849925
 20
252.2860381810631
 30
0.0
 10
245.7442482849925
 20
252.3576541832643
 30
0.0
 10
245.7442482849925
 20
252.4972349934471
 30
0.0
 10
245.7442482849925
 20
252.565248386187
 30
0.0
 10
245.7442482849925
 20
252.6646010572766
 30
0.0
 10
245.7442482849924
 20
252.6972737436528
 30
0.0
 10
245.7442482849924
 20
252.7617254111283
 30
0.0
 10
245.7442482849925
 20
252.7935358396051
 30
0.0
 10
245.7442482849925
 20
252.949789522415
 30
0.0
 10
245.7442482849924
 20
253.1823553957922
 30
0.0
 10
245.7442482849926
 20
253.3807282231089
 30
0.0
 10
245.7442482849926
 20
253.4711627486657
 30
0.0
  0
SPLINE
  5
2C7
330
1F
100
AcDbEntity
  8
1
100
AcDbSpline
210
0.0
220
0.0
230
1.0
 70
     8
 71
     3
 72
     8
 73
     4
 74
     0
 42
0.000000001
 43
0.0000000001
 40
0.0
 40
0.0
 40
0.0
 40
0.0
 40
1.0
 40
1.0
 40
1.0
 40
1.0
 10
245.8858688090929
 20
249.9766818156289
 30
0.0
 10
245.8386619755579
 20
249.9751952662245
 30
0.0
 10
245.7914551341471
 20
249.9737088989651
 30
0.0
 10
245.7442482849925
 20
249.9722227109886
 30
0.0
  0
SPLINE
  5
2C8
330
1F
100
AcDbEntity
  8
1
100
AcDbSpline
210
0.0
220
0.0
230
1.0
 70
     8
 71
     3
 72
     8
 73
     4
 74
     0
 42
0.000000001
 43
0.0000000001
 40
0.0
 40
0.0
 40
0.0
 40
0.0
 40
1.0
 40
1.0
 40
1.0
 40
1.0
 10
245.8858688090928
 20
249.9766818156291
 30
0.0
 10
246.5224239673255
 20
249.9973462618877
 30
0.0
 10
247.1589771783005
 20
250.0180563346352
 30
0.0
 10
247.7955281588493
 20
250.0388204024145
 30
0.0
  0
SPLINE
  5
2C9
330
1F
100
AcDbEntity
  8
1
100
AcDbSpline
210
0.0
220
0.0
230
1.0
 70
     8
 71
     3
 72
     8
 73
     4
 74
     0
 42
0.000000001
 43
0.0000000001
 40
0.0
 40
0.0
 40
0.0
 40
0.0
 40
1.0
 40
1.0
 40
1.0
 40
1.0
 10
247.7955281588493
 20
250.0388204024145
 30
0.0
 10
248.1911719181708
 20
250.11813472604
 30
0.0
 10
248.5866268844969
 20
250.1980973582277
 30
0.0
 10
248.9819075025263
 20
250.2786194464478
 30
0.0
  0
SPLINE
  5
2CA
330
1F
100
AcDbEntity
  8
1
100
AcDbSpline
210
0.0
220
0.0
230
1.0
 70
     8
 71
     3
 72
     8
 73
     4
 74
     0
 42
0.000000001
 43
0.0000000001
 40
0.0
 40
0.0
 40
0.0
 40
0.0
 40
1.0
 40
1.0
 40
1.0
 40
1.0
 10
248.9819075025263
 20
250.2786194464478
 30
0.0
 10
249.2777131130911
 20
250.3388776133886
 30
0.0
 10
249.5732718123734
 20
250.4000828506421
 30
0.0
 10
249.8685517765452
 20
250.4623572239263
 30
0.0
  0
SPLINE
  5
2CB
330
1F
100
AcDbEntity
  8
1
100
AcDbSpline
210
0.0
220
0.0
230
1.0
 70
     8
 71
     3
 72
    18
 73
    14
 74
     0
 42
0.000000001
 43
0.0000000001
 40
0.0
 40
0.0
 40
0.0
 40
0.0
 40
0.1059952682404712
 40
0.3294964511803399
 40
0.3294964511803399
 40
0.3853717469153067
 40
0.3853717469153067
 40
0.4412470426502738
 40
0.4412470426502738
 40
0.5529976341202189
 40
0.5529976341202189
 40
0.7764988170601095
 40
1.0
 40
1.0
 40
1.0
 40
1.0
 10
248.9574283458739
 20
274.9719153749589
 30
0.0
 10
248.9596342420585
 20
275.0216039289767
 30
0.0
 10
248.9664644656488
 20
275.1755336078755
 30
0.0
 10
248.9732104103296
 20
275.3278038156053
 30
0.0
 10
248.9788813121163
 20
275.4559489943515
 30
0.0
 10
248.9800130397597
 20
275.4815297355964
 30
0.0
 10
248.982271549382
 20
275.5325938368147
 30
0.0
 10
248.9833996130899
 20
275.5581061960735
 30
0.0
 10
248.9867662913505
 20
275.6342690534846
 30
0.0
 10
248.9889844242811
 20
275.6844780720232
 30
0.0
 10
248.995561055918
 20
275.8334320819058
 30
0.0
 10
249.0041229872797
 20
276.0275860470027
 30
0.0
 10
249.0122718280158
 20
276.2128529760163
 30
0.0
 10
249.0162391309545
 20
276.3031819668782
 30
0.0
  0
SPLINE
  5
2CC
330
1F
100
AcDbEntity
  8
1
100
AcDbSpline
210
0.0
220
0.0
230
1.0
 70
     8
 71
     3
 72
    15
 73
    11
 74
     0
 42
0.000000001
 43
0.0000000001
 40
0.0
 40
0.0
 40
0.0
 40
0.0
 40
0.146541651954312
 40
0.146541651954312
 40
0.2930833039086239
 40
0.2930833039086239
 40
0.586166607817257
 40
0.87924991172589
 40
0.87924991172589
 40
1.0
 40
1.0
 40
1.0
 40
1.0
 10
249.0199447934395
 20
276.3875538330816
 30
0.0
 10
249.0166665225237
 20
276.3142117144617
 30
0.0
 10
249.0133925287028
 20
276.2410048422713
 30
0.0
 10
249.0068551245374
 20
276.0949086864294
 30
0.0
 10
249.0036190532251
 20
276.0226303606112
 30
0.0
 10
248.9940066317505
 20
275.8080551045283
 30
0.0
 10
248.9814450411419
 20
275.527969476685
 30
0.0
 10
248.9693830708394
 20
275.2596697728786
 30
0.0
 10
248.9610453053932
 20
275.0744488131549
 30
0.0
 10
248.9586339111249
 20
275.0209098866211
 30
0.0
 10
248.9562442331833
 20
274.9678832430591
 30
0.0
  0
SPLINE
  5
2CD
330
1F
100
AcDbEntity
  8
1
100
AcDbSpline
210
0.0
220
0.0
230
1.0
 70
     8
 71
     3
 72
    27
 73
    23
 74
     0
 42
0.000000001
 43
0.0000000001
 40
0.0
 40
0.0
 40
0.0
 40
0.0
 40
0.125000000000015
 40
0.125000000000015
 40
0.1875000000000321
 40
0.1875000000000321
 40
0.2187500000000397
 40
0.2187500000000397
 40
0.2500000000000474
 40
0.2500000000000474
 40
0.3750000000000464
 40
0.3750000000000464
 40
0.5000000000000454
 40
0.5000000000000454
 40
0.6250000000000445
 40
0.6250000000000445
 40
0.6875000000000372
 40
0.6875000000000372
 40
0.7500000000000297
 40
0.7500000000000297
 40
0.8750000000000147
 40
1.0
 40
1.0
 40
1.0
 40
1.0
 10
251.0929684111358
 20
223.2526300429513
 30
0.0
 10
251.0899679156066
 20
223.22879584346
 30
0.0
 10
251.0866572241663
 20
223.2008357018846
 30
0.0
 10
251.0817574511925
 20
223.1527244384093
 30
0.0
 10
251.080130601544
 20
223.1356573244443
 30
0.0
 10
251.077724479406
 20
223.1085000386883
 30
0.0
 10
251.0769278384792
 20
223.0991880774272
 30
0.0
 10
251.0753458920967
 20
223.0800419706461
 30
0.0
 10
251.0745602229472
 20
223.0702023948667
 30
0.0
 10
251.0706719396611
 20
223.019908882806
 30
0.0
 10
251.0676984942365
 20
222.9760246672173
 30
0.0
 10
251.0615283787215
 20
222.8811909168148
 30
0.0
 10
251.058288222216
 20
222.8302421696887
 30
0.0
 10
251.0507406744092
 20
222.7213337881538
 30
0.0
 10
251.0465895707208
 20
222.6633696704907
 30
0.0
 10
251.0404050193753
 20
222.5710261794611
 30
0.0
 10
251.0383457511378
 20
222.5393330431811
 30
0.0
 10
251.0342860154057
 20
222.4741513115959
 30
0.0
 10
251.0322979135732
 20
222.4408603309083
 30
0.0
 10
251.0264739590276
 20
222.3389137610835
 30
0.0
 10
251.0191190534095
 20
222.1974629353463
 30
0.0
 10
251.0118514702655
 20
222.0450607714434
 30
0.0
 10
251.0077616471201
 20
221.9660812472716
 30
0.0
  0
SPLINE
  5
2CE
330
1F
100
AcDbEntity
  8
1
100
AcDbSpline
210
0.0
220
0.0
230
1.0
 70
    12
 71
     2
 72
     6
 73
     3
 74
     0
 42
0.000000001
 43
0.0000000001
 40
0.0
 40
0.0
 40
0.0
 40
1.0
 40
1.0
 40
1.0
 10
246.5278409529163
 20
289.6963745354615
 30
0.0
 41
0.5000005125992562
 10
246.1360449759665
 20
289.6824189977531
 30
0.0
 41
0.4999994874007438
 10
245.7442482849924
 20
289.6684591424895
 30
0.0
 41
0.5000005125992562
  0
SPLINE
  5
2CF
330
1F
100
AcDbEntity
  8
1
100
AcDbSpline
210
0.0
220
0.0
230
1.0
 70
    24
 71
     3
 72
    34
 73
    30
 74
     0
 42
0.000000001
 43
0.0000000001
 40
0.0
 40
0.0
 40
0.0
 40
0.0
 40
0.1250000000000032
 40
0.1250000000000032
 40
0.156250000000004
 40
0.156250000000004
 40
0.1875000000000048
 40
0.1875000000000048
 40
0.2500000000000021
 40
0.3124999999999994
 40
0.3124999999999994
 40
0.3749999999999967
 40
0.3749999999999967
 40
0.4999999999999975
 40
0.4999999999999975
 40
0.5312499999999976
 40
0.5312499999999976
 40
0.5624999999999977
 40
0.6249999999999982
 40
0.6249999999999982
 40
0.7499999999999939
 40
0.7499999999999939
 40
0.8124999999999943
 40
0.8124999999999943
 40
0.8437499999999948
 40
0.8437499999999948
 40
0.8749999999999952
 40
0.8749999999999952
 40
1.0
 40
1.0
 40
1.0
 40
1.0
 10
253.1442482849925
 20
279.9944908216012
 30
0.0
 10
253.1442482849925
 20
279.8511587386839
 30
0.0
 10
253.1442482849925
 20
279.7019264875117
 30
0.0
 10
253.1442482849925
 20
279.5080693973777
 30
0.0
 10
253.1442482849925
 20
279.4689308953344
 30
0.0
 10
253.1442482849925
 20
279.3899161881051
 30
0.0
 10
253.1442482849925
 20
279.3500121310605
 30
0.0
 10
253.1442482849925
 20
279.2295584118358
 30
0.0
 10
253.1442482849925
 20
279.0668023022461
 30
0.0
 10
253.1442482849925
 20
278.8997732154984
 30
0.0
 10
253.1442482849925
 20
278.7305990528149
 30
0.0
 10
253.1442482849925
 20
278.6448190076833
 30
0.0
 10
253.1442482849925
 20
278.3858246120896
 30
0.0
 10
253.1442482849925
 20
278.2105886490061
 30
0.0
 10
253.1442482849925
 20
277.988320117149
 30
0.0
 10
253.1442482849925
 20
277.9436524749992
 30
0.0
 10
253.1442482849925
 20
277.8543906314812
 30
0.0
 10
253.1442482849925
 20
277.720523135291
 30
0.0
 10
253.1442482849925
 20
277.5867304072602
 30
0.0
 10
253.1442482849925
 20
277.3192429348996
 30
0.0
 10
253.1442482849925
 20
277.1410482578973
 30
0.0
 10
253.1442482849925
 20
276.87395126177
 30
0.0
 10
253.1442482849925
 20
276.7849515182577
 30
0.0
 10
253.1442482849925
 20
276.6515015199773
 30
0.0
 10
253.1442482849925
 20
276.6070264623222
 30
0.0
 10
253.1442482849925
 20
276.5180930897133
 30
0.0
 10
253.1442482849925
 20
276.4735824804127
 30
0.0
 10
253.1442482849925
 20
276.2516688448716
 30
0.0
 10
253.1442482849925
 20
276.0779064949486
 30
0.0
 10
253.1442482849925
 20
275.9077728318798
 30
0.0
  0
SPLINE
  5
2D0
330
1F
100
AcDbEntity
  8
1
100
AcDbSpline
210
0.0
220
0.0
230
1.0
 70
    24
 71
     3
 72
    45
 73
    41
 74
     0
 42
0.000000001
 43
0.0000000001
 40
0.0
 40
0.0
 40
0.0
 40
0.0
 40
0.0040645445204553
 40
0.0040645445204553
 40
0.0309817189928778
 40
0.0309817189928778
 40
0.1386504168825634
 40
0.1386504168825634
 40
0.1924847658274049
 40
0.1924847658274049
 40
0.2194019402998263
 40
0.2194019402998263
 40
0.2463191147722477
 40
0.2463191147722477
 40
0.3539878126619336
 40
0.3539878126619336
 40
0.4616565105516194
 40
0.4616565105516194
 40
0.4751150977878302
 40
0.4751150977878302
 40
0.4885736850240411
 40
0.51549085949646
 40
0.51549085949646
 40
0.5693252084412971
 40
0.5693252084412971
 40
0.6769939063309716
 40
0.6769939063309716
 40
0.7039110808033902
 40
0.7039110808033902
 40
0.7308282552758089
 40
0.7308282552758089
 40
0.7846626042206469
 40
0.7846626042206469
 40
0.8115797786930643
 40
0.8115797786930643
 40
0.8384969531654817
 40
0.8384969531654817
 40
0.8923313021103197
 40
0.8923313021103197
 40
1.0
 40
1.0
 40
1.0
 40
1.0
 10
245.7442482849925
 20
274.1438578217754
 30
0.0
 10
245.7442482849925
 20
274.1501333208362
 30
0.0
 10
245.7442482849925
 20
274.156423812005
 30
0.0
 10
245.7442482849925
 20
274.2044766557064
 30
0.0
 10
245.7442482849925
 20
274.2468635503666
 30
0.0
 10
245.7442482849925
 20
274.4619405362555
 30
0.0
 10
245.7442482849925
 20
274.6440036986256
 30
0.0
 10
245.7442482849925
 20
274.9318487399554
 30
0.0
 10
245.7442482849925
 20
275.03026615291
 30
0.0
 10
245.7442482849925
 20
275.1816618831309
 30
0.0
 10
245.7442482849925
 20
275.2327560824641
 30
0.0
 10
245.7442482849925
 20
275.3362220931238
 30
0.0
 10
245.7442482849925
 20
275.3886487840341
 30
0.0
 10
245.7442482849925
 20
275.6517455377424
 30
0.0
 10
245.7442482849925
 20
275.8669548226029
 30
0.0
 10
245.7442482849925
 20
276.3065391736487
 30
0.0
 10
245.7442482849925
 20
276.5309139119421
 30
0.0
 10
245.7442482849925
 20
276.7886908862685
 30
0.0
 10
245.7442482849925
 20
276.8174332312218
 30
0.0
 10
245.7442482849925
 20
276.8748372699665
 30
0.0
 10
245.7442482849924
 20
276.960886114178
 30
0.0
 10
245.7442482849925
 20
277.0467648807331
 30
0.0
 10
245.7442482849925
 20
277.2182987995913
 30
0.0
 10
245.7442482849925
 20
277.3323569167271
 30
0.0
 10
245.7442482849925
 20
277.6736507712993
 30
0.0
 10
245.7442482849925
 20
277.9000111611999
 30
0.0
 10
245.7442482849925
 20
278.1814666060013
 30
0.0
 10
245.7442482849925
 20
278.2376825331158
 30
0.0
 10
245.7442482849925
 20
278.3499615045717
 30
0.0
 10
245.7442482849925
 20
278.4058467378736
 30
0.0
 10
245.7442482849925
 20
278.5723226250099
 30
0.0
 10
245.7442482849925
 20
278.6819141003509
 30
0.0
 10
245.7442482849925
 20
278.8442176647152
 30
0.0
 10
245.7442482849925
 20
278.897971195021
 30
0.0
 10
245.7442482849925
 20
279.0047791446676
 30
0.0
 10
245.7442482849925
 20
279.0578632816457
 30
0.0
 10
245.7442482849925
 20
279.2152261010951
 30
0.0
 10
245.7442482849925
 20
279.3178914267859
 30
0.0
 10
245.7442482849925
 20
279.6192596241114
 30
0.0
 10
245.7442482849926
 20
279.8113738778925
 30
0.0
 10
245.7442482849926
 20
279.9944908216008
 30
0.0
  0
SPLINE
  5
2D1
330
1F
100
AcDbEntity
  8
1
100
AcDbSpline
210
0.0
220
0.0
230
1.0
 70
     8
 71
     3
 72
     8
 73
     4
 74
     0
 42
0.000000001
 43
0.0000000001
 40
0.0
 40
0.0
 40
0.0
 40
0.0
 40
1.0
 40
1.0
 40
1.0
 40
1.0
 10
249.0199447934394
 20
276.3875538330811
 30
0.0
 10
249.3152247576112
 20
276.3252414198276
 30
0.0
 10
249.6107834568938
 20
276.2645233516287
 30
0.0
 10
249.9065890674584
 20
276.2052175984431
 30
0.0
  0
SPLINE
  5
2D2
330
1F
100
AcDbEntity
  8
1
100
AcDbSpline
210
0.0
220
0.0
230
1.0
 70
     8
 71
     3
 72
     8
 73
     4
 74
     0
 42
0.000000001
 43
0.0000000001
 40
0.0
 40
0.0
 40
0.0
 40
0.0
 40
1.0
 40
1.0
 40
1.0
 40
1.0
 10
249.9065890674584
 20
276.2052175984431
 30
0.0
 10
250.3018696854879
 20
276.1259682064951
 30
0.0
 10
250.6973246518141
 20
276.048128873213
 30
0.0
 10
251.0929684111357
 20
275.9717304727428
 30
0.0
  0
SPLINE
  5
2D3
330
1F
100
AcDbEntity
  8
1
100
AcDbSpline
210
0.0
220
0.0
230
1.0
 70
     8
 71
     3
 72
     8
 73
     4
 74
     0
 42
0.000000001
 43
0.0000000001
 40
0.0
 40
0.0
 40
0.0
 40
0.0
 40
1.0
 40
1.0
 40
1.0
 40
1.0
 10
251.0929684111357
 20
275.9717304727428
 30
0.0
 10
251.7295193916844
 20
275.9517297781258
 30
0.0
 10
252.3660726026594
 20
275.931837046157
 30
0.0
 10
253.0026277608921
 20
275.9120432131857
 30
0.0
  0
SPLINE
  5
2D4
330
1F
100
AcDbEntity
  8
1
100
AcDbSpline
210
0.0
220
0.0
230
1.0
 70
     8
 71
     3
 72
     8
 73
     4
 74
     0
 42
0.000000001
 43
0.0000000001
 40
0.0
 40
0.0
 40
0.0
 40
0.0
 40
1.0
 40
1.0
 40
1.0
 40
1.0
 10
253.1442482849925
 20
275.9077728318798
 30
0.0
 10
253.0970414358378
 20
275.9091958341314
 30
0.0
 10
253.049834594427
 20
275.9106192935585
 30
0.0
 10
253.002627760892
 20
275.9120432131857
 30
0.0
  0
SPLINE
  5
2D5
330
1F
100
AcDbEntity
  8
1
100
AcDbSpline
210
0.0
220
0.0
230
1.0
 70
     8
 71
     3
 72
    27
 73
    23
 74
     0
 42
0.000000001
 43
0.0000000001
 40
0.0
 40
0.0
 40
0.0
 40
0.0
 40
0.1249999999999892
 40
0.1249999999999892
 40
0.1874999999999774
 40
0.1874999999999774
 40
0.2187499999999715
 40
0.2187499999999715
 40
0.2499999999999656
 40
0.2499999999999656
 40
0.3749999999999667
 40
0.3749999999999667
 40
0.4999999999999679
 40
0.4999999999999679
 40
0.624999999999969
 40
0.624999999999969
 40
0.6874999999999741
 40
0.6874999999999741
 40
0.7499999999999793
 40
0.7499999999999793
 40
0.8749999999999895
 40
1.0
 40
1.0
 40
1.0
 40
1.0
 10
247.7955281588492
 20
250.0388204024145
 30
0.0
 10
247.7985286543784
 20
249.9822487424725
 30
0.0
 10
247.8018393458186
 20
249.9224007938282
 30
0.0
 10
247.8067391187924
 20
249.827721424549
 30
0.0
 10
247.808365968441
 20
249.7953425833514
 30
0.0
 10
247.8107720905789
 20
249.7455362076427
 30
0.0
 10
247.8115687315057
 20
249.728727657031
 30
0.0
 10
247.8131506778882
 20
249.6946952179676
 30
0.0
 10
247.8139363470376
 20
249.6774624869519
 30
0.0
 10
247.8178246303237
 20
249.5906266689244
 30
0.0
 10
247.8207980757483
 20
249.5187391725193
 30
0.0
 10
247.8269681912634
 20
249.3702899640116
 30
0.0
 10
247.8302083477689
 20
249.2937295481908
 30
0.0
 10
247.8377558955757
 20
249.1359855784752
 30
0.0
 10
247.8419069992638
 20
249.0547962717414
 30
0.0
 10
247.8480915506093
 20
248.92943781268
 30
0.0
 10
247.8501508188472
 20
248.887040473303
 30
0.0
 10
247.8542105545794
 20
248.8010857008353
 30
0.0
 10
247.8561986564117
 20
248.7577884643466
 30
0.0
 10
247.8620226109575
 20
248.6269489976025
 30
0.0
 10
247.8693775165752
 20
248.4499715931245
 30
0.0
 10
247.8766450997194
 20
248.2680050429806
 30
0.0
 10
247.8807349228647
 20
248.1757678236908
 30
0.0
  0
SPLINE
  5
2D6
330
1F
100
AcDbEntity
  8
1
100
AcDbSpline
210
0.0
220
0.0
230
1.0
 70
    12
 71
     2
 72
     6
 73
     3
 74
     0
 42
0.000000001
 43
0.0000000001
 40
0.0
 40
0.0
 40
0.0
 40
1.0
 40
1.0
 40
1.0
 10
246.5278409529163
 20
321.6179225742886
 30
0.0
 41
0.5000001043986944
 10
246.1360449737308
 20
321.615045226072
 30
0.0
 41
0.4999998956013056
 10
245.7442482849924
 20
321.6121605134564
 30
0.0
 41
0.5000001043986944
  0
SPLINE
  5
2D7
330
1F
100
AcDbEntity
  8
1
100
AcDbSpline
210
0.0
220
0.0
230
1.0
 70
    12
 71
     2
 72
     6
 73
     3
 74
     0
 42
0.000000001
 43
0.0000000001
 40
0.0
 40
0.0
 40
0.0
 40
1.0
 40
1.0
 40
1.0
 10
253.1442482849924
 20
168.0766192323711
 30
0.0
 41
0.4999997039999269
 10
253.0331613919515
 20
168.077692673273
 30
0.0
 41
0.4999998718507605
 10
252.9220746631474
 20
168.0787666988215
 30
0.0
 41
0.4999999445195151
  0
SPLINE
  5
2D8
330
1F
100
AcDbEntity
  8
1
100
AcDbSpline
210
0.0
220
0.0
230
1.0
 70
    24
 71
     3
 72
     8
 73
     4
 74
     0
 42
0.000000001
 43
0.0000000001
 40
0.0
 40
0.0
 40
0.0
 40
0.0
 40
1.0
 40
1.0
 40
1.0
 40
1.0
 10
245.7442482849924
 20
177.6560779586935
 30
0.0
 10
245.7442482849924
 20
177.7156591378534
 30
0.0
 10
245.7442482849924
 20
177.7753016966657
 30
0.0
 10
245.7442482849925
 20
177.8350049586935
 30
0.0
  0
SPLINE
  5
2D9
330
1F
100
AcDbEntity
  8
1
100
AcDbSpline
210
0.0
220
0.0
230
1.0
 70
     8
 71
     3
 72
     8
 73
     4
 74
     0
 42
0.000000001
 43
0.0000000001
 40
0.0
 40
0.0
 40
0.0
 40
0.0
 40
1.0
 40
1.0
 40
1.0
 40
1.0
 10
248.856690025306
 20
177.8558697335469
 30
0.0
 10
248.8571460955341
 20
177.7890874269506
 30
0.0
 10
248.8576701418681
 20
177.7224897731035
 30
0.0
 10
248.8582626011629
 20
177.6560779586935
 30
0.0
  0
SPLINE
  5
2DA
330
1F
100
AcDbEntity
  8
1
100
AcDbSpline
210
0.0
220
0.0
230
1.0
 70
    12
 71
     2
 72
     6
 73
     3
 74
     0
 42
0.000000001
 43
0.0000000001
 40
0.0
 40
0.0
 40
0.0
 40
1.0
 40
1.0
 40
1.0
 10
253.1442482849924
 20
310.6832308460904
 30
0.0
 41
0.5000001126954759
 10
252.7524515949996
 20
310.6923470605214
 30
0.0
 41
0.4999998873045242
 10
252.3606556170689
 20
310.701456952752
 30
0.0
 41
0.5000001126954759
  0
SPLINE
  5
2DB
330
1F
100
AcDbEntity
  8
1
100
AcDbSpline
210
0.0
220
0.0
230
1.0
 70
    24
 71
     3
 72
    16
 73
    12
 74
     0
 42
0.000000001
 43
0.0000000001
 40
0.0
 40
0.0
 40
0.0
 40
0.0
 40
0.4583475941916343
 40
0.4583475941916343
 40
0.5729344927395463
 40
0.5729344927395463
 40
0.6875213912874584
 40
0.6875213912874584
 40
0.9166951883832819
 40
0.9166951883832819
 40
1.0
 40
1.0
 40
1.0
 40
1.0
 10
253.1442482849925
 20
301.1040593329088
 30
0.0
 10
253.1442482849925
 20
300.8812530470221
 30
0.0
 10
253.1442482849925
 20
300.6552864115295
 30
0.0
 10
253.1442482849925
 20
300.3688874885867
 30
0.0
 10
253.1442482849925
 20
300.3114112752525
 30
0.0
 10
253.1442482849925
 20
300.1965521764706
 30
0.0
 10
253.1442482849925
 20
300.1391080696803
 30
0.0
 10
253.1442482849925
 20
299.9667322643942
 30
0.0
 10
253.1442482849925
 20
299.8517571449925
 30
0.0
 10
253.1442482849925
 20
299.6949091636695
 30
0.0
 10
253.1442482849925
 20
299.653054353069
 30
0.0
 10
253.1442482849925
 20
299.6112553329069
 30
0.0
  0
SPLINE
  5
2DC
330
1F
100
AcDbEntity
  8
1
100
AcDbSpline
210
0.0
220
0.0
230
1.0
 70
    24
 71
     3
 72
     8
 73
     4
 74
     0
 42
0.000000001
 43
0.0000000001
 40
0.0
 40
0.0
 40
0.0
 40
0.0
 40
1.0
 40
1.0
 40
1.0
 40
1.0
 10
245.7442482849926
 20
300.7677263329331
 30
0.0
 10
245.7442482849926
 20
300.8804383145237
 30
0.0
 10
245.7442482849926
 20
300.9925523127529
 30
0.0
 10
245.7442482849926
 20
301.1040593329085
 30
0.0
  0
SPLINE
  5
2DD
330
1F
100
AcDbEntity
  8
1
100
AcDbSpline
210
0.0
220
0.0
230
1.0
 70
    12
 71
     2
 72
     6
 73
     3
 74
     0
 42
0.000000001
 43
0.0000000001
 40
0.0
 40
0.0
 40
0.0
 40
1.0
 40
1.0
 40
1.0
 10
246.5278409529162
 20
180.5418505302986
 30
0.0
 41
0.5000001084636433
 10
246.1360449759665
 20
180.5319641774385
 30
0.0
 41
0.4999998915363568
 10
245.7442482849923
 20
180.5220839219028
 30
0.0
 41
0.5000001084636433
  0
SPLINE
  5
2DE
330
1F
100
AcDbEntity
  8
1
100
AcDbSpline
210
0.0
220
0.0
230
1.0
 70
    24
 71
     3
 72
    35
 73
    31
 74
     0
 42
0.000000001
 43
0.0000000001
 40
0.0
 40
0.0
 40
0.0
 40
0.0
 40
0.1061738281410668
 40
0.1061738281410668
 40
0.1700185547024241
 40
0.1700185547024241
 40
0.2019409179831018
 40
0.2019409179831018
 40
0.2338632812637791
 40
0.2338632812637791
 40
0.3615527343864836
 40
0.4892421875091879
 40
0.4892421875091879
 40
0.5052033691495268
 40
0.5052033691495268
 40
0.521164550789866
 40
0.5530869140705398
 40
0.5530869140705398
 40
0.6169316406318841
 40
0.6169316406318841
 40
0.7446210937545722
 40
0.7446210937545722
 40
0.7765434570352445
 40
0.7765434570352445
 40
0.7925046386755831
 40
0.7925046386755831
 40
0.8084658203159214
 40
0.8723105468772796
 40
0.8723105468772796
 40
1.0
 40
1.0
 40
1.0
 40
1.0
 10
253.1442482849925
 20
198.67888905813
 30
0.0
 10
253.1442482849925
 20
198.5203491231155
 30
0.0
 10
253.1442482849925
 20
198.3561122555859
 30
0.0
 10
253.1442482849925
 20
198.0841389609262
 30
0.0
 10
253.1442482849925
 20
197.9799726579289
 30
0.0
 10
253.1442482849925
 20
197.8206187646918
 30
0.0
 10
253.1442482849925
 20
197.7669828307041
 30
0.0
 10
253.1442482849925
 20
197.6586594913155
 30
0.0
 10
253.1442482849925
 20
197.6038785117433
 30
0.0
 10
253.1442482849925
 20
197.3295441255617
 30
0.0
 10
253.1442482849925
 20
196.8851595800572
 30
0.0
 10
253.1442482849925
 20
196.430241821514
 30
0.0
 10
253.1442482849925
 20
196.1712804531733
 30
0.0
 10
253.1442482849925
 20
196.1424332903028
 30
0.0
 10
253.1442482849925
 20
196.0848217595534
 30
0.0
 10
253.1442482849925
 20
195.9985573171037
 30
0.0
 10
253.1442482849925
 20
195.9127471512588
 30
0.0
 10
253.1442482849925
 20
195.7417238137891
 30
0.0
 10
253.1442482849925
 20
195.6285033851786
 30
0.0
 10
253.1442482849925
 20
195.2911905720427
 30
0.0
 10
253.1442482849925
 20
195.0694330410176
 30
0.0
 10
253.1442482849925
 20
194.7962154984926
 30
0.0
 10
253.1442482849925
 20
194.7417720425521
 30
0.0
 10
253.1442482849925
 20
194.660411864643
 30
0.0
 10
253.1442482849925
 20
194.633329723948
 30
0.0
 10
253.1442482849925
 20
194.5794705799587
 30
0.0
 10
253.1442482849925
 20
194.4454666833876
 30
0.0
 10
253.1442482849925
 20
194.3146545906336
 30
0.0
 10
253.1442482849925
 20
194.0067478797003
 30
0.0
 10
253.1442482849922
 20
193.8094974222743
 30
0.0
 10
253.1442482849922
 20
193.6204670581931
 30
0.0
  0
SPLINE
  5
2DF
330
1F
100
AcDbEntity
  8
1
100
AcDbSpline
210
0.0
220
0.0
230
1.0
 70
     8
 71
     3
 72
    40
 73
    36
 74
     0
 42
0.000000001
 43
0.0000000001
 40
0.0
 40
0.0
 40
0.0
 40
0.0
 40
0.0830737334102638
 40
0.0830737334102638
 40
0.1661474668205276
 40
0.2492212002307915
 40
0.2492212002307915
 40
0.2699896335833562
 40
0.2699896335833562
 40
0.290758066935921
 40
0.290758066935921
 40
0.3322949336410552
 40
0.3322949336410552
 40
0.4153686670513242
 40
0.4984424004615934
 40
0.4984424004615934
 40
0.539979267166728
 40
0.539979267166728
 40
0.5607477005192973
 40
0.5607477005192973
 40
0.5815161338718664
 40
0.5815161338718664
 40
0.6645898672821438
 40
0.6645898672821438
 40
0.7476636006924213
 40
0.7476636006924213
 40
0.8307373341026986
 40
0.8307373341026986
 40
0.8515057674552711
 40
0.8515057674552711
 40
0.8722742008078434
 40
0.9138110675129864
 40
0.9138110675129864
 40
0.9968848009232724
 40
1.0
 40
1.0
 40
1.0
 40
1.0
 10
250.030233968822
 20
193.6204670581924
 30
0.0
 10
250.031548388558
 20
193.7441138703794
 30
0.0
 10
250.0325213332888
 20
193.8710426937274
 30
0.0
 10
250.0338082841983
 20
194.1312335819501
 30
0.0
 10
250.034436128744
 20
194.3977593245826
 30
0.0
 10
250.0337534076906
 20
194.6768812773594
 30
0.0
 10
250.0329072015901
 20
194.8553644812179
 30
0.0
 10
250.0327169350178
 20
194.8912632024931
 30
0.0
 10
250.0322938951713
 20
194.9634691887645
 30
0.0
 10
250.0320607727639
 20
194.9998214477793
 30
0.0
 10
250.0313009744487
 20
195.1089342790307
 30
0.0
 10
250.030713382058
 20
195.1818752130714
 30
0.0
 10
250.0287122295415
 20
195.4012833554565
 30
0.0
 10
250.0254095277623
 20
195.6953855817499
 30
0.0
 10
250.0208593877745
 20
195.9925509428291
 30
0.0
 10
250.01697310759
 20
196.2165880921629
 30
0.0
 10
250.0155985910422
 20
196.2914613501796
 30
0.0
 10
250.0134160826635
 20
196.4040677033191
 30
0.0
 10
250.0126684477596
 20
196.4416525895755
 30
0.0
 10
250.0111324403669
 20
196.5169223948691
 30
0.0
 10
250.0103462965764
 20
196.5544968491366
 30
0.0
 10
250.0063334844753
 20
196.7417009567717
 30
0.0
 10
250.0028534718539
 20
196.8897095428193
 30
0.0
 10
249.9953692252284
 20
197.1823168644363
 30
0.0
 10
249.9913649549227
 20
197.3269153638774
 30
0.0
 10
249.9828315581398
 20
197.6126983832349
 30
0.0
 10
249.9783024738132
 20
197.7538831773236
 30
0.0
 10
249.9723028143047
 20
197.9281636370373
 30
0.0
 10
249.971084175266
 20
197.9629578560033
 30
0.0
 10
249.9686239831944
 20
198.032004978752
 30
0.0
 10
249.9648982791309
 20
198.1347995616496
 30
0.0
 10
249.9610675806076
 20
198.235293307926
 30
0.0
 10
249.9532684790308
 20
198.4332631591041
 30
0.0
 10
249.9476839556111
 20
198.5660252989078
 30
0.0
 10
249.941904193999
 20
198.6945090112234
 30
0.0
 10
249.9416950359726
 20
198.6991473127709
 30
0.0
  0
SPLINE
  5
2E0
330
1F
100
AcDbEntity
  8
1
100
AcDbSpline
210
0.0
220
0.0
230
1.0
 70
     8
 71
     3
 72
    20
 73
    16
 74
     0
 42
0.000000001
 43
0.0000000001
 40
0.0
 40
0.0
 40
0.0
 40
0.0
 40
0.2437240878944089
 40
0.2437240878944089
 40
0.3655861318416216
 40
0.3655861318416216
 40
0.4265171538152238
 40
0.4265171538152238
 40
0.4874481757888259
 40
0.4874481757888259
 40
0.7311722636832431
 40
0.7311722636832431
 40
0.9748963515776603
 40
0.9748963515776603
 40
1.0
 40
1.0
 40
1.0
 40
1.0
 10
251.0929684111357
 20
275.9717304727428
 30
0.0
 10
251.0899679156065
 20
275.891033874753
 30
0.0
 10
251.0866572241663
 20
275.8084094266977
 30
0.0
 10
251.0817574511925
 20
275.6815760273169
 30
0.0
 10
251.080130601544
 20
275.6388148439441
 30
0.0
 10
251.077724479406
 20
275.5739419474884
 30
0.0
 10
251.0769278384791
 20
275.5521957569869
 30
0.0
 10
251.0753458920966
 20
275.5084581159837
 30
0.0
 10
251.0745602229472
 20
275.4864557568137
 30
0.0
 10
251.0706719396611
 20
275.3762975989455
 30
0.0
 10
251.0676984942364
 20
275.2873510413899
 30
0.0
 10
251.0615283787214
 20
275.1078864210769
 30
0.0
 10
251.0582882222159
 20
275.0173699658481
 30
0.0
 10
251.0541257485573
 20
274.9166856362607
 30
0.0
 10
251.0537330456889
 20
274.9072753515005
 30
0.0
 10
251.0533367827016
 20
274.8978568411972
 30
0.0
  0
LINE
  5
2E3
330
1F
100
AcDbEntity
  8
SK4
100
AcDbLine
 10
242.444248
 20
244.434018
 30
0.0
 11
255.844248
 21
244.434018
 31
0.0
  0
LINE
  5
2E4
330
1F
100
AcDbEntity
  8
4
100
AcDbLine
 10
243.044248
 20
244.434018
 30
0.0
 11
256.344248
 21
244.434018
 31
0.0
  0
MTEXT
  5
2E5
330
1F
100
AcDbEntity
  8
SK6
100
AcDbMText
 10
228.055691
 20
84.255188
 30
0.0
 40
3.5
 41
0.0
 71
     7
 72
     5
  1
\W0.7471;160H16N-S90SN12N8\P\P\P\P\P\P\P\P\P\P\P\P 
  7
cesky
 73
     1
 44
0.8433729999999998
  0
MTEXT
  5
3C7
330
1F
100
AcDbEntity
  8
2
100
AcDbMText
 10
235.091776
 20
299.591518
 30
0.0
 40
3.5
 41
0.0
 71
     7
 72
     5
  1
\W0.7259;46
  7
cesky
 11
0.0000000000000001
 21
1.0
 31
0.0
 73
     2
 44
0.8433729999999998
  0
LINE
  5
3C8
330
1F
100
AcDbEntity
  8
2
100
AcDbLine
 10
246.044248
 20
278.434018
 30
0.0
 11
233.622942
 21
278.434018
 31
0.0
  0
LINE
  5
3C9
330
1F
100
AcDbEntity
  8
2
100
AcDbLine
 10
253.444248
 20
324.434018
 30
0.0
 11
233.622942
 21
324.434018
 31
0.0
  0
LINE
  5
3CA
330
1F
100
AcDbEntity
  8
2
100
AcDbLine
 10
234.622942
 20
278.434018
 30
0.0
 11
234.622942
 21
324.434018
 31
0.0
  0
SOLID
  5
3CB
330
1F
100
AcDbEntity
  8
2
100
AcDbTrace
 10
234.622942
 20
278.434018
 30
0.0
 11
234.005798
 21
281.934016
 31
0.0
 12
235.240087
 22
281.934021
 32
0.0
 13
235.240087
 23
281.934021
 33
0.0
  0
SOLID
  5
3CC
330
1F
100
AcDbEntity
  8
2
100
AcDbTrace
 10
234.622942
 20
324.434018
 30
0.0
 11
235.240087
 21
320.934021
 31
0.0
 12
234.005798
 22
320.934016
 32
0.0
 13
234.005798
 23
320.934016
 33
0.0
  0
MTEXT
  5
3CD
330
1F
100
AcDbEntity
  8
2
100
AcDbMText
 10
266.636127
 20
238.854462
 30
0.0
 40
3.5
 41
0.0
 71
     7
 72
     5
  1
\W0.7809;160
  7
cesky
 11
0.0000000000000001
 21
1.0
 31
0.0
 73
     2
 44
0.8433729999999998
  0
MTEXT
  5
3CE
330
1F
100
AcDbEntity
  8
2
100
AcDbMText
 10
266.636127
 20
232.116962
 30
0.0
 40
3.5
 41
0.0
 71
     7
 72
     5
  1
\W3.0115;\H2.63;%%c\H3.50;
  7
cesky
 11
0.0000000000000001
 21
1.0
 31
0.0
 73
     2
 44
0.8433729999999998
  0
LINE
  5
3CF
330
1F
100
AcDbEntity
  8
2
100
AcDbLine
 10
255.444248
 20
324.434018
 30
0.0
 11
267.823544
 21
324.434018
 31
0.0
  0
LINE
  5
3D0
330
1F
100
AcDbEntity
  8
2
100
AcDbLine
 10
266.823544
 20
324.434018
 30
0.0
 11
266.823544
 21
231.959462
 31
0.0
  0
SOLID
  5
3D1
330
1F
100
AcDbEntity
  8
2
100
AcDbTrace
 10
266.823544
 20
324.434018
 30
0.0
 11
267.440688
 21
320.934021
 31
0.0
 12
266.206399
 22
320.934016
 32
0.0
 13
266.206399
 23
320.934016
 33
0.0
  0
MTEXT
  5
3D2
330
1F
100
AcDbEntity
  8
2
100
AcDbMText
 10
248.893512
 20
329.587413
 30
0.0
 40
3.5
 41
0.0
 71
     7
 72
     5
  1
\W0.6094;8
  7
cesky
 73
     2
 44
0.8433729999999998
  0
LINE
  5
3D3
330
1F
100
AcDbEntity
  8
2
100
AcDbLine
 10
245.4467759999999
 20
324.313511
 30
0.0
 11
245.4467759999999
 21
330.713246
 31
0.0
  0
LINE
  5
3D4
330
1F
100
AcDbEntity
  8
2
100
AcDbLine
 10
253.444248
 20
326.434018
 30
0.0
 11
253.444248
 21
330.713246
 31
0.0
  0
LINE
  5
3D5
330
1F
100
AcDbEntity
  8
2
100
AcDbLine
 10
236.696776
 20
329.713246
 30
0.0
 11
262.194248
 21
329.713246
 31
0.0
  0
SOLID
  5
3D6
330
1F
100
AcDbEntity
  8
2
100
AcDbTrace
 10
245.4467759999999
 20
329.713246
 30
0.0
 11
241.946778
 21
329.096102
 31
0.0
 12
241.946774
 22
330.330391
 32
0.0
 13
241.946774
 23
330.330391
 33
0.0
  0
SOLID
  5
3D7
330
1F
100
AcDbEntity
  8
2
100
AcDbTrace
 10
253.444248
 20
329.713246
 30
0.0
 11
256.944246
 21
330.330391
 31
0.0
 12
256.944251
 22
329.096102
 32
0.0
 13
256.944251
 23
329.096102
 33
0.0
  0
MTEXT
  5
3D8
330
1F
100
AcDbEntity
  8
SK2
100
AcDbMText
 10
237.125516
 20
245.960268
 30
0.0
 40
3.5
 41
0.0
 71
     7
 72
     5
  1
\W0.7045;40
  7
cesky
 11
0.0000000000000001
 21
1.0
 31
0.0
 73
     2
 44
0.8433729999999998
  0
MTEXT
  5
3D9
330
1F
100
AcDbEntity
  8
SK2
100
AcDbMText
 10
237.125516
 20
239.222768
 30
0.0
 40
3.5
 41
0.0
 71
     7
 72
     5
  1
\W3.0115;\H2.63;%%c\H3.50;
  7
cesky
 11
0.0000000000000001
 21
1.0
 31
0.0
 73
     2
 44
0.8433729999999998
  0
LINE
  5
3DA
330
1F
100
AcDbEntity
  8
SK2
100
AcDbLine
 10
243.444248
 20
264.434018
 30
0.0
 11
236.312933
 21
264.434018
 31
0.0
  0
LINE
  5
3DB
330
1F
100
AcDbEntity
  8
SK2
100
AcDbLine
 10
243.444248
 20
224.434018
 30
0.0
 11
236.312933
 21
224.434018
 31
0.0
  0
LINE
  5
3DC
330
1F
100
AcDbEntity
  8
SK2
100
AcDbLine
 10
237.312933
 20
264.434018
 30
0.0
 11
237.312933
 21
224.434018
 31
0.0
  0
SOLID
  5
3DD
330
1F
100
AcDbEntity
  8
SK2
100
AcDbTrace
 10
237.312933
 20
264.434018
 30
0.0
 11
237.930077
 21
260.934021
 31
0.0
 12
236.695788
 22
260.934016
 32
0.0
 13
236.695788
 23
260.934016
 33
0.0
  0
SOLID
  5
3DE
330
1F
100
AcDbEntity
  8
SK2
100
AcDbTrace
 10
237.312933
 20
224.434018
 30
0.0
 11
236.695788
 21
227.934016
 31
0.0
 12
237.930077
 22
227.934021
 32
0.0
 13
237.930077
 23
227.934021
 33
0.0
  0
MTEXT
  5
3DF
330
1F
100
AcDbEntity
  8
SK2
100
AcDbMText
 10
226.899594
 20
246.131728
 30
0.0
 40
3.5
 41
0.0
 71
     7
 72
     5
  1
\W0.7045;68
  7
cesky
 11
0.0044232184398965
 21
0.9999902175214682
 31
0.0
 73
     2
 44
0.8433729999999998
  0
MTEXT
  5
3E0
330
1F
100
AcDbEntity
  8
SK2
100
AcDbMText
 10
226.869792
 20
239.394294
 30
0.0
 40
3.5
 41
0.0
 71
     7
 72
     5
  1
\W3.0115;\H2.63;%%c\H3.50;
  7
cesky
 11
0.0044232184398965
 21
0.9999902175214682
 31
0.0
 73
     2
 44
0.8433729999999998
  0
LINE
  5
3E1
330
1F
100
AcDbEntity
  8
SK2
100
AcDbLine
 10
246.044248
 20
278.434018
 30
0.0
 11
226.23097
 21
278.521658
 31
0.0
  0
LINE
  5
3E2
330
1F
100
AcDbEntity
  8
SK2
100
AcDbLine
 10
245.744233
 20
210.607233
 30
0.0
 11
225.930954
 21
210.694872
 31
0.0
  0
LINE
  5
3E3
330
1F
100
AcDbEntity
  8
SK2
100
AcDbLine
 10
227.23096
 20
278.517235
 30
0.0
 11
226.930945
 21
210.690449
 31
0.0
  0
SOLID
  5
3E4
330
1F
100
AcDbEntity
  8
SK2
100
AcDbTrace
 10
227.23096
 20
278.517235
 30
0.0
 11
227.832617
 21
275.014541
 31
0.0
 12
226.598341
 22
275.019996
 32
0.0
 13
226.598341
 23
275.019996
 33
0.0
  0
SOLID
  5
3E5
330
1F
100
AcDbEntity
  8
SK2
100
AcDbTrace
 10
226.930945
 20
210.690449
 30
0.0
 11
226.329287
 21
214.193142
 31
0.0
 12
227.563564
 22
214.187687
 32
0.0
 13
227.563564
 23
214.187687
 33
0.0
  0
LINE
  5
3E6
330
1F
100
AcDbEntity
  8
CUT
100
AcDbLine
 10
245.5466797859542
 20
324.3151153626184
 30
0.0
 11
249.4442482849887
 21
324.3778879318848
 31
0.0
  0
LINE
  5
3E8
330
1F
100
AcDbEntity
  8
CUT
100
AcDbLine
 10
253.3758788311883
 20
316.6554986005524
 30
0.0
 11
253.4229549276009
 21
321.9587533817357
 31
0.0
  0
LINE
  5
3EE
330
1F
100
AcDbEntity
  8
CUT
100
AcDbLine
 10
249.4442482849939
 20
311.993578673617
 30
0.0
 11
245.6562876798401
 21
311.927531225712
 31
0.0
  0
LINE
  5
3F0
330
1F
100
AcDbEntity
  8
CUT
100
AcDbLine
 10
245.5126177387966
 20
316.6554986005525
 30
0.0
 11
245.465541642384
 21
321.9587533817358
 31
0.0
  0
LINE
  5
3F1
330
1F
100
AcDbEntity
  8
CUT
100
AcDbLine
 10
253.4399701573817
 20
324.1162010494263
 30
0.0
 11
253.4408447864733
 21
324.214944924844
 31
0.0
  0
LINE
  5
3F4
330
1F
100
AcDbEntity
  8
CUT
100
AcDbLine
 10
253.3277464626248
 20
311.9056808983089
 30
0.0
 11
253.3758788311883
 21
316.6554986005525
 31
0.0
  0
LINE
  5
3F5
330
1F
100
AcDbEntity
  8
CUT
100
AcDbLine
 10
253.4408447864733
 20
324.2149449248441
 30
0.0
 11
253.3418167840308
 21
324.3151153626184
 31
0.0
  0
LINE
  5
3F6
330
1F
100
AcDbEntity
  8
CUT
100
AcDbLine
 10
245.56075010736
 20
311.9056808983089
 30
0.0
 11
245.5126177387966
 21
316.6554986005525
 31
0.0
  0
LINE
  5
3F7
330
1F
100
AcDbEntity
  8
CUT
100
AcDbLine
 10
245.4476517835116
 20
324.2149449248441
 30
0.0
 11
245.5466797859542
 21
324.3151153626184
 31
0.0
  0
LINE
  5
3F9
330
1F
100
AcDbEntity
  8
CUT
100
AcDbLine
 10
253.3418167840308
 20
324.3151153626184
 30
0.0
 11
249.4442482849875
 21
324.3778879318849
 31
0.0
  0
LINE
  5
3FA
330
1F
100
AcDbEntity
  8
CUT
100
AcDbLine
 10
249.4442482849937
 20
311.9935786736171
 30
0.0
 11
253.2322088901448
 21
311.927531225712
 31
0.0
  0
LINE
  5
401
330
1F
100
AcDbEntity
  8
CUT
100
AcDbLine
 10
245.4485264126032
 20
324.1162010494263
 30
0.0
 11
245.4476517835116
 21
324.2149449248441
 31
0.0
  0
LINE
  5
402
330
1F
100
AcDbEntity
  8
CUT
100
AcDbLine
 10
245.465541642384
 20
321.9587533817358
 30
0.0
 11
245.465541642384
 21
321.9587533817358
 31
0.0
  0
ARC
  5
403
330
1F
100
AcDbEntity
  8
CUT
100
AcDbCircle
 10
158.2700465681084
 20
322.3498560752251
 30
0.0
 40
87.1963721869486
100
AcDbArc
 50
359.7430098492907
 51
1.160725296710179
  0
LINE
  5
404
330
1F
100
AcDbEntity
  8
CUT
100
AcDbLine
 10
253.2322088901448
 20
311.927531225712
 30
0.0
 11
253.2322088901448
 21
311.927531225712
 31
0.0
  0
ARC
  5
405
330
1F
100
AcDbEntity
  8
CUT
100
AcDbCircle
 10
267.5289282454914
 20
374.2181964520163
 30
0.0
 40
63.91027428090929
100
AcDbArc
 50
257.0735630153692
 51
257.1614243136298
  0
LINE
  5
406
330
1F
100
AcDbEntity
  8
CUT
100
AcDbLine
 10
253.4229549276009
 20
321.9587533817357
 30
0.0
 11
253.4229549276009
 21
321.9587533817357
 31
0.0
  0
ARC
  5
407
330
1F
100
AcDbEntity
  8
CUT
100
AcDbCircle
 10
340.6184500028118
 20
322.3498560752166
 30
0.0
 40
87.19637218788388
100
AcDbArc
 50
178.8392747032967
 51
180.2569901507009
  0
LINE
  5
40A
330
1F
100
AcDbEntity
  8
CUT
100
AcDbLine
 10
245.6562876798401
 20
311.927531225712
 30
0.0
 11
245.6562876798401
 21
311.927531225712
 31
0.0
  0
ARC
  5
40B
330
1F
100
AcDbEntity
  8
CUT
100
AcDbCircle
 10
231.3595683298789
 20
374.2181964284879
 30
0.0
 40
63.91027425677243
100
AcDbArc
 50
282.8385756863499
 51
282.9264369846437
  0
ENDSEC
  0
SECTION
  2
OBJECTS
  0
DICTIONARY
  5
C
330
0
100
AcDbDictionary
281
     1
  3
ACAD_CIP_PREVIOUS_PRODUCT_INFO
350
3C4
  3
ACAD_COLOR
350
3BE
  3
ACAD_DETAILVIEWSTYLE
350
3BA
  3
ACAD_GROUP
350
D
  3
ACAD_IMAGE_DICT
350
24A
  3
ACAD_IMAGE_VARS
350
3C3
  3
ACAD_LAYOUT
350
1A
  3
ACAD_MATERIAL
350
43
  3
ACAD_MLEADERSTYLE
350
6B
  3
ACAD_MLINESTYLE
350
17
  3
ACAD_PLOTSETTINGS
350
19
  3
ACAD_PLOTSTYLENAME
350
E
  3
ACAD_SCALELIST
350
47
  3
ACAD_SECTIONVIEWSTYLE
350
3BB
  3
ACAD_TABLESTYLE
350
69
  3
ACAD_VISUALSTYLE
350
2A
  3
ACDB_RECOMPOSE_DATA
350
44B
  3
AcDbVariableDictionary
350
377
  3
AcDsDecomposeData
350
451
  0
DICTIONARY
  5
440
330
2
100
AcDbDictionary
280
     1
281
     1
  3
ACAD_LAYERSTATES
360
441
  0
DICTIONARY
  5
421
330
10
100
AcDbDictionary
280
     1
281
     1
  3
ADSK_XREC_LAYER_RECONCILED
360
422
  0
DICTIONARY
  5
423
330
76
100
AcDbDictionary
280
     1
281
     1
  3
ADSK_XREC_LAYER_RECONCILED
360
424
  0
DICTIONARY
  5
425
330
412
100
AcDbDictionary
280
     1
281
     1
  3
ADSK_XREC_LAYER_RECONCILED
360
426
  0
DICTIONARY
  5
427
330
413
100
AcDbDictionary
280
     1
281
     1
  3
ADSK_XREC_LAYER_RECONCILED
360
428
  0
DICTIONARY
  5
429
330
414
100
AcDbDictionary
280
     1
281
     1
  3
ADSK_XREC_LAYER_RECONCILED
360
42A
  0
DICTIONARY
  5
42B
330
417
100
AcDbDictionary
280
     1
281
     1
  3
ADSK_XREC_LAYER_RECONCILED
360
42C
  0
DICTIONARY
  5
42D
330
418
100
AcDbDictionary
280
     1
281
     1
  3
ADSK_XREC_LAYER_RECONCILED
360
42E
  0
DICTIONARY
  5
42F
330
419
100
AcDbDictionary
280
     1
281
     1
  3
ADSK_XREC_LAYER_RECONCILED
360
430
  0
DICTIONARY
  5
431
330
41A
100
AcDbDictionary
280
     1
281
     1
  3
ADSK_XREC_LAYER_RECONCILED
360
432
  0
DICTIONARY
  5
433
330
41B
100
AcDbDictionary
280
     1
281
     1
  3
ADSK_XREC_LAYER_RECONCILED
360
434
  0
DICTIONARY
  5
435
330
41C
100
AcDbDictionary
280
     1
281
     1
  3
ADSK_XREC_LAYER_RECONCILED
360
436
  0
DICTIONARY
  5
437
330
41D
100
AcDbDictionary
280
     1
281
     1
  3
ADSK_XREC_LAYER_RECONCILED
360
438
  0
DICTIONARY
  5
439
330
41E
100
AcDbDictionary
280
     1
281
     1
  3
ADSK_XREC_LAYER_RECONCILED
360
43A
  0
DICTIONARY
  5
43B
330
41F
100
AcDbDictionary
280
     1
281
     1
  3
ADSK_XREC_LAYER_RECONCILED
360
43C
  0
DICTIONARY
  5
3C5
330
1F
100
AcDbDictionary
280
     1
281
     1
  3
ACAD_SORTENTS
360
3C6
  0
XRECORD
  5
3C4
102
{ACAD_REACTORS
330
C
102
}
330
C
100
AcDbXrecord
280
     1
300
ACD
300
2019
300
87084ACD_2019_0F
  0
DICTIONARY
  5
3BE
102
{ACAD_REACTORS
330
C
102
}
330
C
100
AcDbDictionary
281
     1
  0
DICTIONARY
  5
3BA
102
{ACAD_REACTORS
330
C
102
}
330
C
100
AcDbDictionary
281
     1
  3
Metric50
350
3C0
  0
DICTIONARY
  5
D
102
{ACAD_REACTORS
330
C
102
}
330
C
100
AcDbDictionary
281
     1
  3
NULOVY_BOD
350
420
  0
DICTIONARY
  5
24A
102
{ACAD_REACTORS
330
C
102
}
330
C
100
AcDbDictionary
281
     1
  3
160H16N_S90SN12N8_2D_DormerPramet_jpg
350
24B
  0
RASTERVARIABLES
  5
3C3
102
{ACAD_REACTORS
330
C
102
}
330
C
100
AcDbRasterVariables
 90
        0
 70
     1
 71
     1
 72
     1
  0
DICTIONARY
  5
1A
102
{ACAD_REACTORS
330
C
102
}
330
C
100
AcDbDictionary
281
     1
  3
Layout1
350
1E
  3
Layout2
350
26
  3
Model
350
22
  0
DICTIONARY
  5
43
102
{ACAD_REACTORS
330
C
102
}
330
C
100
AcDbDictionary
281
     1
  3
ByBlock
350
45
  3
ByLayer
350
44
  3
Global
350
46
  0
DICTIONARY
  5
6B
102
{ACAD_REACTORS
330
C
102
}
330
C
100
AcDbDictionary
281
     1
  3
Standard
350
6C
  0
DICTIONARY
  5
17
102
{ACAD_REACTORS
330
C
102
}
330
C
100
AcDbDictionary
281
     1
  3
Standard
350
18
  0
DICTIONARY
  5
19
102
{ACAD_REACTORS
330
C
102
}
330
C
100
AcDbDictionary
281
     1
  0
ACDBDICTIONARYWDFLT
  5
E
102
{ACAD_REACTORS
330
C
102
}
330
C
100
AcDbDictionary
281
     1
  3
Normal
350
F
100
AcDbDictionaryWithDefault
340
F
  0
DICTIONARY
  5
47
102
{ACAD_REACTORS
330
C
102
}
330
C
100
AcDbDictionary
281
     1
  3
A0
350
48
  3
A1
350
49
  3
A2
350
4A
  3
A3
350
4B
  3
A4
350
4C
  3
A5
350
4D
  3
A6
350
4E
  3
A7
350
4F
  3
A8
350
50
  3
A9
350
51
  3
B0
350
52
  3
B1
350
53
  3
B2
350
54
  3
B3
350
55
  3
B4
350
56
  3
B5
350
57
  3
B6
350
58
  3
B7
350
59
  3
B8
350
5A
  3
B9
350
5B
  3
C0
350
5C
  3
C1
350
5D
  3
C2
350
5E
  3
C3
350
5F
  3
C4
350
60
  3
C5
350
61
  3
C6
350
62
  3
C7
350
63
  3
C8
350
64
  3
C9
350
65
  3
D0
350
66
  3
D1
350
67
  3
D2
350
68
  0
DICTIONARY
  5
3BB
102
{ACAD_REACTORS
330
C
102
}
330
C
100
AcDbDictionary
281
     1
  3
Metric50
350
3BF
  0
DICTIONARY
  5
69
102
{ACAD_REACTORS
330
C
102
}
330
C
100
AcDbDictionary
281
     1
  3
Standard
350
6A
  0
DICTIONARY
  5
2A
102
{ACAD_REACTORS
330
C
102
}
330
C
100
AcDbDictionary
281
     1
  3
2dWireframe
350
2F
  3
Basic
350
32
  3
Brighten
350
36
  3
ColorChange
350
3A
  3
Conceptual
350
34
  3
Dim
350
35
  3
EdgeColorOff
350
3D
  3
Facepattern
350
39
  3
Flat
350
2B
  3
FlatWithEdges
350
2C
  3
Gouraud
350
2D
  3
GouraudWithEdges
350
2E
  3
Hidden
350
31
  3
JitterOff
350
3B
  3
Linepattern
350
38
  3
OverhangOff
350
3C
  3
Realistic
350
33
  3
Shaded
350
42
  3
Shaded with edges
350
41
  3
Shades of Gray
350
3E
  3
Sketchy
350
3F
  3
Thicken
350
37
  3
Wireframe
350
30
  3
X-Ray
350
40
  0
XRECORD
  5
44B
102
{ACAD_REACTORS
330
C
102
}
330
C
100
AcDbXrecord
280
     1
 90
        1
330
6A
  0
DICTIONARY
  5
377
102
{ACAD_REACTORS
330
C
102
}
330
C
100
AcDbDictionary
281
     1
  3
CANNOSCALE
350
378
  3
CMLEADERSTYLE
350
3B9
  3
CTABLESTYLE
350
3B8
  3
CVIEWDETAILSTYLE
350
446
  3
CVIEWSECTIONSTYLE
350
447
  3
MSLTSCALE
350
379
  3
XCLIPFRAME
350
448
  0
DICTIONARY
  5
451
102
{ACAD_REACTORS
330
C
102
}
330
C
100
AcDbDictionary
281
     1
  3
AcDsRecords
350
453
  3
AcDsSchemas
350
452
1001
ACAD
1070
     2
  0
DICTIONARY
  5
441
102
{ACAD_REACTORS
330
440
102
}
330
440
100
AcDbDictionary
281
     1
  0
XRECORD
  5
422
102
{ACAD_REACTORS
330
421
102
}
330
421
100
AcDbXrecord
280
     1
290
     1
  0
XRECORD
  5
424
102
{ACAD_REACTORS
330
423
102
}
330
423
100
AcDbXrecord
280
     1
290
     1
  0
XRECORD
  5
426
102
{ACAD_REACTORS
330
425
102
}
330
425
100
AcDbXrecord
280
     1
290
     1
  0
XRECORD
  5
428
102
{ACAD_REACTORS
330
427
102
}
330
427
100
AcDbXrecord
280
     1
290
     1
  0
XRECORD
  5
42A
102
{ACAD_REACTORS
330
429
102
}
330
429
100
AcDbXrecord
280
     1
290
     1
  0
XRECORD
  5
42C
102
{ACAD_REACTORS
330
42B
102
}
330
42B
100
AcDbXrecord
280
     1
290
     1
  0
XRECORD
  5
42E
102
{ACAD_REACTORS
330
42D
102
}
330
42D
100
AcDbXrecord
280
     1
290
     1
  0
XRECORD
  5
430
102
{ACAD_REACTORS
330
42F
102
}
330
42F
100
AcDbXrecord
280
     1
290
     1
  0
XRECORD
  5
432
102
{ACAD_REACTORS
330
431
102
}
330
431
100
AcDbXrecord
280
     1
290
     1
  0
XRECORD
  5
434
102
{ACAD_REACTORS
330
433
102
}
330
433
100
AcDbXrecord
280
     1
290
     1
  0
XRECORD
  5
436
102
{ACAD_REACTORS
330
435
102
}
330
435
100
AcDbXrecord
280
     1
290
     1
  0
XRECORD
  5
438
102
{ACAD_REACTORS
330
437
102
}
330
437
100
AcDbXrecord
280
     1
290
     1
  0
XRECORD
  5
43A
102
{ACAD_REACTORS
330
439
102
}
330
439
100
AcDbXrecord
280
     1
290
     1
  0
XRECORD
  5
43C
102
{ACAD_REACTORS
330
43B
102
}
330
43B
100
AcDbXrecord
280
     1
290
     1
  0
SORTENTSTABLE
  5
3C6
102
{ACAD_REACTORS
330
3C5
102
}
330
3C5
100
AcDbSortentsTable
330
1F
331
3C7
  5
3D5
331
3C8
  5
3D6
331
3C9
  5
3D7
331
3CA
  5
3D8
331
3CB
  5
3D9
331
3CC
  5
3DA
331
3CD
  5
3DB
331
3CE
  5
3DC
331
3CF
  5
3DD
331
3D0
  5
3DE
331
3D1
  5
3DF
331
3D2
  5
3E0
331
3D3
  5
3E1
331
3D4
  5
3E2
331
3D5
  5
3E3
331
3D6
  5
3E4
331
3D7
  5
3E5
331
3D8
  5
3C7
331
3D9
  5
3C8
331
3DA
  5
3C9
331
3DB
  5
3CA
331
3DC
  5
3CB
331
3DD
  5
3CC
331
3DE
  5
3CD
331
3DF
  5
3CE
331
3E0
  5
3CF
331
3E1
  5
3D0
331
3E2
  5
3D1
331
3E3
  5
3D2
331
3E4
  5
3D3
331
3E5
  5
3D4
331
3E8
  5
3EA
331
3EE
  5
3F7
331
3F0
  5
3FA
331
3F1
  5
3FB
331
3F4
  5
402
331
3F5
  5
403
331
3F6
  5
404
331
3F7
  5
405
331
3F9
  5
407
331
3FA
  5
408
331
401
  5
411
331
402
  5
3E8
331
403
  5
3E9
331
404
  5
3F0
331
405
  5
3F1
331
406
  5
3F5
331
407
  5
3F6
331
40A
  5
3FE
331
40B
  5
3FF
  0
ACDBDETAILVIEWSTYLE
  5
3C0
102
{ACAD_XDICTIONARY
360
487
102
}
102
{ACAD_REACTORS
330
3BA
102
}
330
3BA
100
AcDbModelDocViewStyle
 70
     0
  3
Metric50
290
     0
100
AcDbDetailViewStyle
 70
     0
 71
     0
 90
        3
 71
     1
340
11
 62
   256
 40
5.0
340
0
 62
   256
 40
5.0
300

 40
0.0
280
     1
 71
     2
340
16
 90
       25
 62
   256
 71
     3
340
11
 62
   256
 40
5.0
 90
        0
 40
15.0
 90
        1
300
%<\AcVar ViewDetailId>% (%<\AcVar ViewScale \f "%sn">%)
 71
     4
340
16
 90
       25
 62
   256
340
16
 90
       25
 62
   256
280
     0
  0
GROUP
  5
420
102
{ACAD_REACTORS
330
D
102
}
330
D
100
AcDbGroup
300

 70
     0
 71
     1
340
73
  0
IMAGEDEF
  5
24B
102
{ACAD_REACTORS
330
24A
330
24E
102
}
330
24A
100
AcDbRasterImageDef
 90
        0
  1
C:\Users\pp0701\Desktop\zakaznik data\160H16N_S90SN12N8_2D_DormerPramet.jpg
 10
2089.0
 20
531.0
 11
0.0004786979415989
 21
0.0004786979415989
280
     1
281
     0
  0
LAYOUT
  5
1E
102
{ACAD_REACTORS
330
1A
102
}
330
1A
100
AcDbPlotSettings
  1

  2
none_device
  4

  6

 40
0.0
 41
0.0
 42
0.0
 43
0.0
 44
0.0
 45
0.0
 46
0.0
 47
0.0
 48
0.0
 49
0.0
140
0.0
141
0.0
142
1.0
143
1.0
 70
   688
 72
     0
 73
     0
 74
     5
  7

 75
    16
147
1.0
 76
     0
 77
     2
 78
   300
148
0.0
149
0.0
100
AcDbLayout
  1
Layout1
 70
     1
 71
     1
 10
-0.5
 20
-0.5
 11
5.0
 21
5.0
 12
0.0
 22
0.0
 32
0.0
 14
-0.5
 24
-0.5
 34
-0.5
 15
5.0
 25
5.0
 35
5.0
146
0.0
 13
0.0
 23
0.0
 33
0.0
 16
1.0
 26
0.0
 36
0.0
 17
0.0
 27
1.0
 37
0.0
 76
     0
330
1B
  0
LAYOUT
  5
26
102
{ACAD_REACTORS
330
1A
102
}
330
1A
100
AcDbPlotSettings
  1

  2
none_device
  4

  6

 40
0.0
 41
0.0
 42
0.0
 43
0.0
 44
0.0
 45
0.0
 46
0.0
 47
0.0
 48
0.0
 49
0.0
140
0.0
141
0.0
142
1.0
143
1.0
 70
   688
 72
     0
 73
     0
 74
     5
  7

 75
    16
147
1.0
 76
     0
 77
     2
 78
   300
148
0.0
149
0.0
100
AcDbLayout
  1
Layout2
 70
     1
 71
     2
 10
0.0
 20
0.0
 11
0.0
 21
0.0
 12
0.0
 22
0.0
 32
0.0
 14
0.0
 24
0.0
 34
0.0
 15
0.0
 25
0.0
 35
0.0
146
0.0
 13
0.0
 23
0.0
 33
0.0
 16
1.0
 26
0.0
 36
0.0
 17
0.0
 27
1.0
 37
0.0
 76
     0
330
23
  0
LAYOUT
  5
22
102
{ACAD_REACTORS
330
1A
102
}
330
1A
100
AcDbPlotSettings
  1

  2
none_device
  4
Letter_(8.50_x_11.00_Inches)
  6

 40
6.349999999999999
 41
6.349999999999999
 42
6.350005
 43
6.350005
 44
215.9
 45
279.4
 46
0.0
 47
0.0
 48
0.0
 49
0.0
140
0.0
141
0.0
142
1.0
143
1.0
 70
  1712
 72
     0
 73
     0
 74
     0
  7

 75
     0
147
1.0
 76
     0
 77
     2
 78
   300
148
0.0
149
0.0
100
AcDbLayout
  1
Model
 70
     1
 71
     0
 10
-0.5
 20
-0.5
 11
5.0
 21
5.0
 12
0.0
 22
0.0
 32
0.0
 14
-0.5
 24
-0.5
 34
-0.5
 15
5.0
 25
5.0
 35
5.0
146
0.0
 13
0.0
 23
0.0
 33
0.0
 16
1.0
 26
0.0
 36
0.0
 17
0.0
 27
1.0
 37
0.0
 76
     0
330
1F
331
29
  0
MATERIAL
  5
45
102
{ACAD_XDICTIONARY
360
3AD
102
}
102
{ACAD_REACTORS
330
43
102
}
330
43
100
AcDbMaterial
  1
ByBlock
  0
MATERIAL
  5
44
102
{ACAD_XDICTIONARY
360
3AB
102
}
102
{ACAD_REACTORS
330
43
102
}
330
43
100
AcDbMaterial
  1
ByLayer
  0
MATERIAL
  5
46
102
{ACAD_XDICTIONARY
360
3AF
102
}
102
{ACAD_REACTORS
330
43
102
}
330
43
100
AcDbMaterial
  1
Global
  0
MLEADERSTYLE
  5
6C
102
{ACAD_REACTORS
330
6B
102
}
330
6B
100
AcDbMLeaderStyle
170
     2
171
     1
172
     0
 90
        2
 40
0.0
 41
0.0
173
     1
 91
-1056964608
340
14
 92
       -2
290
     1
 42
0.09
291
     1
 43
0.36
  3
Standard
 44
0.18
300

342
11
174
     1
178
     6
175
     1
176
     0
 93
-1056964608
 45
0.18
292
     0
297
     0
 46
0.18
 94
-1056964608
 47
1.0
 49
1.0
140
1.0
293
     1
141
0.0
294
     1
177
     0
142
1.0
295
     0
296
     0
143
0.125
1001
ACAD_MLEADERVER
1070
     2
  0
MLINESTYLE
  5
18
102
{ACAD_REACTORS
330
17
102
}
330
17
100
AcDbMlineStyle
  2
STANDARD
 70
     0
  3

 62
   256
 51
90.0
 52
90.0
 71
     2
 49
0.5
 62
   256
  6
BYLAYER
 49
-0.5
 62
   256
  6
BYLAYER
  0
ACDBPLACEHOLDER
  5
F
102
{ACAD_REACTORS
330
E
102
}
330
E
  0
SCALE
  5
48
102
{ACAD_REACTORS
330
47
102
}
330
47
100
AcDbScale
 70
     0
300
1:1
140
1.0
141
1.0
290
     1
  0
SCALE
  5
49
102
{ACAD_REACTORS
330
47
102
}
330
47
100
AcDbScale
 70
     0
300
1:2
140
1.0
141
2.0
290
     0
  0
SCALE
  5
4A
102
{ACAD_REACTORS
330
47
102
}
330
47
100
AcDbScale
 70
     0
300
1:4
140
1.0
141
4.0
290
     0
  0
SCALE
  5
4B
102
{ACAD_REACTORS
330
47
102
}
330
47
100
AcDbScale
 70
     0
300
1:5
140
1.0
141
5.0
290
     0
  0
SCALE
  5
4C
102
{ACAD_REACTORS
330
47
102
}
330
47
100
AcDbScale
 70
     0
300
1:8
140
1.0
141
8.0
290
     0
  0
SCALE
  5
4D
102
{ACAD_REACTORS
330
47
102
}
330
47
100
AcDbScale
 70
     0
300
1:10
140
1.0
141
10.0
290
     0
  0
SCALE
  5
4E
102
{ACAD_REACTORS
330
47
102
}
330
47
100
AcDbScale
 70
     0
300
1:16
140
1.0
141
16.0
290
     0
  0
SCALE
  5
4F
102
{ACAD_REACTORS
330
47
102
}
330
47
100
AcDbScale
 70
     0
300
1:20
140
1.0
141
20.0
290
     0
  0
SCALE
  5
50
102
{ACAD_REACTORS
330
47
102
}
330
47
100
AcDbScale
 70
     0
300
1:30
140
1.0
141
30.0
290
     0
  0
SCALE
  5
51
102
{ACAD_REACTORS
330
47
102
}
330
47
100
AcDbScale
 70
     0
300
1:40
140
1.0
141
40.0
290
     0
  0
SCALE
  5
52
102
{ACAD_REACTORS
330
47
102
}
330
47
100
AcDbScale
 70
     0
300
1:50
140
1.0
141
50.0
290
     0
  0
SCALE
  5
53
102
{ACAD_REACTORS
330
47
102
}
330
47
100
AcDbScale
 70
     0
300
1:100
140
1.0
141
100.0
290
     0
  0
SCALE
  5
54
102
{ACAD_REACTORS
330
47
102
}
330
47
100
AcDbScale
 70
     0
300
2:1
140
2.0
141
1.0
290
     0
  0
SCALE
  5
55
102
{ACAD_REACTORS
330
47
102
}
330
47
100
AcDbScale
 70
     0
300
4:1
140
4.0
141
1.0
290
     0
  0
SCALE
  5
56
102
{ACAD_REACTORS
330
47
102
}
330
47
100
AcDbScale
 70
     0
300
8:1
140
8.0
141
1.0
290
     0
  0
SCALE
  5
57
102
{ACAD_REACTORS
330
47
102
}
330
47
100
AcDbScale
 70
     0
300
10:1
140
10.0
141
1.0
290
     0
  0
SCALE
  5
58
102
{ACAD_REACTORS
330
47
102
}
330
47
100
AcDbScale
 70
     0
300
100:1
140
100.0
141
1.0
290
     0
  0
SCALE
  5
59
102
{ACAD_REACTORS
330
47
102
}
330
47
100
AcDbScale
 70
     0
300
1/128" = 1'-0"
140
0.007812
141
12.0
290
     0
  0
SCALE
  5
5A
102
{ACAD_REACTORS
330
47
102
}
330
47
100
AcDbScale
 70
     0
300
1/64" = 1'-0"
140
0.015625
141
12.0
290
     0
  0
SCALE
  5
5B
102
{ACAD_REACTORS
330
47
102
}
330
47
100
AcDbScale
 70
     0
300
1/32" = 1'-0"
140
0.03125
141
12.0
290
     0
  0
SCALE
  5
5C
102
{ACAD_REACTORS
330
47
102
}
330
47
100
AcDbScale
 70
     0
300
1/16" = 1'-0"
140
0.0625
141
12.0
290
     0
  0
SCALE
  5
5D
102
{ACAD_REACTORS
330
47
102
}
330
47
100
AcDbScale
 70
     0
300
3/32" = 1'-0"
140
0.09375
141
12.0
290
     0
  0
SCALE
  5
5E
102
{ACAD_REACTORS
330
47
102
}
330
47
100
AcDbScale
 70
     0
300
1/8" = 1'-0"
140
0.125
141
12.0
290
     0
  0
SCALE
  5
5F
102
{ACAD_REACTORS
330
47
102
}
330
47
100
AcDbScale
 70
     0
300
3/16" = 1'-0"
140
0.1875
141
12.0
290
     0
  0
SCALE
  5
60
102
{ACAD_REACTORS
330
47
102
}
330
47
100
AcDbScale
 70
     0
300
1/4" = 1'-0"
140
0.25
141
12.0
290
     0
  0
SCALE
  5
61
102
{ACAD_REACTORS
330
47
102
}
330
47
100
AcDbScale
 70
     0
300
3/8" = 1'-0"
140
0.375
141
12.0
290
     0
  0
SCALE
  5
62
102
{ACAD_REACTORS
330
47
102
}
330
47
100
AcDbScale
 70
     0
300
1/2" = 1'-0"
140
0.5
141
12.0
290
     0
  0
SCALE
  5
63
102
{ACAD_REACTORS
330
47
102
}
330
47
100
AcDbScale
 70
     0
300
3/4" = 1'-0"
140
0.75
141
12.0
290
     0
  0
SCALE
  5
64
102
{ACAD_REACTORS
330
47
102
}
330
47
100
AcDbScale
 70
     0
300
1" = 1'-0"
140
1.0
141
12.0
290
     0
  0
SCALE
  5
65
102
{ACAD_REACTORS
330
47
102
}
330
47
100
AcDbScale
 70
     0
300
1-1/2" = 1'-0"
140
1.5
141
12.0
290
     0
  0
SCALE
  5
66
102
{ACAD_REACTORS
330
47
102
}
330
47
100
AcDbScale
 70
     0
300
3" = 1'-0"
140
3.0
141
12.0
290
     0
  0
SCALE
  5
67
102
{ACAD_REACTORS
330
47
102
}
330
47
100
AcDbScale
 70
     0
300
6" = 1'-0"
140
6.0
141
12.0
290
     0
  0
SCALE
  5
68
102
{ACAD_REACTORS
330
47
102
}
330
47
100
AcDbScale
 70
     0
300
1'-0" = 1'-0"
140
12.0
141
12.0
290
     0
  0
ACDBSECTIONVIEWSTYLE
  5
3BF
102
{ACAD_XDICTIONARY
360
485
102
}
102
{ACAD_REACTORS
330
3BB
102
}
330
3BB
100
AcDbModelDocViewStyle
 70
     0
  3
Metric50
290
     0
100
AcDbSectionViewStyle
 70
     0
 71
     0
 90
      102
 71
     1
340
11
 62
   256
 40
5.0
340
0
340
0
 62
   256
 40
5.0
300
I, O, Q, S, X, Z
 40
10.0
 90
        0
 40
2.5
 90
        0
 71
     2
340
16
 90
       25
 62
   256
340
16
 90
       50
 62
   256
 40
5.0
 40
2.5
 40
5.0
 71
     3
340
11
 62
   256
 40
5.0
 90
        0
 40
15.0
 90
        1
300
%<\AcVar ViewSectionStartId>%-%<\AcVar ViewSectionEndId>% (%<\AcVar ViewScale \f "%sn">%)
 71
     4
 62
   256
 62
   257
300
ANSI31
 40
1.0
 90
        0
290
     0
290
     0
 90
        6
 40
0.0
 40
1.570796326794896
 40
0.2617993877991494
 40
1.308996938995747
 40
-0.2617993877991494
 40
1.832595714594046
  0
TABLESTYLE
  5
6A
102
{ACAD_XDICTIONARY
360
3B1
102
}
102
{ACAD_REACTORS
330
69
102
}
330
69
100
AcDbTableStyle
  3
Standard
 70
     0
 71
     0
 40
0.06
 41
0.06
280
     0
281
     0
  7
Standard
140
0.18
170
     2
 62
     0
 63
     7
283
     0
274
    -2
284
     1
 64
     0
275
    -2
285
     1
 65
     0
276
    -2
286
     1
 66
     0
277
    -2
287
     1
 67
     0
278
    -2
288
     1
 68
     0
279
    -2
289
     1
 69
     0
  7
Standard
140
0.25
170
     5
 62
     0
 63
     7
283
     0
274
    -2
284
     1
 64
     0
275
    -2
285
     1
 65
     0
276
    -2
286
     1
 66
     0
277
    -2
287
     1
 67
     0
278
    -2
288
     1
 68
     0
279
    -2
289
     1
 69
     0
  7
Standard
140
0.18
170
     5
 62
     0
 63
     7
283
     0
274
    -2
284
     1
 64
     0
275
    -2
285
     1
 65
     0
276
    -2
286
     1
 66
     0
277
    -2
287
     1
 67
     0
278
    -2
288
     1
 68
     0
279
    -2
289
     1
 69
     0
  0
VISUALSTYLE
  5
2F
102
{ACAD_XDICTIONARY
360
45C
102
}
102
{ACAD_REACTORS
330
2A
102
}
330
2A
100
AcDbVisualStyle
  2

 70
     4
 71
     0
 72
     2
 73
     0
 90
        0
 40
-0.6
 41
-30.0
 62
     5
 63
     7
421
 16777215
 74
     1
 91
        4
 64
     7
 65
   257
 75
     1
175
     1
 42
1.0
 92
        0
 66
   257
 43
1.0
 76
     1
 77
     6
 78
     2
 67
     7
 79
     5
170
     0
171
     0
290
     0
174
     0
 93
        1
 44
0.0
173
     0
291
     0
 45
0.0
1001
ACAD
1000
AcDbSavedByObjectVersion
1070
     0
  0
VISUALSTYLE
  5
32
102
{ACAD_XDICTIONARY
360
462
102
}
102
{ACAD_REACTORS
330
2A
102
}
330
2A
100
AcDbVisualStyle
  2

 70
     7
 71
     1
 72
     0
 73
     1
 90
        0
 40
-0.6
 41
-30.0
 62
     5
 63
     7
421
 16777215
 74
     0
 91
        4
 64
     7
 65
   257
 75
     1
175
     1
 42
1.0
 92
        8
 66
     7
 43
1.0
 76
     1
 77
     6
 78
     2
 67
     7
 79
     5
170
     0
171
     0
290
     0
174
     0
 93
        1
 44
0.0
173
     0
291
     1
 45
0.0
1001
ACAD
1000
AcDbSavedByObjectVersion
1070
     0
  0
VISUALSTYLE
  5
36
102
{ACAD_XDICTIONARY
360
46A
102
}
102
{ACAD_REACTORS
330
2A
102
}
330
2A
100
AcDbVisualStyle
  2

 70
    12
 71
     2
 72
     2
 73
     0
 90
        0
 40
-0.6
 41
-30.0
 62
     5
 63
     7
421
 16777215
 74
     1
 91
        4
 64
     7
 65
   257
 75
     1
175
     1
 42
1.0
 92
        8
 66
     7
 43
1.0
 76
     1
 77
     6
 78
     2
 67
     7
 79
     5
170
     0
171
     0
290
     0
174
     0
 93
        1
 44
50.0
173
     0
291
     1
 45
0.0
1001
ACAD
1000
AcDbSavedByObjectVersion
1070
     0
  0
VISUALSTYLE
  5
3A
102
{ACAD_XDICTIONARY
360
472
102
}
102
{ACAD_REACTORS
330
2A
102
}
330
2A
100
AcDbVisualStyle
  2

 70
    16
 71
     2
 72
     2
 73
     3
 90
        0
 40
-0.6
 41
-30.0
 62
     5
 63
     8
421
  8421504
 74
     1
 91
        4
 64
     7
 65
   257
 75
     1
175
     1
 42
1.0
 92
        8
 66
     8
424
  8421504
 43
1.0
 76
     1
 77
     6
 78
     2
 67
     7
 79
     5
170
     0
171
     0
290
     0
174
     0
 93
        1
 44
0.0
173
     0
291
     1
 45
0.0
1001
ACAD
1000
AcDbSavedByObjectVersion
1070
     0
  0
VISUALSTYLE
  5
34
102
{ACAD_XDICTIONARY
360
466
102
}
102
{ACAD_REACTORS
330
2A
102
}
330
2A
100
AcDbVisualStyle
  2

 70
     9
 71
     3
 72
     2
 73
     0
 90
        0
 40
-0.6
 41
-30.0
 62
     5
 63
     7
421
 16777215
 74
     2
 91
        2
 64
     7
 65
   257
 75
     1
175
     1
 42
179.0
 92
        8
 66
     7
 43
1.0
 76
     1
 77
     6
 78
     2
 67
     7
 79
     3
170
     0
171
     0
290
     0
174
     0
 93
        1
 44
0.0
173
     0
291
     0
 45
0.0
1001
ACAD
1000
AcDbSavedByObjectVersion
1070
     0
  0
VISUALSTYLE
  5
35
102
{ACAD_XDICTIONARY
360
468
102
}
102
{ACAD_REACTORS
330
2A
102
}
330
2A
100
AcDbVisualStyle
  2

 70
    11
 71
     2
 72
     2
 73
     0
 90
        0
 40
-0.6
 41
-30.0
 62
     5
 63
     7
421
 16777215
 74
     1
 91
        4
 64
     7
 65
   257
 75
     1
175
     1
 42
1.0
 92
        8
 66
     7
 43
1.0
 76
     1
 77
     6
 78
     2
 67
     7
 79
     5
170
     0
171
     0
290
     0
174
     0
 93
        1
 44
-50.0
173
     0
291
     1
 45
0.0
1001
ACAD
1000
AcDbSavedByObjectVersion
1070
     0
  0
VISUALSTYLE
  5
3D
102
{ACAD_XDICTIONARY
360
478
102
}
102
{ACAD_REACTORS
330
2A
102
}
330
2A
100
AcDbVisualStyle
  2

 70
    22
 71
     2
 72
     2
 73
     0
 90
        0
 40
-0.6
 41
-30.0
 62
     5
 63
     7
421
 16777215
 74
     1
 91
        4
 64
     7
 65
   257
 75
     1
175
     1
 42
1.0
 92
        8
 66
     7
 43
1.0
 76
     1
 77
     6
 78
     2
 67
     7
 79
     5
170
     0
171
     0
290
     0
174
     0
 93
        1
 44
0.0
173
     0
291
     1
 45
0.0
1001
ACAD
1000
AcDbSavedByObjectVersion
1070
     0
  0
VISUALSTYLE
  5
39
102
{ACAD_XDICTIONARY
360
470
102
}
102
{ACAD_REACTORS
330
2A
102
}
330
2A
100
AcDbVisualStyle
  2

 70
    15
 71
     2
 72
     2
 73
     0
 90
        0
 40
-0.6
 41
-30.0
 62
     5
 63
     7
421
 16777215
 74
     1
 91
        4
 64
     7
 65
   257
 75
     1
175
     1
 42
1.0
 92
        8
 66
     7
 43
1.0
 76
     1
 77
     6
 78
     2
 67
     7
 79
     5
170
     0
171
     0
290
     0
174
     0
 93
        1
 44
0.0
173
     0
291
     1
 45
0.0
1001
ACAD
1000
AcDbSavedByObjectVersion
1070
     0
  0
VISUALSTYLE
  5
2B
102
{ACAD_XDICTIONARY
360
454
102
}
102
{ACAD_REACTORS
330
2A
102
}
330
2A
100
AcDbVisualStyle
  2

 70
     0
 71
     2
 72
     1
 73
     1
 90
        2
 40
-0.6
 41
30.0
 62
     5
 63
     7
421
 16777215
 74
     0
 91
        0
 64
     7
 65
   257
 75
     1
175
     1
 42
1.0
 92
        8
 66
     7
 43
1.0
 76
     1
 77
     6
 78
     2
 67
     7
 79
     5
170
     0
171
     0
290
     0
174
     0
 93
       13
 44
0.0
173
     0
291
     1
 45
0.0
1001
ACAD
1000
AcDbSavedByObjectVersion
1070
     0
  0
VISUALSTYLE
  5
2C
102
{ACAD_XDICTIONARY
360
456
102
}
102
{ACAD_REACTORS
330
2A
102
}
330
2A
100
AcDbVisualStyle
  2

 70
     1
 71
     2
 72
     1
 73
     1
 90
        2
 40
-0.6
 41
30.0
 62
     5
 63
     7
421
 16777215
 74
     1
 91
        0
 64
     7
 65
   257
 75
     1
175
     1
 42
1.0
 92
        0
 66
   257
 43
1.0
 76
     1
 77
     6
 78
     2
 67
     7
 79
     5
170
     0
171
     0
290
     0
174
     0
 93
       13
 44
0.0
173
     0
291
     1
 45
0.0
1001
ACAD
1000
AcDbSavedByObjectVersion
1070
     0
  0
VISUALSTYLE
  5
2D
102
{ACAD_XDICTIONARY
360
458
102
}
102
{ACAD_REACTORS
330
2A
102
}
330
2A
100
AcDbVisualStyle
  2

 70
     2
 71
     2
 72
     2
 73
     1
 90
        2
 40
-0.6
 41
30.0
 62
     5
 63
     7
421
 16777215
 74
     0
 91
        0
 64
     7
 65
   257
 75
     1
175
     1
 42
1.0
 92
        0
 66
     7
 43
1.0
 76
     1
 77
     6
 78
     2
 67
     7
 79
     5
170
     0
171
     0
290
     0
174
     0
 93
       13
 44
0.0
173
     0
291
     1
 45
0.0
1001
ACAD
1000
AcDbSavedByObjectVersion
1070
     0
  0
VISUALSTYLE
  5
2E
102
{ACAD_XDICTIONARY
360
45A
102
}
102
{ACAD_REACTORS
330
2A
102
}
330
2A
100
AcDbVisualStyle
  2

 70
     3
 71
     2
 72
     2
 73
     1
 90
        2
 40
-0.6
 41
30.0
 62
     5
 63
     7
421
 16777215
 74
     1
 91
        0
 64
     7
 65
   257
 75
     1
175
     1
 42
1.0
 92
        0
 66
   257
 43
1.0
 76
     1
 77
     6
 78
     2
 67
     7
 79
     5
170
     0
171
     0
290
     0
174
     0
 93
       13
 44
0.0
173
     0
291
     1
 45
0.0
1001
ACAD
1000
AcDbSavedByObjectVersion
1070
     0
  0
VISUALSTYLE
  5
31
102
{ACAD_XDICTIONARY
360
460
102
}
102
{ACAD_REACTORS
330
2A
102
}
330
2A
100
AcDbVisualStyle
  2

 70
     6
 71
     1
 72
     2
 73
     2
 90
        0
 40
-0.6
 41
-30.0
 62
     5
 63
     7
421
 16777215
 74
     2
 91
        2
 64
     7
 65
   257
 75
     2
175
     1
 42
40.0
 92
        0
 66
   257
 43
1.0
 76
     1
 77
     6
 78
     2
 67
     7
 79
     3
170
     0
171
     0
290
     0
174
     0
 93
        1
 44
0.0
173
     0
291
     0
 45
0.0
1001
ACAD
1000
AcDbSavedByObjectVersion
1070
     0
  0
VISUALSTYLE
  5
3B
102
{ACAD_XDICTIONARY
360
474
102
}
102
{ACAD_REACTORS
330
2A
102
}
330
2A
100
AcDbVisualStyle
  2

 70
    20
 71
     2
 72
     2
 73
     0
 90
        0
 40
-0.6
 41
-30.0
 62
     5
 63
     7
421
 16777215
 74
     1
 91
        4
 64
     7
 65
   257
 75
     1
175
     1
 42
1.0
 92
       10
 66
     7
 43
1.0
 76
     1
 77
     6
 78
     2
 67
     7
 79
     5
170
     0
171
     0
290
     0
174
     0
 93
        1
 44
0.0
173
     0
291
     1
 45
0.0
1001
ACAD
1000
AcDbSavedByObjectVersion
1070
     0
  0
VISUALSTYLE
  5
38
102
{ACAD_XDICTIONARY
360
46E
102
}
102
{ACAD_REACTORS
330
2A
102
}
330
2A
100
AcDbVisualStyle
  2

 70
    14
 71
     2
 72
     2
 73
     0
 90
        0
 40
-0.6
 41
-30.0
 62
     5
 63
     7
421
 16777215
 74
     1
 91
        4
 64
     7
 65
   257
 75
     7
175
     7
 42
1.0
 92
        8
 66
     7
 43
1.0
 76
     1
 77
     6
 78
     2
 67
     7
 79
     5
170
     0
171
     0
290
     0
174
     0
 93
        1
 44
0.0
173
     0
291
     1
 45
0.0
1001
ACAD
1000
AcDbSavedByObjectVersion
1070
     0
  0
VISUALSTYLE
  5
3C
102
{ACAD_XDICTIONARY
360
476
102
}
102
{ACAD_REACTORS
330
2A
102
}
330
2A
100
AcDbVisualStyle
  2

 70
    21
 71
     2
 72
     2
 73
     0
 90
        0
 40
-0.6
 41
-30.0
 62
     5
 63
     7
421
 16777215
 74
     1
 91
        4
 64
     7
 65
   257
 75
     1
175
     1
 42
1.0
 92
        9
 66
     7
 43
1.0
 76
     1
 77
     6
 78
     2
 67
     7
 79
     5
170
     0
171
     0
290
     0
174
     0
 93
        1
 44
0.0
173
     0
291
     1
 45
0.0
1001
ACAD
1000
AcDbSavedByObjectVersion
1070
     0
  0
VISUALSTYLE
  5
33
102
{ACAD_XDICTIONARY
360
464
102
}
102
{ACAD_REACTORS
330
2A
102
}
330
2A
100
AcDbVisualStyle
  2

 70
     8
 71
     2
 72
     3
 73
     0
 90
        2
 40
-0.6
 41
30.0
 62
     5
 63
     7
421
 16777215
 74
     0
 91
        0
 64
     7
 65
   257
 75
     1
175
     1
 42
1.0
 92
        8
 66
   257
 43
1.0
 76
     1
 77
     6
 78
     2
 67
     7
 79
     3
170
     0
171
     0
290
     0
174
     0
 93
       13
 44
0.0
173
     0
291
     0
 45
0.0
1001
ACAD
1000
AcDbSavedByObjectVersion
1070
     0
  0
VISUALSTYLE
  5
42
102
{ACAD_XDICTIONARY
360
482
102
}
102
{ACAD_REACTORS
330
2A
102
}
330
2A
100
AcDbVisualStyle
  2

 70
    27
 71
     2
 72
     2
 73
     1
 90
        2
 40
-0.6
 41
30.0
 62
     5
 63
     7
421
 16777215
 74
     0
 91
        4
 64
     7
 65
   257
 75
     1
175
     1
 42
1.0
 92
        8
 66
   257
 43
1.0
 76
     1
 77
     6
 78
     2
 67
     8
425
  7895160
 79
     3
170
     0
171
     0
290
     0
174
     0
 93
        5
 44
0.0
173
     0
291
     0
 45
0.0
1001
ACAD
1000
AcDbSavedByObjectVersion
1070
     0
  0
VISUALSTYLE
  5
41
102
{ACAD_XDICTIONARY
360
480
102
}
102
{ACAD_REACTORS
330
2A
102
}
330
2A
100
AcDbVisualStyle
  2

 70
    26
 71
     2
 72
     2
 73
     1
 90
        2
 40
-0.6
 41
30.0
 62
     5
 63
     7
421
 16777215
 74
     1
 91
       10
 64
     7
 65
   257
 75
     2
175
     1
 42
1.0
 92
        8
 66
   257
 43
1.0
 76
     1
 77
     6
 78
     2
 67
     7
 79
     3
170
     0
171
     0
290
     0
174
     0
 93
        5
 44
0.0
173
     0
291
     0
 45
0.0
1001
ACAD
1000
AcDbSavedByObjectVersion
1070
     0
  0
VISUALSTYLE
  5
3E
102
{ACAD_XDICTIONARY
360
47A
102
}
102
{ACAD_REACTORS
330
2A
102
}
330
2A
100
AcDbVisualStyle
  2

 70
    23
 71
     2
 72
     2
 73
     3
 90
        0
 40
-0.6
 41
-30.0
 62
     5
 63
     7
421
 16777215
 74
     2
 91
        2
 64
     7
 65
     7
 75
     1
175
     1
 42
40.0
 92
        8
 66
     7
 43
1.0
 76
     1
 77
     6
 78
     2
 67
     7
 79
     3
170
     0
171
     0
290
     0
174
     0
 93
        1
 44
0.0
173
     0
291
     0
 45
0.0
1001
ACAD
1000
AcDbSavedByObjectVersion
1070
     0
  0
VISUALSTYLE
  5
3F
102
{ACAD_XDICTIONARY
360
47C
102
}
102
{ACAD_REACTORS
330
2A
102
}
330
2A
100
AcDbVisualStyle
  2

 70
    24
 71
     1
 72
     2
 73
     2
 90
        0
 40
-0.6
 41
-30.0
 62
     5
 63
     7
421
 16777215
 74
     2
 91
        2
 64
     7
 65
     7
 75
     1
175
     1
 42
40.0
 92
       11
 66
     7
 43
1.0
 76
     1
 77
     6
 78
     2
 67
     7
 79
     6
170
     0
171
     0
290
     0
174
     0
 93
        1
 44
0.0
173
     0
291
     0
 45
0.0
1001
ACAD
1000
AcDbSavedByObjectVersion
1070
     0
  0
VISUALSTYLE
  5
37
102
{ACAD_XDICTIONARY
360
46C
102
}
102
{ACAD_REACTORS
330
2A
102
}
330
2A
100
AcDbVisualStyle
  2

 70
    13
 71
     2
 72
     2
 73
     0
 90
        0
 40
-0.6
 41
-30.0
 62
     5
 63
     7
421
 16777215
 74
     1
 91
        4
 64
     7
 65
   257
 75
     1
175
     1
 42
1.0
 92
       12
 66
     7
 43
1.0
 76
     1
 77
     6
 78
     2
 67
     7
 79
     5
170
     0
171
     0
290
     0
174
     0
 93
        1
 44
0.0
173
     0
291
     1
 45
0.0
1001
ACAD
1000
AcDbSavedByObjectVersion
1070
     0
  0
VISUALSTYLE
  5
30
102
{ACAD_XDICTIONARY
360
45E
102
}
102
{ACAD_REACTORS
330
2A
102
}
330
2A
100
AcDbVisualStyle
  2

 70
     5
 71
     0
 72
     2
 73
     0
 90
        0
 40
-0.6
 41
-30.0
 62
     5
 63
     7
421
 16777215
 74
     1
 91
        4
 64
     7
 65
   257
 75
     1
175
     1
 42
1.0
 92
        0
 66
   257
 43
1.0
 76
     1
 77
     6
 78
     2
 67
     7
 79
     3
170
     0
171
     0
290
     0
174
     0
 93
        1
 44
0.0
173
     0
291
     0
 45
0.0
1001
ACAD
1000
AcDbSavedByObjectVersion
1070
     0
  0
VISUALSTYLE
  5
40
102
{ACAD_XDICTIONARY
360
47E
102
}
102
{ACAD_REACTORS
330
2A
102
}
330
2A
100
AcDbVisualStyle
  2

 70
    25
 71
     2
 72
     2
 73
     1
 90
        1
 40
0.5
 41
-30.0
 62
     5
 63
     7
421
 16777215
 74
     1
 91
        0
 64
     7
 65
   257
 75
     1
175
     1
 42
1.0
 92
        8
 66
     7
 43
1.0
 76
     1
 77
     6
 78
     2
 67
     7
 79
     3
170
     0
171
     0
290
     0
174
     0
 93
       13
 44
0.0
173
     0
291
     0
 45
0.0
1001
ACAD
1000
AcDbSavedByObjectVersion
1070
     0
  0
DICTIONARYVAR
  5
378
102
{ACAD_REACTORS
330
377
102
}
330
377
100
DictionaryVariables
280
     0
  1
1:1
  0
DICTIONARYVAR
  5
3B9
102
{ACAD_REACTORS
330
377
102
}
330
377
100
DictionaryVariables
280
     0
  1
STANDARD
  0
DICTIONARYVAR
  5
3B8
102
{ACAD_REACTORS
330
377
102
}
330
377
100
DictionaryVariables
280
     0
  1
STANDARD
  0
DICTIONARYVAR
  5
446
102
{ACAD_REACTORS
330
377
102
}
330
377
100
DictionaryVariables
280
     0
  1
Metric50
  0
DICTIONARYVAR
  5
447
102
{ACAD_REACTORS
330
377
102
}
330
377
100
DictionaryVariables
280
     0
  1
Metric50
  0
DICTIONARYVAR
  5
379
102
{ACAD_REACTORS
330
377
102
}
330
377
100
DictionaryVariables
280
     0
  1
1
  0
DICTIONARYVAR
  5
448
102
{ACAD_REACTORS
330
377
102
}
330
377
100
DictionaryVariables
280
     0
  1
2
  0
DICTIONARY
  5
453
102
{ACAD_REACTORS
330
451
102
}
330
451
100
AcDbDictionary
281
     1
  0
DICTIONARY
  5
452
102
{ACAD_REACTORS
330
451
102
}
330
451
100
AcDbDictionary
281
     1
  3
1936919007552
350
44C
  3
1936919007568
350
44D
  3
1936919007584
350
44E
  3
1936919007600
350
44F
  3
1936919007616
350
450
  0
DICTIONARY
  5
487
330
3C0
100
AcDbDictionary
280
     1
281
     1
  3
ACAD_XREC_ROUNDTRIP
360
488
  0
DICTIONARY
  5
3AD
330
45
100
AcDbDictionary
280
     1
281
     1
  3
ACAD_XREC_ROUNDTRIP
360
3AE
  0
DICTIONARY
  5
3AB
330
44
100
AcDbDictionary
280
     1
281
     1
  3
ACAD_XREC_ROUNDTRIP
360
3AC
  0
DICTIONARY
  5
3AF
330
46
100
AcDbDictionary
280
     1
281
     1
  3
ACAD_XREC_ROUNDTRIP
360
3B0
  0
DICTIONARY
  5
485
330
3BF
100
AcDbDictionary
280
     1
281
     1
  3
ACAD_XREC_ROUNDTRIP
360
486
  0
DICTIONARY
  5
3B1
330
6A
100
AcDbDictionary
280
     1
281
     1
  3
ACAD_ROUNDTRIP_2008_TABLESTYLE_CELLSTYLEMAP
360
44A
  3
ACAD_XREC_ROUNDTRIP
360
484
  0
DICTIONARY
  5
45C
330
2F
100
AcDbDictionary
280
     1
281
     1
  3
ACAD_XREC_ROUNDTRIP
360
45D
  0
DICTIONARY
  5
462
330
32
100
AcDbDictionary
280
     1
281
     1
  3
ACAD_XREC_ROUNDTRIP
360
463
  0
DICTIONARY
  5
46A
330
36
100
AcDbDictionary
280
     1
281
     1
  3
ACAD_XREC_ROUNDTRIP
360
46B
  0
DICTIONARY
  5
472
330
3A
100
AcDbDictionary
280
     1
281
     1
  3
ACAD_XREC_ROUNDTRIP
360
473
  0
DICTIONARY
  5
466
330
34
100
AcDbDictionary
280
     1
281
     1
  3
ACAD_XREC_ROUNDTRIP
360
467
  0
DICTIONARY
  5
468
330
35
100
AcDbDictionary
280
     1
281
     1
  3
ACAD_XREC_ROUNDTRIP
360
469
  0
DICTIONARY
  5
478
330
3D
100
AcDbDictionary
280
     1
281
     1
  3
ACAD_XREC_ROUNDTRIP
360
479
  0
DICTIONARY
  5
470
330
39
100
AcDbDictionary
280
     1
281
     1
  3
ACAD_XREC_ROUNDTRIP
360
471
  0
DICTIONARY
  5
454
330
2B
100
AcDbDictionary
280
     1
281
     1
  3
ACAD_XREC_ROUNDTRIP
360
455
  0
DICTIONARY
  5
456
330
2C
100
AcDbDictionary
280
     1
281
     1
  3
ACAD_XREC_ROUNDTRIP
360
457
  0
DICTIONARY
  5
458
330
2D
100
AcDbDictionary
280
     1
281
     1
  3
ACAD_XREC_ROUNDTRIP
360
459
  0
DICTIONARY
  5
45A
330
2E
100
AcDbDictionary
280
     1
281
     1
  3
ACAD_XREC_ROUNDTRIP
360
45B
  0
DICTIONARY
  5
460
330
31
100
AcDbDictionary
280
     1
281
     1
  3
ACAD_XREC_ROUNDTRIP
360
461
  0
DICTIONARY
  5
474
330
3B
100
AcDbDictionary
280
     1
281
     1
  3
ACAD_XREC_ROUNDTRIP
360
475
  0
DICTIONARY
  5
46E
330
38
100
AcDbDictionary
280
     1
281
     1
  3
ACAD_XREC_ROUNDTRIP
360
46F
  0
DICTIONARY
  5
476
330
3C
100
AcDbDictionary
280
     1
281
     1
  3
ACAD_XREC_ROUNDTRIP
360
477
  0
DICTIONARY
  5
464
330
33
100
AcDbDictionary
280
     1
281
     1
  3
ACAD_XREC_ROUNDTRIP
360
465
  0
DICTIONARY
  5
482
330
42
100
AcDbDictionary
280
     1
281
     1
  3
ACAD_XREC_ROUNDTRIP
360
483
  0
DICTIONARY
  5
480
330
41
100
AcDbDictionary
280
     1
281
     1
  3
ACAD_XREC_ROUNDTRIP
360
481
  0
DICTIONARY
  5
47A
330
3E
100
AcDbDictionary
280
     1
281
     1
  3
ACAD_XREC_ROUNDTRIP
360
47B
  0
DICTIONARY
  5
47C
330
3F
100
AcDbDictionary
280
     1
281
     1
  3
ACAD_XREC_ROUNDTRIP
360
47D
  0
DICTIONARY
  5
46C
330
37
100
AcDbDictionary
280
     1
281
     1
  3
ACAD_XREC_ROUNDTRIP
360
46D
  0
DICTIONARY
  5
45E
330
30
100
AcDbDictionary
280
     1
281
     1
  3
ACAD_XREC_ROUNDTRIP
360
45F
  0
DICTIONARY
  5
47E
330
40
100
AcDbDictionary
280
     1
281
     1
  3
ACAD_XREC_ROUNDTRIP
360
47F
  0
XRECORD
  5
44C
102
{ACAD_REACTORS
330
452
102
}
330
452
100
AcDbXrecord
280
     1
  1
AcDb_Thumbnail_Schema
102
{ATTRRECORD
341
44D
  2
AcDbDs::TreatedAsObjectData
280
     1
291
     1
102
ATTRRECORD}
102
{ATTRRECORD
341
44E
  2
AcDbDs::Legacy
280
     1
291
     1
102
ATTRRECORD}
  2
AcDbDs::ID
280
    10
 91
        8
102
{ATTRRECORD
341
44F
  2
AcDs:Indexable
280
     1
291
     1
102
ATTRRECORD}
102
{ATTRRECORD
341
450
  2
AcDbDs::HandleAttribute
280
     7
282
     1
102
ATTRRECORD}
  2
Thumbnail_Data
280
    15
 91
        0
  0
XRECORD
  5
44D
102
{ACAD_REACTORS
330
452
102
}
330
452
100
AcDbXrecord
280
     1
  1
AcDbDs::TreatedAsObjectDataSchema
  2
AcDbDs::TreatedAsObjectData
280
     1
 91
        0
  0
XRECORD
  5
44E
102
{ACAD_REACTORS
330
452
102
}
330
452
100
AcDbXrecord
280
     1
  1
AcDbDs::LegacySchema
  2
AcDbDs::Legacy
280
     1
 91
        0
  0
XRECORD
  5
44F
102
{ACAD_REACTORS
330
452
102
}
330
452
100
AcDbXrecord
280
     1
  1
AcDbDs::IndexedPropertySchema
  2
AcDs:Indexable
280
     1
 91
        0
  0
XRECORD
  5
450
102
{ACAD_REACTORS
330
452
102
}
330
452
100
AcDbXrecord
280
     1
  1
AcDbDs::HandleAttributeSchema
  2
AcDbDs::HandleAttribute
280
     7
 91
        1
284
     1
  0
XRECORD
  5
488
102
{ACAD_REACTORS
330
487
102
}
330
487
100
AcDbXrecord
280
     1
102
DISPLAYNAME
  1
Metric50
102
FLAGS
 90
        0
  0
XRECORD
  5
3AE
102
{ACAD_REACTORS
330
3AD
102
}
330
3AD
100
AcDbXrecord
280
     1
102
MATERIAL
148
0.0
149
0.0
149
0.0
 93
        0
 94
      127
282
     0
 72
     1
 77
     1
171
     1
175
     1
179
     1
273
     0
  0
XRECORD
  5
3AC
102
{ACAD_REACTORS
330
3AB
102
}
330
3AB
100
AcDbXrecord
280
     1
102
MATERIAL
148
0.0
149
0.0
149
0.0
 93
        0
 94
      127
282
     0
 72
     1
 77
     1
171
     1
175
     1
179
     1
273
     0
  0
XRECORD
  5
3B0
102
{ACAD_REACTORS
330
3AF
102
}
330
3AF
100
AcDbXrecord
280
     1
102
MATERIAL
148
0.0
149
0.0
149
0.0
 93
        0
 94
      127
282
     0
 72
     1
 77
     1
171
     1
175
     1
179
     1
273
     0
  0
XRECORD
  5
486
102
{ACAD_REACTORS
330
485
102
}
330
485
100
AcDbXrecord
280
     1
102
DISPLAYNAME
  1
Metric50
102
FLAGS
 90
        0
  0
CELLSTYLEMAP
  5
44A
102
{ACAD_REACTORS
330
3B1
102
}
330
3B1
100
AcDbCellStyleMap
 90
        3
300
CELLSTYLE
  1
TABLEFORMAT_BEGIN
 90
        5
170
     1
 91
        0
 92
    32768
 62
   257
 93
        1
300
CONTENTFORMAT
  1
CONTENTFORMAT_BEGIN
 90
        0
 91
        0
 92
        4
 93
        0
300

 40
0.0
140
1.0
 94
        5
 62
     0
340
11
144
0.25
309
CONTENTFORMAT_END
171
     1
301
MARGIN
  1
CELLMARGIN_BEGIN
 40
0.06
 40
0.06
 40
0.06
 40
0.06
 40
0.18
 40
0.18
309
CELLMARGIN_END
 94
        6
 95
        1
302
GRIDFORMAT
  1
GRIDFORMAT_BEGIN
 90
        0
 91
        1
 62
     0
 92
       -2
340
14
 93
        0
 40
0.045
309
GRIDFORMAT_END
 95
        2
302
GRIDFORMAT
  1
GRIDFORMAT_BEGIN
 90
        0
 91
        1
 62
     0
 92
       -2
340
14
 93
        0
 40
0.045
309
GRIDFORMAT_END
 95
        4
302
GRIDFORMAT
  1
GRIDFORMAT_BEGIN
 90
        0
 91
        1
 62
     0
 92
       -2
340
14
 93
        0
 40
0.045
309
GRIDFORMAT_END
 95
        8
302
GRIDFORMAT
  1
GRIDFORMAT_BEGIN
 90
        0
 91
        1
 62
     0
 92
       -2
340
14
 93
        0
 40
0.045
309
GRIDFORMAT_END
 95
       16
302
GRIDFORMAT
  1
GRIDFORMAT_BEGIN
 90
        0
 91
        1
 62
     0
 92
       -2
340
14
 93
        0
 40
0.045
309
GRIDFORMAT_END
 95
       32
302
GRIDFORMAT
  1
GRIDFORMAT_BEGIN
 90
        0
 91
        1
 62
     0
 92
       -2
340
14
 93
        0
 40
0.045
309
GRIDFORMAT_END
309
TABLEFORMAT_END
  1
CELLSTYLE_BEGIN
 90
        1
 91
        1
300
_TITLE
309
CELLSTYLE_END
300
CELLSTYLE
  1
TABLEFORMAT_BEGIN
 90
        5
170
     1
 91
        0
 92
        0
 62
   257
 93
        1
300
CONTENTFORMAT
  1
CONTENTFORMAT_BEGIN
 90
        0
 91
        0
 92
        4
 93
        0
300

 40
0.0
140
1.0
 94
        5
 62
     0
340
11
144
0.18
309
CONTENTFORMAT_END
171
     1
301
MARGIN
  1
CELLMARGIN_BEGIN
 40
0.06
 40
0.06
 40
0.06
 40
0.06
 40
0.18
 40
0.18
309
CELLMARGIN_END
 94
        6
 95
        1
302
GRIDFORMAT
  1
GRIDFORMAT_BEGIN
 90
        0
 91
        1
 62
     0
 92
       -2
340
14
 93
        0
 40
0.045
309
GRIDFORMAT_END
 95
        2
302
GRIDFORMAT
  1
GRIDFORMAT_BEGIN
 90
        0
 91
        1
 62
     0
 92
       -2
340
14
 93
        0
 40
0.045
309
GRIDFORMAT_END
 95
        4
302
GRIDFORMAT
  1
GRIDFORMAT_BEGIN
 90
        0
 91
        1
 62
     0
 92
       -2
340
14
 93
        0
 40
0.045
309
GRIDFORMAT_END
 95
        8
302
GRIDFORMAT
  1
GRIDFORMAT_BEGIN
 90
        0
 91
        1
 62
     0
 92
       -2
340
14
 93
        0
 40
0.045
309
GRIDFORMAT_END
 95
       16
302
GRIDFORMAT
  1
GRIDFORMAT_BEGIN
 90
        0
 91
        1
 62
     0
 92
       -2
340
14
 93
        0
 40
0.045
309
GRIDFORMAT_END
 95
       32
302
GRIDFORMAT
  1
GRIDFORMAT_BEGIN
 90
        0
 91
        1
 62
     0
 92
       -2
340
14
 93
        0
 40
0.045
309
GRIDFORMAT_END
309
TABLEFORMAT_END
  1
CELLSTYLE_BEGIN
 90
        2
 91
        1
300
_HEADER
309
CELLSTYLE_END
300
CELLSTYLE
  1
TABLEFORMAT_BEGIN
 90
        5
170
     1
 91
        0
 92
        0
 62
   257
 93
        1
300
CONTENTFORMAT
  1
CONTENTFORMAT_BEGIN
 90
        0
 91
        0
 92
        4
 93
        0
300

 40
0.0
140
1.0
 94
        2
 62
     0
340
11
144
0.18
309
CONTENTFORMAT_END
171
     1
301
MARGIN
  1
CELLMARGIN_BEGIN
 40
0.06
 40
0.06
 40
0.06
 40
0.06
 40
0.18
 40
0.18
309
CELLMARGIN_END
 94
        6
 95
        1
302
GRIDFORMAT
  1
GRIDFORMAT_BEGIN
 90
        0
 91
        1
 62
     0
 92
       -2
340
14
 93
        0
 40
0.045
309
GRIDFORMAT_END
 95
        2
302
GRIDFORMAT
  1
GRIDFORMAT_BEGIN
 90
        0
 91
        1
 62
     0
 92
       -2
340
14
 93
        0
 40
0.045
309
GRIDFORMAT_END
 95
        4
302
GRIDFORMAT
  1
GRIDFORMAT_BEGIN
 90
        0
 91
        1
 62
     0
 92
       -2
340
14
 93
        0
 40
0.045
309
GRIDFORMAT_END
 95
        8
302
GRIDFORMAT
  1
GRIDFORMAT_BEGIN
 90
        0
 91
        1
 62
     0
 92
       -2
340
14
 93
        0
 40
0.045
309
GRIDFORMAT_END
 95
       16
302
GRIDFORMAT
  1
GRIDFORMAT_BEGIN
 90
        0
 91
        1
 62
     0
 92
       -2
340
14
 93
        0
 40
0.045
309
GRIDFORMAT_END
 95
       32
302
GRIDFORMAT
  1
GRIDFORMAT_BEGIN
 90
        0
 91
        1
 62
     0
 92
       -2
340
14
 93
        0
 40
0.045
309
GRIDFORMAT_END
309
TABLEFORMAT_END
  1
CELLSTYLE_BEGIN
 90
        3
 91
        2
300
_DATA
309
CELLSTYLE_END
  0
XRECORD
  5
484
102
{ACAD_REACTORS
330
3B1
102
}
330
3B1
100
AcDbXrecord
280
     1
102
ACAD_ROUNDTRIP_PRE2007_TABLESTYLE
 90
        4
 91
        0
  1

 92
        4
 93
        0
  2

 94
        4
 95
        0
  3

  0
XRECORD
  5
45D
102
{ACAD_REACTORS
330
45C
102
}
330
45C
100
AcDbXrecord
280
     1
102
RTVSPost2010Prop28
280
     1
102
RTVSPost2010PropOp28
 70
     1
102
RTVSPost2010Prop29
280
     1
102
RTVSPost2010PropOp29
 70
     1
102
RTVSPost2010Prop30
280
     0
102
RTVSPost2010PropOp30
 70
     1
102
RTVSPost2010Prop31
280
     0
102
RTVSPost2010PropOp31
 70
     1
102
RTVSPost2010Prop32
280
     0
102
RTVSPost2010PropOp32
 70
     1
102
RTVSPost2010Prop33
280
     0
102
RTVSPost2010PropOp33
 70
     1
102
RTVSPost2010Prop34
280
     0
102
RTVSPost2010PropOp34
 70
     1
102
RTVSPost2010Prop35
280
     0
102
RTVSPost2010PropOp35
 70
     1
102
RTVSPost2010Prop36
280
     0
102
RTVSPost2010PropOp36
 70
     1
102
RTVSPost2010Prop37
 90
       50
102
RTVSPost2010PropOp37
 70
     1
102
RTVSPost2010Prop38
140
0.0
102
RTVSPost2010PropOp38
 70
     1
102
RTVSPost2010Prop39
140
1.0
102
RTVSPost2010PropOp39
 70
     1
102
RTVSPost2010Prop40
 90
        0
102
RTVSPost2010PropOp40
 70
     1
102
RTVSPost2010Prop41ColorIndex
 90
       18
102
RTVSPost2010Prop41ColorRGB
 90
        0
102
RTVSPost2010PropOp41
 70
     1
102
RTVSPost2010Prop42
 90
       50
102
RTVSPost2010PropOp42
 70
     1
102
RTVSPost2010Prop43
 90
        3
102
RTVSPost2010PropOp43
 70
     1
102
RTVSPost2010Prop44ColorIndex
 90
        5
102
RTVSPost2010Prop44ColorRGB
 90
      255
102
RTVSPost2010PropOp44
 70
     1
102
RTVSPost2010Prop45
280
     0
102
RTVSPost2010PropOp45
 70
     1
102
RTVSPost2010Prop46
 90
       50
102
RTVSPost2010PropOp46
 70
     1
102
RTVSPost2010Prop47
 90
       50
102
RTVSPost2010PropOp47
 70
     1
102
RTVSPost2010Prop48
 90
       50
102
RTVSPost2010PropOp48
 70
     1
102
RTVSPost2010Prop49
280
     0
102
RTVSPost2010PropOp49
 70
     1
102
RTVSPost2010Prop50
 90
       50
102
RTVSPost2010PropOp50
 70
     1
102
RTVSPost2010Prop51ColorIndex
 90
      256
102
RTVSPost2010Prop51ColorRGB
 90
-16777216
102
RTVSPost2010PropOp51
 70
     0
102
RTVSPost2010Prop52
140
1.0
102
RTVSPost2010PropOp52
 70
     0
102
RTVSPost2010Prop53
 90
        2
102
RTVSPost2010PropOp53
 70
     1
102
RTVSPost2010Prop54
  1
strokes_ogs.tif
102
RTVSPost2010PropOp54
 70
     1
102
RTVSPost2010Prop55
280
     0
102
RTVSPost2010PropOp55
 70
     1
102
RTVSPost2010Prop56
140
1.0
102
RTVSPost2010PropOp56
 70
     1
102
RTVSPost2010Prop57
140
1.0
102
RTVSPost2010PropOp57
 70
     1
102
RTVSPropertyOp0
 70
     1
102
RTVSPropertyOp1
 70
     1
102
RTVSPropertyOp2
 70
     1
102
RTVSPropertyOp3
 70
     1
102
RTVSPropertyOp4
 70
     1
102
RTVSPropertyOp5
 70
     1
102
RTVSPropertyOp6
 70
     1
102
RTVSPropertyOp7
 70
     1
102
RTVSPropertyOp8
 70
     1
102
RTVSPropertyOp9
 70
     1
102
RTVSPropertyOp10
 70
     1
102
RTVSPropertyOp11
 70
     1
102
RTVSPropertyOp12
 70
     1
102
RTVSPropertyOp13
 70
     1
102
RTVSPropertyOp14
 70
     1
102
RTVSPropertyOp15
 70
     1
102
RTVSPropertyOp16
 70
     1
102
RTVSPropertyOp17
 70
     1
102
RTVSPropertyOp18
 70
     1
102
RTVSPropertyOp19
 70
     1
102
RTVSPropertyOp20
 70
     1
102
RTVSPropertyOp21
 70
     1
102
RTVSPropertyOp22
 70
     1
102
RTVSPropertyOp23
 70
     1
102
RTVSPropertyOp24
 70
     1
102
RTVSPropertyOp25
 70
     1
102
RTVSPropertyOp26
 70
     1
102
RTVSPropertyOp27
 70
     1
102
RTVSPropertyOp28
 70
     1
102
RTVSPropertyOp29
 70
     1
102
RTVSPropertyOp30
 70
     1
102
RTVSPropertyOp31
 70
     1
102
RTVSPropertyOp32
 70
     1
102
RTVSPropertyOp33
 70
     1
102
RTVSPropertyOp34
 70
     1
102
RTVSPropertyOp35
 70
     1
102
RTVSPropertyOp36
 70
     1
102
RTVSPropertyOp37
 70
     1
102
RTVSPropertyOp38
 70
     1
102
RTVSPropertyOp39
 70
     1
102
RTVSPropertyOp40
 70
     1
102
RTVSPropertyOp41
 70
     1
102
RTVSPropertyOp42
 70
     1
102
RTVSPropertyOp43
 70
     1
102
RTVSPropertyOp44
 70
     1
102
RTVSPropertyOp45
 70
     1
102
RTVSPropertyOp46
 70
     1
102
RTVSPropertyOp47
 70
     1
102
RTVSPropertyOp48
 70
     1
102
RTVSPropertyOp49
 70
     1
102
RTVSPropertyOp50
 70
     1
102
RTVSPropertyOp51
 70
     0
102
RTVSPropertyOp52
 70
     0
102
RTVSPropertyOp53
 70
     1
102
RTVSPropertyOp54
 70
     1
102
RTVSPropertyOp55
 70
     1
102
RTVSPropertyOp56
 70
     1
102
RTVSPropertyOp57
 70
     1
102
RTVSPropertyOp58
 70
     1
102
RTVSPropertyOp59
 70
     1
102
RTVSPropertyOp60
 70
     1
102
RTVSPropertyOp61
 70
     1
102
RTVSPropertyOp62
 70
     1
  0
XRECORD
  5
463
102
{ACAD_REACTORS
330
462
102
}
330
462
100
AcDbXrecord
280
     1
102
RTVSPost2010Prop28
280
     0
102
RTVSPost2010PropOp28
 70
     1
102
RTVSPost2010Prop29
280
     1
102
RTVSPost2010PropOp29
 70
     1
102
RTVSPost2010Prop30
280
     1
102
RTVSPost2010PropOp30
 70
     1
102
RTVSPost2010Prop31
280
     0
102
RTVSPost2010PropOp31
 70
     1
102
RTVSPost2010Prop32
280
     0
102
RTVSPost2010PropOp32
 70
     1
102
RTVSPost2010Prop33
280
     0
102
RTVSPost2010PropOp33
 70
     1
102
RTVSPost2010Prop34
280
     0
102
RTVSPost2010PropOp34
 70
     1
102
RTVSPost2010Prop35
280
     0
102
RTVSPost2010PropOp35
 70
     1
102
RTVSPost2010Prop36
280
     0
102
RTVSPost2010PropOp36
 70
     1
102
RTVSPost2010Prop37
 90
       50
102
RTVSPost2010PropOp37
 70
     1
102
RTVSPost2010Prop38
140
0.0
102
RTVSPost2010PropOp38
 70
     1
102
RTVSPost2010Prop39
140
1.0
102
RTVSPost2010PropOp39
 70
     1
102
RTVSPost2010Prop40
 90
        0
102
RTVSPost2010PropOp40
 70
     1
102
RTVSPost2010Prop41ColorIndex
 90
       18
102
RTVSPost2010Prop41ColorRGB
 90
        0
102
RTVSPost2010PropOp41
 70
     1
102
RTVSPost2010Prop42
 90
       50
102
RTVSPost2010PropOp42
 70
     1
102
RTVSPost2010Prop43
 90
        3
102
RTVSPost2010PropOp43
 70
     1
102
RTVSPost2010Prop44ColorIndex
 90
        5
102
RTVSPost2010Prop44ColorRGB
 90
      255
102
RTVSPost2010PropOp44
 70
     1
102
RTVSPost2010Prop45
280
     0
102
RTVSPost2010PropOp45
 70
     1
102
RTVSPost2010Prop46
 90
       50
102
RTVSPost2010PropOp46
 70
     1
102
RTVSPost2010Prop47
 90
       50
102
RTVSPost2010PropOp47
 70
     1
102
RTVSPost2010Prop48
 90
       50
102
RTVSPost2010PropOp48
 70
     1
102
RTVSPost2010Prop49
280
     0
102
RTVSPost2010PropOp49
 70
     1
102
RTVSPost2010Prop50
 90
       50
102
RTVSPost2010PropOp50
 70
     1
102
RTVSPost2010Prop51ColorIndex
 90
      256
102
RTVSPost2010Prop51ColorRGB
 90
-16777216
102
RTVSPost2010PropOp51
 70
     0
102
RTVSPost2010Prop52
140
1.0
102
RTVSPost2010PropOp52
 70
     0
102
RTVSPost2010Prop53
 90
        2
102
RTVSPost2010PropOp53
 70
     1
102
RTVSPost2010Prop54
  1
strokes_ogs.tif
102
RTVSPost2010PropOp54
 70
     1
102
RTVSPost2010Prop55
280
     0
102
RTVSPost2010PropOp55
 70
     1
102
RTVSPost2010Prop56
140
1.0
102
RTVSPost2010PropOp56
 70
     1
102
RTVSPost2010Prop57
140
1.0
102
RTVSPost2010PropOp57
 70
     1
102
RTVSPropertyOp0
 70
     1
102
RTVSPropertyOp1
 70
     1
102
RTVSPropertyOp2
 70
     1
102
RTVSPropertyOp3
 70
     1
102
RTVSPropertyOp4
 70
     1
102
RTVSPropertyOp5
 70
     1
102
RTVSPropertyOp6
 70
     1
102
RTVSPropertyOp7
 70
     1
102
RTVSPropertyOp8
 70
     1
102
RTVSPropertyOp9
 70
     1
102
RTVSPropertyOp10
 70
     1
102
RTVSPropertyOp11
 70
     1
102
RTVSPropertyOp12
 70
     1
102
RTVSPropertyOp13
 70
     1
102
RTVSPropertyOp14
 70
     1
102
RTVSPropertyOp15
 70
     1
102
RTVSPropertyOp16
 70
     1
102
RTVSPropertyOp17
 70
     1
102
RTVSPropertyOp18
 70
     1
102
RTVSPropertyOp19
 70
     1
102
RTVSPropertyOp20
 70
     1
102
RTVSPropertyOp21
 70
     1
102
RTVSPropertyOp22
 70
     1
102
RTVSPropertyOp23
 70
     1
102
RTVSPropertyOp24
 70
     1
102
RTVSPropertyOp25
 70
     1
102
RTVSPropertyOp26
 70
     1
102
RTVSPropertyOp27
 70
     1
102
RTVSPropertyOp28
 70
     1
102
RTVSPropertyOp29
 70
     1
102
RTVSPropertyOp30
 70
     1
102
RTVSPropertyOp31
 70
     1
102
RTVSPropertyOp32
 70
     1
102
RTVSPropertyOp33
 70
     1
102
RTVSPropertyOp34
 70
     1
102
RTVSPropertyOp35
 70
     1
102
RTVSPropertyOp36
 70
     1
102
RTVSPropertyOp37
 70
     1
102
RTVSPropertyOp38
 70
     1
102
RTVSPropertyOp39
 70
     1
102
RTVSPropertyOp40
 70
     1
102
RTVSPropertyOp41
 70
     1
102
RTVSPropertyOp42
 70
     1
102
RTVSPropertyOp43
 70
     1
102
RTVSPropertyOp44
 70
     1
102
RTVSPropertyOp45
 70
     1
102
RTVSPropertyOp46
 70
     1
102
RTVSPropertyOp47
 70
     1
102
RTVSPropertyOp48
 70
     1
102
RTVSPropertyOp49
 70
     1
102
RTVSPropertyOp50
 70
     1
102
RTVSPropertyOp51
 70
     0
102
RTVSPropertyOp52
 70
     0
102
RTVSPropertyOp53
 70
     1
102
RTVSPropertyOp54
 70
     1
102
RTVSPropertyOp55
 70
     1
102
RTVSPropertyOp56
 70
     1
102
RTVSPropertyOp57
 70
     1
102
RTVSPropertyOp58
 70
     1
102
RTVSPropertyOp59
 70
     1
102
RTVSPropertyOp60
 70
     1
102
RTVSPropertyOp61
 70
     1
102
RTVSPropertyOp62
 70
     1
  0
XRECORD
  5
46B
102
{ACAD_REACTORS
330
46A
102
}
330
46A
100
AcDbXrecord
280
     1
102
RTVSPost2010Prop28
280
     0
102
RTVSPost2010PropOp28
 70
     1
102
RTVSPost2010Prop29
280
     1
102
RTVSPost2010PropOp29
 70
     1
102
RTVSPost2010Prop30
280
     1
102
RTVSPost2010PropOp30
 70
     1
102
RTVSPost2010Prop31
280
     0
102
RTVSPost2010PropOp31
 70
     1
102
RTVSPost2010Prop32
280
     0
102
RTVSPost2010PropOp32
 70
     1
102
RTVSPost2010Prop33
280
     0
102
RTVSPost2010PropOp33
 70
     1
102
RTVSPost2010Prop34
280
     0
102
RTVSPost2010PropOp34
 70
     1
102
RTVSPost2010Prop35
280
     0
102
RTVSPost2010PropOp35
 70
     1
102
RTVSPost2010Prop36
280
     0
102
RTVSPost2010PropOp36
 70
     1
102
RTVSPost2010Prop37
 90
       50
102
RTVSPost2010PropOp37
 70
     1
102
RTVSPost2010Prop38
140
0.0
102
RTVSPost2010PropOp38
 70
     1
102
RTVSPost2010Prop39
140
1.0
102
RTVSPost2010PropOp39
 70
     1
102
RTVSPost2010Prop40
 90
        0
102
RTVSPost2010PropOp40
 70
     1
102
RTVSPost2010Prop41ColorIndex
 90
       18
102
RTVSPost2010Prop41ColorRGB
 90
        0
102
RTVSPost2010PropOp41
 70
     1
102
RTVSPost2010Prop42
 90
       50
102
RTVSPost2010PropOp42
 70
     1
102
RTVSPost2010Prop43
 90
        3
102
RTVSPost2010PropOp43
 70
     1
102
RTVSPost2010Prop44ColorIndex
 90
        5
102
RTVSPost2010Prop44ColorRGB
 90
      255
102
RTVSPost2010PropOp44
 70
     1
102
RTVSPost2010Prop45
280
     0
102
RTVSPost2010PropOp45
 70
     1
102
RTVSPost2010Prop46
 90
       50
102
RTVSPost2010PropOp46
 70
     1
102
RTVSPost2010Prop47
 90
       50
102
RTVSPost2010PropOp47
 70
     1
102
RTVSPost2010Prop48
 90
       50
102
RTVSPost2010PropOp48
 70
     1
102
RTVSPost2010Prop49
280
     0
102
RTVSPost2010PropOp49
 70
     1
102
RTVSPost2010Prop50
 90
       50
102
RTVSPost2010PropOp50
 70
     1
102
RTVSPost2010Prop51ColorIndex
 90
      256
102
RTVSPost2010Prop51ColorRGB
 90
-16777216
102
RTVSPost2010PropOp51
 70
     0
102
RTVSPost2010Prop52
140
1.0
102
RTVSPost2010PropOp52
 70
     0
102
RTVSPost2010Prop53
 90
        2
102
RTVSPost2010PropOp53
 70
     1
102
RTVSPost2010Prop54
  1
strokes_ogs.tif
102
RTVSPost2010PropOp54
 70
     1
102
RTVSPost2010Prop55
280
     0
102
RTVSPost2010PropOp55
 70
     1
102
RTVSPost2010Prop56
140
1.0
102
RTVSPost2010PropOp56
 70
     1
102
RTVSPost2010Prop57
140
1.0
102
RTVSPost2010PropOp57
 70
     1
102
RTVSPropertyOp0
 70
     1
102
RTVSPropertyOp1
 70
     1
102
RTVSPropertyOp2
 70
     1
102
RTVSPropertyOp3
 70
     1
102
RTVSPropertyOp4
 70
     1
102
RTVSPropertyOp5
 70
     1
102
RTVSPropertyOp6
 70
     1
102
RTVSPropertyOp7
 70
     1
102
RTVSPropertyOp8
 70
     1
102
RTVSPropertyOp9
 70
     1
102
RTVSPropertyOp10
 70
     1
102
RTVSPropertyOp11
 70
     1
102
RTVSPropertyOp12
 70
     1
102
RTVSPropertyOp13
 70
     1
102
RTVSPropertyOp14
 70
     1
102
RTVSPropertyOp15
 70
     1
102
RTVSPropertyOp16
 70
     1
102
RTVSPropertyOp17
 70
     1
102
RTVSPropertyOp18
 70
     1
102
RTVSPropertyOp19
 70
     1
102
RTVSPropertyOp20
 70
     1
102
RTVSPropertyOp21
 70
     1
102
RTVSPropertyOp22
 70
     1
102
RTVSPropertyOp23
 70
     1
102
RTVSPropertyOp24
 70
     1
102
RTVSPropertyOp25
 70
     1
102
RTVSPropertyOp26
 70
     1
102
RTVSPropertyOp27
 70
     1
102
RTVSPropertyOp28
 70
     1
102
RTVSPropertyOp29
 70
     1
102
RTVSPropertyOp30
 70
     1
102
RTVSPropertyOp31
 70
     1
102
RTVSPropertyOp32
 70
     1
102
RTVSPropertyOp33
 70
     1
102
RTVSPropertyOp34
 70
     1
102
RTVSPropertyOp35
 70
     1
102
RTVSPropertyOp36
 70
     1
102
RTVSPropertyOp37
 70
     1
102
RTVSPropertyOp38
 70
     1
102
RTVSPropertyOp39
 70
     1
102
RTVSPropertyOp40
 70
     1
102
RTVSPropertyOp41
 70
     1
102
RTVSPropertyOp42
 70
     1
102
RTVSPropertyOp43
 70
     1
102
RTVSPropertyOp44
 70
     1
102
RTVSPropertyOp45
 70
     1
102
RTVSPropertyOp46
 70
     1
102
RTVSPropertyOp47
 70
     1
102
RTVSPropertyOp48
 70
     1
102
RTVSPropertyOp49
 70
     1
102
RTVSPropertyOp50
 70
     1
102
RTVSPropertyOp51
 70
     0
102
RTVSPropertyOp52
 70
     0
102
RTVSPropertyOp53
 70
     1
102
RTVSPropertyOp54
 70
     1
102
RTVSPropertyOp55
 70
     1
102
RTVSPropertyOp56
 70
     1
102
RTVSPropertyOp57
 70
     1
102
RTVSPropertyOp58
 70
     1
102
RTVSPropertyOp59
 70
     1
102
RTVSPropertyOp60
 70
     1
102
RTVSPropertyOp61
 70
     1
102
RTVSPropertyOp62
 70
     1
  0
XRECORD
  5
473
102
{ACAD_REACTORS
330
472
102
}
330
472
100
AcDbXrecord
280
     1
102
RTVSPost2010Prop28
280
     0
102
RTVSPost2010PropOp28
 70
     1
102
RTVSPost2010Prop29
280
     1
102
RTVSPost2010PropOp29
 70
     1
102
RTVSPost2010Prop30
280
     1
102
RTVSPost2010PropOp30
 70
     1
102
RTVSPost2010Prop31
280
     0
102
RTVSPost2010PropOp31
 70
     1
102
RTVSPost2010Prop32
280
     0
102
RTVSPost2010PropOp32
 70
     1
102
RTVSPost2010Prop33
280
     0
102
RTVSPost2010PropOp33
 70
     1
102
RTVSPost2010Prop34
280
     0
102
RTVSPost2010PropOp34
 70
     1
102
RTVSPost2010Prop35
280
     0
102
RTVSPost2010PropOp35
 70
     1
102
RTVSPost2010Prop36
280
     0
102
RTVSPost2010PropOp36
 70
     1
102
RTVSPost2010Prop37
 90
       50
102
RTVSPost2010PropOp37
 70
     1
102
RTVSPost2010Prop38
140
0.0
102
RTVSPost2010PropOp38
 70
     1
102
RTVSPost2010Prop39
140
1.0
102
RTVSPost2010PropOp39
 70
     1
102
RTVSPost2010Prop40
 90
        0
102
RTVSPost2010PropOp40
 70
     1
102
RTVSPost2010Prop41ColorIndex
 90
       18
102
RTVSPost2010Prop41ColorRGB
 90
        0
102
RTVSPost2010PropOp41
 70
     1
102
RTVSPost2010Prop42
 90
       50
102
RTVSPost2010PropOp42
 70
     1
102
RTVSPost2010Prop43
 90
        3
102
RTVSPost2010PropOp43
 70
     1
102
RTVSPost2010Prop44ColorIndex
 90
        5
102
RTVSPost2010Prop44ColorRGB
 90
      255
102
RTVSPost2010PropOp44
 70
     1
102
RTVSPost2010Prop45
280
     0
102
RTVSPost2010PropOp45
 70
     1
102
RTVSPost2010Prop46
 90
       50
102
RTVSPost2010PropOp46
 70
     1
102
RTVSPost2010Prop47
 90
       50
102
RTVSPost2010PropOp47
 70
     1
102
RTVSPost2010Prop48
 90
       50
102
RTVSPost2010PropOp48
 70
     1
102
RTVSPost2010Prop49
280
     0
102
RTVSPost2010PropOp49
 70
     1
102
RTVSPost2010Prop50
 90
       50
102
RTVSPost2010PropOp50
 70
     1
102
RTVSPost2010Prop51ColorIndex
 90
      256
102
RTVSPost2010Prop51ColorRGB
 90
-16777216
102
RTVSPost2010PropOp51
 70
     0
102
RTVSPost2010Prop52
140
1.0
102
RTVSPost2010PropOp52
 70
     0
102
RTVSPost2010Prop53
 90
        2
102
RTVSPost2010PropOp53
 70
     1
102
RTVSPost2010Prop54
  1
strokes_ogs.tif
102
RTVSPost2010PropOp54
 70
     1
102
RTVSPost2010Prop55
280
     0
102
RTVSPost2010PropOp55
 70
     1
102
RTVSPost2010Prop56
140
1.0
102
RTVSPost2010PropOp56
 70
     1
102
RTVSPost2010Prop57
140
1.0
102
RTVSPost2010PropOp57
 70
     1
102
RTVSPropertyOp0
 70
     1
102
RTVSPropertyOp1
 70
     1
102
RTVSPropertyOp2
 70
     1
102
RTVSPropertyOp3
 70
     1
102
RTVSPropertyOp4
 70
     1
102
RTVSPropertyOp5
 70
     1
102
RTVSPropertyOp6
 70
     1
102
RTVSPropertyOp7
 70
     1
102
RTVSPropertyOp8
 70
     1
102
RTVSPropertyOp9
 70
     1
102
RTVSPropertyOp10
 70
     1
102
RTVSPropertyOp11
 70
     1
102
RTVSPropertyOp12
 70
     1
102
RTVSPropertyOp13
 70
     1
102
RTVSPropertyOp14
 70
     1
102
RTVSPropertyOp15
 70
     1
102
RTVSPropertyOp16
 70
     1
102
RTVSPropertyOp17
 70
     1
102
RTVSPropertyOp18
 70
     1
102
RTVSPropertyOp19
 70
     1
102
RTVSPropertyOp20
 70
     1
102
RTVSPropertyOp21
 70
     1
102
RTVSPropertyOp22
 70
     1
102
RTVSPropertyOp23
 70
     1
102
RTVSPropertyOp24
 70
     1
102
RTVSPropertyOp25
 70
     1
102
RTVSPropertyOp26
 70
     1
102
RTVSPropertyOp27
 70
     1
102
RTVSPropertyOp28
 70
     1
102
RTVSPropertyOp29
 70
     1
102
RTVSPropertyOp30
 70
     1
102
RTVSPropertyOp31
 70
     1
102
RTVSPropertyOp32
 70
     1
102
RTVSPropertyOp33
 70
     1
102
RTVSPropertyOp34
 70
     1
102
RTVSPropertyOp35
 70
     1
102
RTVSPropertyOp36
 70
     1
102
RTVSPropertyOp37
 70
     1
102
RTVSPropertyOp38
 70
     1
102
RTVSPropertyOp39
 70
     1
102
RTVSPropertyOp40
 70
     1
102
RTVSPropertyOp41
 70
     1
102
RTVSPropertyOp42
 70
     1
102
RTVSPropertyOp43
 70
     1
102
RTVSPropertyOp44
 70
     1
102
RTVSPropertyOp45
 70
     1
102
RTVSPropertyOp46
 70
     1
102
RTVSPropertyOp47
 70
     1
102
RTVSPropertyOp48
 70
     1
102
RTVSPropertyOp49
 70
     1
102
RTVSPropertyOp50
 70
     1
102
RTVSPropertyOp51
 70
     0
102
RTVSPropertyOp52
 70
     0
102
RTVSPropertyOp53
 70
     1
102
RTVSPropertyOp54
 70
     1
102
RTVSPropertyOp55
 70
     1
102
RTVSPropertyOp56
 70
     1
102
RTVSPropertyOp57
 70
     1
102
RTVSPropertyOp58
 70
     1
102
RTVSPropertyOp59
 70
     1
102
RTVSPropertyOp60
 70
     1
102
RTVSPropertyOp61
 70
     1
102
RTVSPropertyOp62
 70
     1
  0
XRECORD
  5
467
102
{ACAD_REACTORS
330
466
102
}
330
466
100
AcDbXrecord
280
     1
102
RTVSPost2010Prop28
280
     0
102
RTVSPost2010PropOp28
 70
     1
102
RTVSPost2010Prop29
280
     1
102
RTVSPost2010PropOp29
 70
     1
102
RTVSPost2010Prop30
280
     1
102
RTVSPost2010PropOp30
 70
     1
102
RTVSPost2010Prop31
280
     0
102
RTVSPost2010PropOp31
 70
     1
102
RTVSPost2010Prop32
280
     0
102
RTVSPost2010PropOp32
 70
     1
102
RTVSPost2010Prop33
280
     0
102
RTVSPost2010PropOp33
 70
     1
102
RTVSPost2010Prop34
280
     0
102
RTVSPost2010PropOp34
 70
     1
102
RTVSPost2010Prop35
280
     0
102
RTVSPost2010PropOp35
 70
     1
102
RTVSPost2010Prop36
280
     0
102
RTVSPost2010PropOp36
 70
     1
102
RTVSPost2010Prop37
 90
       50
102
RTVSPost2010PropOp37
 70
     1
102
RTVSPost2010Prop38
140
0.0
102
RTVSPost2010PropOp38
 70
     1
102
RTVSPost2010Prop39
140
1.0
102
RTVSPost2010PropOp39
 70
     1
102
RTVSPost2010Prop40
 90
        0
102
RTVSPost2010PropOp40
 70
     1
102
RTVSPost2010Prop41ColorIndex
 90
       18
102
RTVSPost2010Prop41ColorRGB
 90
        0
102
RTVSPost2010PropOp41
 70
     1
102
RTVSPost2010Prop42
 90
       50
102
RTVSPost2010PropOp42
 70
     1
102
RTVSPost2010Prop43
 90
        3
102
RTVSPost2010PropOp43
 70
     1
102
RTVSPost2010Prop44ColorIndex
 90
        5
102
RTVSPost2010Prop44ColorRGB
 90
      255
102
RTVSPost2010PropOp44
 70
     1
102
RTVSPost2010Prop45
280
     0
102
RTVSPost2010PropOp45
 70
     1
102
RTVSPost2010Prop46
 90
       50
102
RTVSPost2010PropOp46
 70
     1
102
RTVSPost2010Prop47
 90
       50
102
RTVSPost2010PropOp47
 70
     1
102
RTVSPost2010Prop48
 90
       50
102
RTVSPost2010PropOp48
 70
     1
102
RTVSPost2010Prop49
280
     0
102
RTVSPost2010PropOp49
 70
     1
102
RTVSPost2010Prop50
 90
       50
102
RTVSPost2010PropOp50
 70
     1
102
RTVSPost2010Prop51ColorIndex
 90
      256
102
RTVSPost2010Prop51ColorRGB
 90
-16777216
102
RTVSPost2010PropOp51
 70
     0
102
RTVSPost2010Prop52
140
1.0
102
RTVSPost2010PropOp52
 70
     0
102
RTVSPost2010Prop53
 90
        2
102
RTVSPost2010PropOp53
 70
     1
102
RTVSPost2010Prop54
  1
strokes_ogs.tif
102
RTVSPost2010PropOp54
 70
     1
102
RTVSPost2010Prop55
280
     0
102
RTVSPost2010PropOp55
 70
     1
102
RTVSPost2010Prop56
140
1.0
102
RTVSPost2010PropOp56
 70
     1
102
RTVSPost2010Prop57
140
1.0
102
RTVSPost2010PropOp57
 70
     1
102
RTVSPropertyOp0
 70
     1
102
RTVSPropertyOp1
 70
     1
102
RTVSPropertyOp2
 70
     1
102
RTVSPropertyOp3
 70
     1
102
RTVSPropertyOp4
 70
     1
102
RTVSPropertyOp5
 70
     1
102
RTVSPropertyOp6
 70
     1
102
RTVSPropertyOp7
 70
     1
102
RTVSPropertyOp8
 70
     1
102
RTVSPropertyOp9
 70
     1
102
RTVSPropertyOp10
 70
     1
102
RTVSPropertyOp11
 70
     1
102
RTVSPropertyOp12
 70
     1
102
RTVSPropertyOp13
 70
     1
102
RTVSPropertyOp14
 70
     1
102
RTVSPropertyOp15
 70
     1
102
RTVSPropertyOp16
 70
     1
102
RTVSPropertyOp17
 70
     1
102
RTVSPropertyOp18
 70
     1
102
RTVSPropertyOp19
 70
     1
102
RTVSPropertyOp20
 70
     1
102
RTVSPropertyOp21
 70
     1
102
RTVSPropertyOp22
 70
     1
102
RTVSPropertyOp23
 70
     1
102
RTVSPropertyOp24
 70
     1
102
RTVSPropertyOp25
 70
     1
102
RTVSPropertyOp26
 70
     1
102
RTVSPropertyOp27
 70
     1
102
RTVSPropertyOp28
 70
     1
102
RTVSPropertyOp29
 70
     1
102
RTVSPropertyOp30
 70
     1
102
RTVSPropertyOp31
 70
     1
102
RTVSPropertyOp32
 70
     1
102
RTVSPropertyOp33
 70
     1
102
RTVSPropertyOp34
 70
     1
102
RTVSPropertyOp35
 70
     1
102
RTVSPropertyOp36
 70
     1
102
RTVSPropertyOp37
 70
     1
102
RTVSPropertyOp38
 70
     1
102
RTVSPropertyOp39
 70
     1
102
RTVSPropertyOp40
 70
     1
102
RTVSPropertyOp41
 70
     1
102
RTVSPropertyOp42
 70
     1
102
RTVSPropertyOp43
 70
     1
102
RTVSPropertyOp44
 70
     1
102
RTVSPropertyOp45
 70
     1
102
RTVSPropertyOp46
 70
     1
102
RTVSPropertyOp47
 70
     1
102
RTVSPropertyOp48
 70
     1
102
RTVSPropertyOp49
 70
     1
102
RTVSPropertyOp50
 70
     1
102
RTVSPropertyOp51
 70
     0
102
RTVSPropertyOp52
 70
     0
102
RTVSPropertyOp53
 70
     1
102
RTVSPropertyOp54
 70
     1
102
RTVSPropertyOp55
 70
     1
102
RTVSPropertyOp56
 70
     1
102
RTVSPropertyOp57
 70
     1
102
RTVSPropertyOp58
 70
     1
102
RTVSPropertyOp59
 70
     1
102
RTVSPropertyOp60
 70
     1
102
RTVSPropertyOp61
 70
     1
102
RTVSPropertyOp62
 70
     1
  0
XRECORD
  5
469
102
{ACAD_REACTORS
330
468
102
}
330
468
100
AcDbXrecord
280
     1
102
RTVSPost2010Prop28
280
     0
102
RTVSPost2010PropOp28
 70
     1
102
RTVSPost2010Prop29
280
     1
102
RTVSPost2010PropOp29
 70
     1
102
RTVSPost2010Prop30
280
     1
102
RTVSPost2010PropOp30
 70
     1
102
RTVSPost2010Prop31
280
     0
102
RTVSPost2010PropOp31
 70
     1
102
RTVSPost2010Prop32
280
     0
102
RTVSPost2010PropOp32
 70
     1
102
RTVSPost2010Prop33
280
     0
102
RTVSPost2010PropOp33
 70
     1
102
RTVSPost2010Prop34
280
     0
102
RTVSPost2010PropOp34
 70
     1
102
RTVSPost2010Prop35
280
     0
102
RTVSPost2010PropOp35
 70
     1
102
RTVSPost2010Prop36
280
     0
102
RTVSPost2010PropOp36
 70
     1
102
RTVSPost2010Prop37
 90
       50
102
RTVSPost2010PropOp37
 70
     1
102
RTVSPost2010Prop38
140
0.0
102
RTVSPost2010PropOp38
 70
     1
102
RTVSPost2010Prop39
140
1.0
102
RTVSPost2010PropOp39
 70
     1
102
RTVSPost2010Prop40
 90
        0
102
RTVSPost2010PropOp40
 70
     1
102
RTVSPost2010Prop41ColorIndex
 90
       18
102
RTVSPost2010Prop41ColorRGB
 90
        0
102
RTVSPost2010PropOp41
 70
     1
102
RTVSPost2010Prop42
 90
       50
102
RTVSPost2010PropOp42
 70
     1
102
RTVSPost2010Prop43
 90
        3
102
RTVSPost2010PropOp43
 70
     1
102
RTVSPost2010Prop44ColorIndex
 90
        5
102
RTVSPost2010Prop44ColorRGB
 90
      255
102
RTVSPost2010PropOp44
 70
     1
102
RTVSPost2010Prop45
280
     0
102
RTVSPost2010PropOp45
 70
     1
102
RTVSPost2010Prop46
 90
       50
102
RTVSPost2010PropOp46
 70
     1
102
RTVSPost2010Prop47
 90
       50
102
RTVSPost2010PropOp47
 70
     1
102
RTVSPost2010Prop48
 90
       50
102
RTVSPost2010PropOp48
 70
     1
102
RTVSPost2010Prop49
280
     0
102
RTVSPost2010PropOp49
 70
     1
102
RTVSPost2010Prop50
 90
       50
102
RTVSPost2010PropOp50
 70
     1
102
RTVSPost2010Prop51ColorIndex
 90
      256
102
RTVSPost2010Prop51ColorRGB
 90
-16777216
102
RTVSPost2010PropOp51
 70
     0
102
RTVSPost2010Prop52
140
1.0
102
RTVSPost2010PropOp52
 70
     0
102
RTVSPost2010Prop53
 90
        2
102
RTVSPost2010PropOp53
 70
     1
102
RTVSPost2010Prop54
  1
strokes_ogs.tif
102
RTVSPost2010PropOp54
 70
     1
102
RTVSPost2010Prop55
280
     0
102
RTVSPost2010PropOp55
 70
     1
102
RTVSPost2010Prop56
140
1.0
102
RTVSPost2010PropOp56
 70
     1
102
RTVSPost2010Prop57
140
1.0
102
RTVSPost2010PropOp57
 70
     1
102
RTVSPropertyOp0
 70
     1
102
RTVSPropertyOp1
 70
     1
102
RTVSPropertyOp2
 70
     1
102
RTVSPropertyOp3
 70
     1
102
RTVSPropertyOp4
 70
     1
102
RTVSPropertyOp5
 70
     1
102
RTVSPropertyOp6
 70
     1
102
RTVSPropertyOp7
 70
     1
102
RTVSPropertyOp8
 70
     1
102
RTVSPropertyOp9
 70
     1
102
RTVSPropertyOp10
 70
     1
102
RTVSPropertyOp11
 70
     1
102
RTVSPropertyOp12
 70
     1
102
RTVSPropertyOp13
 70
     1
102
RTVSPropertyOp14
 70
     1
102
RTVSPropertyOp15
 70
     1
102
RTVSPropertyOp16
 70
     1
102
RTVSPropertyOp17
 70
     1
102
RTVSPropertyOp18
 70
     1
102
RTVSPropertyOp19
 70
     1
102
RTVSPropertyOp20
 70
     1
102
RTVSPropertyOp21
 70
     1
102
RTVSPropertyOp22
 70
     1
102
RTVSPropertyOp23
 70
     1
102
RTVSPropertyOp24
 70
     1
102
RTVSPropertyOp25
 70
     1
102
RTVSPropertyOp26
 70
     1
102
RTVSPropertyOp27
 70
     1
102
RTVSPropertyOp28
 70
     1
102
RTVSPropertyOp29
 70
     1
102
RTVSPropertyOp30
 70
     1
102
RTVSPropertyOp31
 70
     1
102
RTVSPropertyOp32
 70
     1
102
RTVSPropertyOp33
 70
     1
102
RTVSPropertyOp34
 70
     1
102
RTVSPropertyOp35
 70
     1
102
RTVSPropertyOp36
 70
     1
102
RTVSPropertyOp37
 70
     1
102
RTVSPropertyOp38
 70
     1
102
RTVSPropertyOp39
 70
     1
102
RTVSPropertyOp40
 70
     1
102
RTVSPropertyOp41
 70
     1
102
RTVSPropertyOp42
 70
     1
102
RTVSPropertyOp43
 70
     1
102
RTVSPropertyOp44
 70
     1
102
RTVSPropertyOp45
 70
     1
102
RTVSPropertyOp46
 70
     1
102
RTVSPropertyOp47
 70
     1
102
RTVSPropertyOp48
 70
     1
102
RTVSPropertyOp49
 70
     1
102
RTVSPropertyOp50
 70
     1
102
RTVSPropertyOp51
 70
     0
102
RTVSPropertyOp52
 70
     0
102
RTVSPropertyOp53
 70
     1
102
RTVSPropertyOp54
 70
     1
102
RTVSPropertyOp55
 70
     1
102
RTVSPropertyOp56
 70
     1
102
RTVSPropertyOp57
 70
     1
102
RTVSPropertyOp58
 70
     1
102
RTVSPropertyOp59
 70
     1
102
RTVSPropertyOp60
 70
     1
102
RTVSPropertyOp61
 70
     1
102
RTVSPropertyOp62
 70
     1
  0
XRECORD
  5
479
102
{ACAD_REACTORS
330
478
102
}
330
478
100
AcDbXrecord
280
     1
102
RTVSPost2010Prop28
280
     0
102
RTVSPost2010PropOp28
 70
     0
102
RTVSPost2010Prop29
280
     1
102
RTVSPost2010PropOp29
 70
     0
102
RTVSPost2010Prop30
280
     1
102
RTVSPost2010PropOp30
 70
     0
102
RTVSPost2010Prop31
280
     0
102
RTVSPost2010PropOp31
 70
     0
102
RTVSPost2010Prop32
280
     0
102
RTVSPost2010PropOp32
 70
     0
102
RTVSPost2010Prop33
280
     0
102
RTVSPost2010PropOp33
 70
     0
102
RTVSPost2010Prop34
280
     0
102
RTVSPost2010PropOp34
 70
     0
102
RTVSPost2010Prop35
280
     0
102
RTVSPost2010PropOp35
 70
     0
102
RTVSPost2010Prop36
280
     0
102
RTVSPost2010PropOp36
 70
     0
102
RTVSPost2010Prop37
 90
       50
102
RTVSPost2010PropOp37
 70
     0
102
RTVSPost2010Prop38
140
0.0
102
RTVSPost2010PropOp38
 70
     0
102
RTVSPost2010Prop39
140
1.0
102
RTVSPost2010PropOp39
 70
     0
102
RTVSPost2010Prop40
 90
        0
102
RTVSPost2010PropOp40
 70
     0
102
RTVSPost2010Prop41ColorIndex
 90
       18
102
RTVSPost2010Prop41ColorRGB
 90
        0
102
RTVSPost2010PropOp41
 70
     0
102
RTVSPost2010Prop42
 90
       50
102
RTVSPost2010PropOp42
 70
     0
102
RTVSPost2010Prop43
 90
        3
102
RTVSPost2010PropOp43
 70
     0
102
RTVSPost2010Prop44ColorIndex
 90
        5
102
RTVSPost2010Prop44ColorRGB
 90
      255
102
RTVSPost2010PropOp44
 70
     0
102
RTVSPost2010Prop45
280
     0
102
RTVSPost2010PropOp45
 70
     0
102
RTVSPost2010Prop46
 90
       50
102
RTVSPost2010PropOp46
 70
     0
102
RTVSPost2010Prop47
 90
       50
102
RTVSPost2010PropOp47
 70
     0
102
RTVSPost2010Prop48
 90
       50
102
RTVSPost2010PropOp48
 70
     0
102
RTVSPost2010Prop49
280
     0
102
RTVSPost2010PropOp49
 70
     0
102
RTVSPost2010Prop50
 90
       50
102
RTVSPost2010PropOp50
 70
     0
102
RTVSPost2010Prop51ColorIndex
 90
      256
102
RTVSPost2010Prop51ColorRGB
 90
-16777216
102
RTVSPost2010PropOp51
 70
     0
102
RTVSPost2010Prop52
140
1.0
102
RTVSPost2010PropOp52
 70
     0
102
RTVSPost2010Prop53
 90
        2
102
RTVSPost2010PropOp53
 70
     0
102
RTVSPost2010Prop54
  1
strokes_ogs.tif
102
RTVSPost2010PropOp54
 70
     0
102
RTVSPost2010Prop55
280
     0
102
RTVSPost2010PropOp55
 70
     0
102
RTVSPost2010Prop56
140
1.0
102
RTVSPost2010PropOp56
 70
     0
102
RTVSPost2010Prop57
140
1.0
102
RTVSPost2010PropOp57
 70
     0
102
RTVSPropertyOp0
 70
     0
102
RTVSPropertyOp1
 70
     0
102
RTVSPropertyOp2
 70
     0
102
RTVSPropertyOp3
 70
     0
102
RTVSPropertyOp4
 70
     0
102
RTVSPropertyOp5
 70
     0
102
RTVSPropertyOp6
 70
     0
102
RTVSPropertyOp7
 70
     0
102
RTVSPropertyOp8
 70
     0
102
RTVSPropertyOp9
 70
     0
102
RTVSPropertyOp10
 70
     0
102
RTVSPropertyOp11
 70
     0
102
RTVSPropertyOp12
 70
     0
102
RTVSPropertyOp13
 70
     0
102
RTVSPropertyOp14
 70
     2
102
RTVSPropertyOp15
 70
     0
102
RTVSPropertyOp16
 70
     0
102
RTVSPropertyOp17
 70
     0
102
RTVSPropertyOp18
 70
     0
102
RTVSPropertyOp19
 70
     0
102
RTVSPropertyOp20
 70
     0
102
RTVSPropertyOp21
 70
     0
102
RTVSPropertyOp22
 70
     0
102
RTVSPropertyOp23
 70
     0
102
RTVSPropertyOp24
 70
     0
102
RTVSPropertyOp25
 70
     0
102
RTVSPropertyOp26
 70
     0
102
RTVSPropertyOp27
 70
     0
102
RTVSPropertyOp28
 70
     0
102
RTVSPropertyOp29
 70
     0
102
RTVSPropertyOp30
 70
     0
102
RTVSPropertyOp31
 70
     0
102
RTVSPropertyOp32
 70
     0
102
RTVSPropertyOp33
 70
     0
102
RTVSPropertyOp34
 70
     0
102
RTVSPropertyOp35
 70
     0
102
RTVSPropertyOp36
 70
     0
102
RTVSPropertyOp37
 70
     0
102
RTVSPropertyOp38
 70
     0
102
RTVSPropertyOp39
 70
     0
102
RTVSPropertyOp40
 70
     0
102
RTVSPropertyOp41
 70
     0
102
RTVSPropertyOp42
 70
     0
102
RTVSPropertyOp43
 70
     0
102
RTVSPropertyOp44
 70
     0
102
RTVSPropertyOp45
 70
     0
102
RTVSPropertyOp46
 70
     0
102
RTVSPropertyOp47
 70
     0
102
RTVSPropertyOp48
 70
     0
102
RTVSPropertyOp49
 70
     0
102
RTVSPropertyOp50
 70
     0
102
RTVSPropertyOp51
 70
     0
102
RTVSPropertyOp52
 70
     0
102
RTVSPropertyOp53
 70
     0
102
RTVSPropertyOp54
 70
     0
102
RTVSPropertyOp55
 70
     0
102
RTVSPropertyOp56
 70
     0
102
RTVSPropertyOp57
 70
     0
102
RTVSPropertyOp58
 70
     1
102
RTVSPropertyOp59
 70
     1
102
RTVSPropertyOp60
 70
     1
102
RTVSPropertyOp61
 70
     1
102
RTVSPropertyOp62
 70
     1
  0
XRECORD
  5
471
102
{ACAD_REACTORS
330
470
102
}
330
470
100
AcDbXrecord
280
     1
102
RTVSPost2010Prop28
280
     0
102
RTVSPost2010PropOp28
 70
     1
102
RTVSPost2010Prop29
280
     1
102
RTVSPost2010PropOp29
 70
     1
102
RTVSPost2010Prop30
280
     1
102
RTVSPost2010PropOp30
 70
     1
102
RTVSPost2010Prop31
280
     0
102
RTVSPost2010PropOp31
 70
     1
102
RTVSPost2010Prop32
280
     0
102
RTVSPost2010PropOp32
 70
     1
102
RTVSPost2010Prop33
280
     0
102
RTVSPost2010PropOp33
 70
     1
102
RTVSPost2010Prop34
280
     0
102
RTVSPost2010PropOp34
 70
     1
102
RTVSPost2010Prop35
280
     0
102
RTVSPost2010PropOp35
 70
     1
102
RTVSPost2010Prop36
280
     0
102
RTVSPost2010PropOp36
 70
     1
102
RTVSPost2010Prop37
 90
       50
102
RTVSPost2010PropOp37
 70
     1
102
RTVSPost2010Prop38
140
0.0
102
RTVSPost2010PropOp38
 70
     1
102
RTVSPost2010Prop39
140
1.0
102
RTVSPost2010PropOp39
 70
     1
102
RTVSPost2010Prop40
 90
        0
102
RTVSPost2010PropOp40
 70
     1
102
RTVSPost2010Prop41ColorIndex
 90
       18
102
RTVSPost2010Prop41ColorRGB
 90
        0
102
RTVSPost2010PropOp41
 70
     1
102
RTVSPost2010Prop42
 90
       50
102
RTVSPost2010PropOp42
 70
     1
102
RTVSPost2010Prop43
 90
        3
102
RTVSPost2010PropOp43
 70
     1
102
RTVSPost2010Prop44ColorIndex
 90
        5
102
RTVSPost2010Prop44ColorRGB
 90
      255
102
RTVSPost2010PropOp44
 70
     1
102
RTVSPost2010Prop45
280
     0
102
RTVSPost2010PropOp45
 70
     1
102
RTVSPost2010Prop46
 90
       50
102
RTVSPost2010PropOp46
 70
     1
102
RTVSPost2010Prop47
 90
       50
102
RTVSPost2010PropOp47
 70
     1
102
RTVSPost2010Prop48
 90
       50
102
RTVSPost2010PropOp48
 70
     1
102
RTVSPost2010Prop49
280
     0
102
RTVSPost2010PropOp49
 70
     1
102
RTVSPost2010Prop50
 90
       50
102
RTVSPost2010PropOp50
 70
     1
102
RTVSPost2010Prop51ColorIndex
 90
      256
102
RTVSPost2010Prop51ColorRGB
 90
-16777216
102
RTVSPost2010PropOp51
 70
     0
102
RTVSPost2010Prop52
140
1.0
102
RTVSPost2010PropOp52
 70
     0
102
RTVSPost2010Prop53
 90
        2
102
RTVSPost2010PropOp53
 70
     1
102
RTVSPost2010Prop54
  1
strokes_ogs.tif
102
RTVSPost2010PropOp54
 70
     1
102
RTVSPost2010Prop55
280
     0
102
RTVSPost2010PropOp55
 70
     1
102
RTVSPost2010Prop56
140
1.0
102
RTVSPost2010PropOp56
 70
     1
102
RTVSPost2010Prop57
140
1.0
102
RTVSPost2010PropOp57
 70
     1
102
RTVSPropertyOp0
 70
     1
102
RTVSPropertyOp1
 70
     1
102
RTVSPropertyOp2
 70
     1
102
RTVSPropertyOp3
 70
     1
102
RTVSPropertyOp4
 70
     1
102
RTVSPropertyOp5
 70
     1
102
RTVSPropertyOp6
 70
     1
102
RTVSPropertyOp7
 70
     1
102
RTVSPropertyOp8
 70
     1
102
RTVSPropertyOp9
 70
     1
102
RTVSPropertyOp10
 70
     1
102
RTVSPropertyOp11
 70
     1
102
RTVSPropertyOp12
 70
     1
102
RTVSPropertyOp13
 70
     1
102
RTVSPropertyOp14
 70
     1
102
RTVSPropertyOp15
 70
     1
102
RTVSPropertyOp16
 70
     1
102
RTVSPropertyOp17
 70
     1
102
RTVSPropertyOp18
 70
     1
102
RTVSPropertyOp19
 70
     1
102
RTVSPropertyOp20
 70
     1
102
RTVSPropertyOp21
 70
     1
102
RTVSPropertyOp22
 70
     1
102
RTVSPropertyOp23
 70
     1
102
RTVSPropertyOp24
 70
     1
102
RTVSPropertyOp25
 70
     1
102
RTVSPropertyOp26
 70
     1
102
RTVSPropertyOp27
 70
     1
102
RTVSPropertyOp28
 70
     1
102
RTVSPropertyOp29
 70
     1
102
RTVSPropertyOp30
 70
     1
102
RTVSPropertyOp31
 70
     1
102
RTVSPropertyOp32
 70
     1
102
RTVSPropertyOp33
 70
     1
102
RTVSPropertyOp34
 70
     1
102
RTVSPropertyOp35
 70
     1
102
RTVSPropertyOp36
 70
     1
102
RTVSPropertyOp37
 70
     1
102
RTVSPropertyOp38
 70
     1
102
RTVSPropertyOp39
 70
     1
102
RTVSPropertyOp40
 70
     1
102
RTVSPropertyOp41
 70
     1
102
RTVSPropertyOp42
 70
     1
102
RTVSPropertyOp43
 70
     1
102
RTVSPropertyOp44
 70
     1
102
RTVSPropertyOp45
 70
     1
102
RTVSPropertyOp46
 70
     1
102
RTVSPropertyOp47
 70
     1
102
RTVSPropertyOp48
 70
     1
102
RTVSPropertyOp49
 70
     1
102
RTVSPropertyOp50
 70
     1
102
RTVSPropertyOp51
 70
     0
102
RTVSPropertyOp52
 70
     0
102
RTVSPropertyOp53
 70
     1
102
RTVSPropertyOp54
 70
     1
102
RTVSPropertyOp55
 70
     1
102
RTVSPropertyOp56
 70
     1
102
RTVSPropertyOp57
 70
     1
102
RTVSPropertyOp58
 70
     1
102
RTVSPropertyOp59
 70
     1
102
RTVSPropertyOp60
 70
     1
102
RTVSPropertyOp61
 70
     1
102
RTVSPropertyOp62
 70
     1
  0
XRECORD
  5
455
102
{ACAD_REACTORS
330
454
102
}
330
454
100
AcDbXrecord
280
     1
102
RTVSPost2010Prop28
280
     0
102
RTVSPost2010PropOp28
 70
     1
102
RTVSPost2010Prop29
280
     1
102
RTVSPost2010PropOp29
 70
     1
102
RTVSPost2010Prop30
280
     1
102
RTVSPost2010PropOp30
 70
     1
102
RTVSPost2010Prop31
280
     0
102
RTVSPost2010PropOp31
 70
     1
102
RTVSPost2010Prop32
280
     0
102
RTVSPost2010PropOp32
 70
     1
102
RTVSPost2010Prop33
280
     0
102
RTVSPost2010PropOp33
 70
     1
102
RTVSPost2010Prop34
280
     0
102
RTVSPost2010PropOp34
 70
     1
102
RTVSPost2010Prop35
280
     0
102
RTVSPost2010PropOp35
 70
     1
102
RTVSPost2010Prop36
280
     0
102
RTVSPost2010PropOp36
 70
     1
102
RTVSPost2010Prop37
 90
       50
102
RTVSPost2010PropOp37
 70
     1
102
RTVSPost2010Prop38
140
0.0
102
RTVSPost2010PropOp38
 70
     1
102
RTVSPost2010Prop39
140
1.0
102
RTVSPost2010PropOp39
 70
     1
102
RTVSPost2010Prop40
 90
        0
102
RTVSPost2010PropOp40
 70
     1
102
RTVSPost2010Prop41ColorIndex
 90
       18
102
RTVSPost2010Prop41ColorRGB
 90
        0
102
RTVSPost2010PropOp41
 70
     1
102
RTVSPost2010Prop42
 90
       50
102
RTVSPost2010PropOp42
 70
     1
102
RTVSPost2010Prop43
 90
        3
102
RTVSPost2010PropOp43
 70
     1
102
RTVSPost2010Prop44ColorIndex
 90
        5
102
RTVSPost2010Prop44ColorRGB
 90
      255
102
RTVSPost2010PropOp44
 70
     1
102
RTVSPost2010Prop45
280
     0
102
RTVSPost2010PropOp45
 70
     1
102
RTVSPost2010Prop46
 90
       50
102
RTVSPost2010PropOp46
 70
     1
102
RTVSPost2010Prop47
 90
       50
102
RTVSPost2010PropOp47
 70
     1
102
RTVSPost2010Prop48
 90
       50
102
RTVSPost2010PropOp48
 70
     1
102
RTVSPost2010Prop49
280
     0
102
RTVSPost2010PropOp49
 70
     1
102
RTVSPost2010Prop50
 90
       50
102
RTVSPost2010PropOp50
 70
     1
102
RTVSPost2010Prop51ColorIndex
 90
      256
102
RTVSPost2010Prop51ColorRGB
 90
-16777216
102
RTVSPost2010PropOp51
 70
     0
102
RTVSPost2010Prop52
140
1.0
102
RTVSPost2010PropOp52
 70
     0
102
RTVSPost2010Prop53
 90
        2
102
RTVSPost2010PropOp53
 70
     1
102
RTVSPost2010Prop54
  1
strokes_ogs.tif
102
RTVSPost2010PropOp54
 70
     1
102
RTVSPost2010Prop55
280
     0
102
RTVSPost2010PropOp55
 70
     1
102
RTVSPost2010Prop56
140
1.0
102
RTVSPost2010PropOp56
 70
     1
102
RTVSPost2010Prop57
140
1.0
102
RTVSPost2010PropOp57
 70
     1
102
RTVSPropertyOp0
 70
     1
102
RTVSPropertyOp1
 70
     1
102
RTVSPropertyOp2
 70
     1
102
RTVSPropertyOp3
 70
     1
102
RTVSPropertyOp4
 70
     1
102
RTVSPropertyOp5
 70
     1
102
RTVSPropertyOp6
 70
     1
102
RTVSPropertyOp7
 70
     1
102
RTVSPropertyOp8
 70
     1
102
RTVSPropertyOp9
 70
     1
102
RTVSPropertyOp10
 70
     1
102
RTVSPropertyOp11
 70
     1
102
RTVSPropertyOp12
 70
     1
102
RTVSPropertyOp13
 70
     1
102
RTVSPropertyOp14
 70
     1
102
RTVSPropertyOp15
 70
     1
102
RTVSPropertyOp16
 70
     1
102
RTVSPropertyOp17
 70
     1
102
RTVSPropertyOp18
 70
     1
102
RTVSPropertyOp19
 70
     1
102
RTVSPropertyOp20
 70
     1
102
RTVSPropertyOp21
 70
     1
102
RTVSPropertyOp22
 70
     1
102
RTVSPropertyOp23
 70
     1
102
RTVSPropertyOp24
 70
     1
102
RTVSPropertyOp25
 70
     1
102
RTVSPropertyOp26
 70
     1
102
RTVSPropertyOp27
 70
     1
102
RTVSPropertyOp28
 70
     1
102
RTVSPropertyOp29
 70
     1
102
RTVSPropertyOp30
 70
     1
102
RTVSPropertyOp31
 70
     1
102
RTVSPropertyOp32
 70
     1
102
RTVSPropertyOp33
 70
     1
102
RTVSPropertyOp34
 70
     1
102
RTVSPropertyOp35
 70
     1
102
RTVSPropertyOp36
 70
     1
102
RTVSPropertyOp37
 70
     1
102
RTVSPropertyOp38
 70
     1
102
RTVSPropertyOp39
 70
     1
102
RTVSPropertyOp40
 70
     1
102
RTVSPropertyOp41
 70
     1
102
RTVSPropertyOp42
 70
     1
102
RTVSPropertyOp43
 70
     1
102
RTVSPropertyOp44
 70
     1
102
RTVSPropertyOp45
 70
     1
102
RTVSPropertyOp46
 70
     1
102
RTVSPropertyOp47
 70
     1
102
RTVSPropertyOp48
 70
     1
102
RTVSPropertyOp49
 70
     1
102
RTVSPropertyOp50
 70
     1
102
RTVSPropertyOp51
 70
     0
102
RTVSPropertyOp52
 70
     0
102
RTVSPropertyOp53
 70
     1
102
RTVSPropertyOp54
 70
     1
102
RTVSPropertyOp55
 70
     1
102
RTVSPropertyOp56
 70
     1
102
RTVSPropertyOp57
 70
     1
102
RTVSPropertyOp58
 70
     1
102
RTVSPropertyOp59
 70
     1
102
RTVSPropertyOp60
 70
     1
102
RTVSPropertyOp61
 70
     1
102
RTVSPropertyOp62
 70
     1
  0
XRECORD
  5
457
102
{ACAD_REACTORS
330
456
102
}
330
456
100
AcDbXrecord
280
     1
102
RTVSPost2010Prop28
280
     0
102
RTVSPost2010PropOp28
 70
     1
102
RTVSPost2010Prop29
280
     1
102
RTVSPost2010PropOp29
 70
     1
102
RTVSPost2010Prop30
280
     1
102
RTVSPost2010PropOp30
 70
     1
102
RTVSPost2010Prop31
280
     0
102
RTVSPost2010PropOp31
 70
     1
102
RTVSPost2010Prop32
280
     0
102
RTVSPost2010PropOp32
 70
     1
102
RTVSPost2010Prop33
280
     0
102
RTVSPost2010PropOp33
 70
     1
102
RTVSPost2010Prop34
280
     0
102
RTVSPost2010PropOp34
 70
     1
102
RTVSPost2010Prop35
280
     0
102
RTVSPost2010PropOp35
 70
     1
102
RTVSPost2010Prop36
280
     0
102
RTVSPost2010PropOp36
 70
     1
102
RTVSPost2010Prop37
 90
       50
102
RTVSPost2010PropOp37
 70
     1
102
RTVSPost2010Prop38
140
0.0
102
RTVSPost2010PropOp38
 70
     1
102
RTVSPost2010Prop39
140
1.0
102
RTVSPost2010PropOp39
 70
     1
102
RTVSPost2010Prop40
 90
        0
102
RTVSPost2010PropOp40
 70
     1
102
RTVSPost2010Prop41ColorIndex
 90
       18
102
RTVSPost2010Prop41ColorRGB
 90
        0
102
RTVSPost2010PropOp41
 70
     1
102
RTVSPost2010Prop42
 90
       50
102
RTVSPost2010PropOp42
 70
     1
102
RTVSPost2010Prop43
 90
        3
102
RTVSPost2010PropOp43
 70
     1
102
RTVSPost2010Prop44ColorIndex
 90
        5
102
RTVSPost2010Prop44ColorRGB
 90
      255
102
RTVSPost2010PropOp44
 70
     1
102
RTVSPost2010Prop45
280
     0
102
RTVSPost2010PropOp45
 70
     1
102
RTVSPost2010Prop46
 90
       50
102
RTVSPost2010PropOp46
 70
     1
102
RTVSPost2010Prop47
 90
       50
102
RTVSPost2010PropOp47
 70
     1
102
RTVSPost2010Prop48
 90
       50
102
RTVSPost2010PropOp48
 70
     1
102
RTVSPost2010Prop49
280
     0
102
RTVSPost2010PropOp49
 70
     1
102
RTVSPost2010Prop50
 90
       50
102
RTVSPost2010PropOp50
 70
     1
102
RTVSPost2010Prop51ColorIndex
 90
      256
102
RTVSPost2010Prop51ColorRGB
 90
-16777216
102
RTVSPost2010PropOp51
 70
     0
102
RTVSPost2010Prop52
140
1.0
102
RTVSPost2010PropOp52
 70
     0
102
RTVSPost2010Prop53
 90
        2
102
RTVSPost2010PropOp53
 70
     1
102
RTVSPost2010Prop54
  1
strokes_ogs.tif
102
RTVSPost2010PropOp54
 70
     1
102
RTVSPost2010Prop55
280
     0
102
RTVSPost2010PropOp55
 70
     1
102
RTVSPost2010Prop56
140
1.0
102
RTVSPost2010PropOp56
 70
     1
102
RTVSPost2010Prop57
140
1.0
102
RTVSPost2010PropOp57
 70
     1
102
RTVSPropertyOp0
 70
     1
102
RTVSPropertyOp1
 70
     1
102
RTVSPropertyOp2
 70
     1
102
RTVSPropertyOp3
 70
     1
102
RTVSPropertyOp4
 70
     1
102
RTVSPropertyOp5
 70
     1
102
RTVSPropertyOp6
 70
     1
102
RTVSPropertyOp7
 70
     1
102
RTVSPropertyOp8
 70
     1
102
RTVSPropertyOp9
 70
     1
102
RTVSPropertyOp10
 70
     1
102
RTVSPropertyOp11
 70
     1
102
RTVSPropertyOp12
 70
     1
102
RTVSPropertyOp13
 70
     1
102
RTVSPropertyOp14
 70
     1
102
RTVSPropertyOp15
 70
     1
102
RTVSPropertyOp16
 70
     1
102
RTVSPropertyOp17
 70
     1
102
RTVSPropertyOp18
 70
     1
102
RTVSPropertyOp19
 70
     1
102
RTVSPropertyOp20
 70
     1
102
RTVSPropertyOp21
 70
     1
102
RTVSPropertyOp22
 70
     1
102
RTVSPropertyOp23
 70
     1
102
RTVSPropertyOp24
 70
     1
102
RTVSPropertyOp25
 70
     1
102
RTVSPropertyOp26
 70
     1
102
RTVSPropertyOp27
 70
     1
102
RTVSPropertyOp28
 70
     1
102
RTVSPropertyOp29
 70
     1
102
RTVSPropertyOp30
 70
     1
102
RTVSPropertyOp31
 70
     1
102
RTVSPropertyOp32
 70
     1
102
RTVSPropertyOp33
 70
     1
102
RTVSPropertyOp34
 70
     1
102
RTVSPropertyOp35
 70
     1
102
RTVSPropertyOp36
 70
     1
102
RTVSPropertyOp37
 70
     1
102
RTVSPropertyOp38
 70
     1
102
RTVSPropertyOp39
 70
     1
102
RTVSPropertyOp40
 70
     1
102
RTVSPropertyOp41
 70
     1
102
RTVSPropertyOp42
 70
     1
102
RTVSPropertyOp43
 70
     1
102
RTVSPropertyOp44
 70
     1
102
RTVSPropertyOp45
 70
     1
102
RTVSPropertyOp46
 70
     1
102
RTVSPropertyOp47
 70
     1
102
RTVSPropertyOp48
 70
     1
102
RTVSPropertyOp49
 70
     1
102
RTVSPropertyOp50
 70
     1
102
RTVSPropertyOp51
 70
     0
102
RTVSPropertyOp52
 70
     0
102
RTVSPropertyOp53
 70
     1
102
RTVSPropertyOp54
 70
     1
102
RTVSPropertyOp55
 70
     1
102
RTVSPropertyOp56
 70
     1
102
RTVSPropertyOp57
 70
     1
102
RTVSPropertyOp58
 70
     1
102
RTVSPropertyOp59
 70
     1
102
RTVSPropertyOp60
 70
     1
102
RTVSPropertyOp61
 70
     1
102
RTVSPropertyOp62
 70
     1
  0
XRECORD
  5
459
102
{ACAD_REACTORS
330
458
102
}
330
458
100
AcDbXrecord
280
     1
102
RTVSPost2010Prop28
280
     0
102
RTVSPost2010PropOp28
 70
     1
102
RTVSPost2010Prop29
280
     1
102
RTVSPost2010PropOp29
 70
     1
102
RTVSPost2010Prop30
280
     1
102
RTVSPost2010PropOp30
 70
     1
102
RTVSPost2010Prop31
280
     0
102
RTVSPost2010PropOp31
 70
     1
102
RTVSPost2010Prop32
280
     0
102
RTVSPost2010PropOp32
 70
     1
102
RTVSPost2010Prop33
280
     0
102
RTVSPost2010PropOp33
 70
     1
102
RTVSPost2010Prop34
280
     0
102
RTVSPost2010PropOp34
 70
     1
102
RTVSPost2010Prop35
280
     0
102
RTVSPost2010PropOp35
 70
     1
102
RTVSPost2010Prop36
280
     0
102
RTVSPost2010PropOp36
 70
     1
102
RTVSPost2010Prop37
 90
       50
102
RTVSPost2010PropOp37
 70
     1
102
RTVSPost2010Prop38
140
0.0
102
RTVSPost2010PropOp38
 70
     1
102
RTVSPost2010Prop39
140
1.0
102
RTVSPost2010PropOp39
 70
     1
102
RTVSPost2010Prop40
 90
        0
102
RTVSPost2010PropOp40
 70
     1
102
RTVSPost2010Prop41ColorIndex
 90
       18
102
RTVSPost2010Prop41ColorRGB
 90
        0
102
RTVSPost2010PropOp41
 70
     1
102
RTVSPost2010Prop42
 90
       50
102
RTVSPost2010PropOp42
 70
     1
102
RTVSPost2010Prop43
 90
        3
102
RTVSPost2010PropOp43
 70
     1
102
RTVSPost2010Prop44ColorIndex
 90
        5
102
RTVSPost2010Prop44ColorRGB
 90
      255
102
RTVSPost2010PropOp44
 70
     1
102
RTVSPost2010Prop45
280
     0
102
RTVSPost2010PropOp45
 70
     1
102
RTVSPost2010Prop46
 90
       50
102
RTVSPost2010PropOp46
 70
     1
102
RTVSPost2010Prop47
 90
       50
102
RTVSPost2010PropOp47
 70
     1
102
RTVSPost2010Prop48
 90
       50
102
RTVSPost2010PropOp48
 70
     1
102
RTVSPost2010Prop49
280
     0
102
RTVSPost2010PropOp49
 70
     1
102
RTVSPost2010Prop50
 90
       50
102
RTVSPost2010PropOp50
 70
     1
102
RTVSPost2010Prop51ColorIndex
 90
      256
102
RTVSPost2010Prop51ColorRGB
 90
-16777216
102
RTVSPost2010PropOp51
 70
     0
102
RTVSPost2010Prop52
140
1.0
102
RTVSPost2010PropOp52
 70
     0
102
RTVSPost2010Prop53
 90
        2
102
RTVSPost2010PropOp53
 70
     1
102
RTVSPost2010Prop54
  1
strokes_ogs.tif
102
RTVSPost2010PropOp54
 70
     1
102
RTVSPost2010Prop55
280
     0
102
RTVSPost2010PropOp55
 70
     1
102
RTVSPost2010Prop56
140
1.0
102
RTVSPost2010PropOp56
 70
     1
102
RTVSPost2010Prop57
140
1.0
102
RTVSPost2010PropOp57
 70
     1
102
RTVSPropertyOp0
 70
     1
102
RTVSPropertyOp1
 70
     1
102
RTVSPropertyOp2
 70
     1
102
RTVSPropertyOp3
 70
     1
102
RTVSPropertyOp4
 70
     1
102
RTVSPropertyOp5
 70
     1
102
RTVSPropertyOp6
 70
     1
102
RTVSPropertyOp7
 70
     1
102
RTVSPropertyOp8
 70
     1
102
RTVSPropertyOp9
 70
     1
102
RTVSPropertyOp10
 70
     1
102
RTVSPropertyOp11
 70
     1
102
RTVSPropertyOp12
 70
     1
102
RTVSPropertyOp13
 70
     1
102
RTVSPropertyOp14
 70
     1
102
RTVSPropertyOp15
 70
     1
102
RTVSPropertyOp16
 70
     1
102
RTVSPropertyOp17
 70
     1
102
RTVSPropertyOp18
 70
     1
102
RTVSPropertyOp19
 70
     1
102
RTVSPropertyOp20
 70
     1
102
RTVSPropertyOp21
 70
     1
102
RTVSPropertyOp22
 70
     1
102
RTVSPropertyOp23
 70
     1
102
RTVSPropertyOp24
 70
     1
102
RTVSPropertyOp25
 70
     1
102
RTVSPropertyOp26
 70
     1
102
RTVSPropertyOp27
 70
     1
102
RTVSPropertyOp28
 70
     1
102
RTVSPropertyOp29
 70
     1
102
RTVSPropertyOp30
 70
     1
102
RTVSPropertyOp31
 70
     1
102
RTVSPropertyOp32
 70
     1
102
RTVSPropertyOp33
 70
     1
102
RTVSPropertyOp34
 70
     1
102
RTVSPropertyOp35
 70
     1
102
RTVSPropertyOp36
 70
     1
102
RTVSPropertyOp37
 70
     1
102
RTVSPropertyOp38
 70
     1
102
RTVSPropertyOp39
 70
     1
102
RTVSPropertyOp40
 70
     1
102
RTVSPropertyOp41
 70
     1
102
RTVSPropertyOp42
 70
     1
102
RTVSPropertyOp43
 70
     1
102
RTVSPropertyOp44
 70
     1
102
RTVSPropertyOp45
 70
     1
102
RTVSPropertyOp46
 70
     1
102
RTVSPropertyOp47
 70
     1
102
RTVSPropertyOp48
 70
     1
102
RTVSPropertyOp49
 70
     1
102
RTVSPropertyOp50
 70
     1
102
RTVSPropertyOp51
 70
     0
102
RTVSPropertyOp52
 70
     0
102
RTVSPropertyOp53
 70
     1
102
RTVSPropertyOp54
 70
     1
102
RTVSPropertyOp55
 70
     1
102
RTVSPropertyOp56
 70
     1
102
RTVSPropertyOp57
 70
     1
102
RTVSPropertyOp58
 70
     1
102
RTVSPropertyOp59
 70
     1
102
RTVSPropertyOp60
 70
     1
102
RTVSPropertyOp61
 70
     1
102
RTVSPropertyOp62
 70
     1
  0
XRECORD
  5
45B
102
{ACAD_REACTORS
330
45A
102
}
330
45A
100
AcDbXrecord
280
     1
102
RTVSPost2010Prop28
280
     0
102
RTVSPost2010PropOp28
 70
     1
102
RTVSPost2010Prop29
280
     1
102
RTVSPost2010PropOp29
 70
     1
102
RTVSPost2010Prop30
280
     1
102
RTVSPost2010PropOp30
 70
     1
102
RTVSPost2010Prop31
280
     0
102
RTVSPost2010PropOp31
 70
     1
102
RTVSPost2010Prop32
280
     0
102
RTVSPost2010PropOp32
 70
     1
102
RTVSPost2010Prop33
280
     0
102
RTVSPost2010PropOp33
 70
     1
102
RTVSPost2010Prop34
280
     0
102
RTVSPost2010PropOp34
 70
     1
102
RTVSPost2010Prop35
280
     0
102
RTVSPost2010PropOp35
 70
     1
102
RTVSPost2010Prop36
280
     0
102
RTVSPost2010PropOp36
 70
     1
102
RTVSPost2010Prop37
 90
       50
102
RTVSPost2010PropOp37
 70
     1
102
RTVSPost2010Prop38
140
0.0
102
RTVSPost2010PropOp38
 70
     1
102
RTVSPost2010Prop39
140
1.0
102
RTVSPost2010PropOp39
 70
     1
102
RTVSPost2010Prop40
 90
        0
102
RTVSPost2010PropOp40
 70
     1
102
RTVSPost2010Prop41ColorIndex
 90
       18
102
RTVSPost2010Prop41ColorRGB
 90
        0
102
RTVSPost2010PropOp41
 70
     1
102
RTVSPost2010Prop42
 90
       50
102
RTVSPost2010PropOp42
 70
     1
102
RTVSPost2010Prop43
 90
        3
102
RTVSPost2010PropOp43
 70
     1
102
RTVSPost2010Prop44ColorIndex
 90
        5
102
RTVSPost2010Prop44ColorRGB
 90
      255
102
RTVSPost2010PropOp44
 70
     1
102
RTVSPost2010Prop45
280
     0
102
RTVSPost2010PropOp45
 70
     1
102
RTVSPost2010Prop46
 90
       50
102
RTVSPost2010PropOp46
 70
     1
102
RTVSPost2010Prop47
 90
       50
102
RTVSPost2010PropOp47
 70
     1
102
RTVSPost2010Prop48
 90
       50
102
RTVSPost2010PropOp48
 70
     1
102
RTVSPost2010Prop49
280
     0
102
RTVSPost2010PropOp49
 70
     1
102
RTVSPost2010Prop50
 90
       50
102
RTVSPost2010PropOp50
 70
     1
102
RTVSPost2010Prop51ColorIndex
 90
      256
102
RTVSPost2010Prop51ColorRGB
 90
-16777216
102
RTVSPost2010PropOp51
 70
     0
102
RTVSPost2010Prop52
140
1.0
102
RTVSPost2010PropOp52
 70
     0
102
RTVSPost2010Prop53
 90
        2
102
RTVSPost2010PropOp53
 70
     1
102
RTVSPost2010Prop54
  1
strokes_ogs.tif
102
RTVSPost2010PropOp54
 70
     1
102
RTVSPost2010Prop55
280
     0
102
RTVSPost2010PropOp55
 70
     1
102
RTVSPost2010Prop56
140
1.0
102
RTVSPost2010PropOp56
 70
     1
102
RTVSPost2010Prop57
140
1.0
102
RTVSPost2010PropOp57
 70
     1
102
RTVSPropertyOp0
 70
     1
102
RTVSPropertyOp1
 70
     1
102
RTVSPropertyOp2
 70
     1
102
RTVSPropertyOp3
 70
     1
102
RTVSPropertyOp4
 70
     1
102
RTVSPropertyOp5
 70
     1
102
RTVSPropertyOp6
 70
     1
102
RTVSPropertyOp7
 70
     1
102
RTVSPropertyOp8
 70
     1
102
RTVSPropertyOp9
 70
     1
102
RTVSPropertyOp10
 70
     1
102
RTVSPropertyOp11
 70
     1
102
RTVSPropertyOp12
 70
     1
102
RTVSPropertyOp13
 70
     1
102
RTVSPropertyOp14
 70
     1
102
RTVSPropertyOp15
 70
     1
102
RTVSPropertyOp16
 70
     1
102
RTVSPropertyOp17
 70
     1
102
RTVSPropertyOp18
 70
     1
102
RTVSPropertyOp19
 70
     1
102
RTVSPropertyOp20
 70
     1
102
RTVSPropertyOp21
 70
     1
102
RTVSPropertyOp22
 70
     1
102
RTVSPropertyOp23
 70
     1
102
RTVSPropertyOp24
 70
     1
102
RTVSPropertyOp25
 70
     1
102
RTVSPropertyOp26
 70
     1
102
RTVSPropertyOp27
 70
     1
102
RTVSPropertyOp28
 70
     1
102
RTVSPropertyOp29
 70
     1
102
RTVSPropertyOp30
 70
     1
102
RTVSPropertyOp31
 70
     1
102
RTVSPropertyOp32
 70
     1
102
RTVSPropertyOp33
 70
     1
102
RTVSPropertyOp34
 70
     1
102
RTVSPropertyOp35
 70
     1
102
RTVSPropertyOp36
 70
     1
102
RTVSPropertyOp37
 70
     1
102
RTVSPropertyOp38
 70
     1
102
RTVSPropertyOp39
 70
     1
102
RTVSPropertyOp40
 70
     1
102
RTVSPropertyOp41
 70
     1
102
RTVSPropertyOp42
 70
     1
102
RTVSPropertyOp43
 70
     1
102
RTVSPropertyOp44
 70
     1
102
RTVSPropertyOp45
 70
     1
102
RTVSPropertyOp46
 70
     1
102
RTVSPropertyOp47
 70
     1
102
RTVSPropertyOp48
 70
     1
102
RTVSPropertyOp49
 70
     1
102
RTVSPropertyOp50
 70
     1
102
RTVSPropertyOp51
 70
     0
102
RTVSPropertyOp52
 70
     0
102
RTVSPropertyOp53
 70
     1
102
RTVSPropertyOp54
 70
     1
102
RTVSPropertyOp55
 70
     1
102
RTVSPropertyOp56
 70
     1
102
RTVSPropertyOp57
 70
     1
102
RTVSPropertyOp58
 70
     1
102
RTVSPropertyOp59
 70
     1
102
RTVSPropertyOp60
 70
     1
102
RTVSPropertyOp61
 70
     1
102
RTVSPropertyOp62
 70
     1
  0
XRECORD
  5
461
102
{ACAD_REACTORS
330
460
102
}
330
460
100
AcDbXrecord
280
     1
102
RTVSPost2010Prop28
280
     0
102
RTVSPost2010PropOp28
 70
     1
102
RTVSPost2010Prop29
280
     1
102
RTVSPost2010PropOp29
 70
     1
102
RTVSPost2010Prop30
280
     1
102
RTVSPost2010PropOp30
 70
     1
102
RTVSPost2010Prop31
280
     0
102
RTVSPost2010PropOp31
 70
     1
102
RTVSPost2010Prop32
280
     0
102
RTVSPost2010PropOp32
 70
     1
102
RTVSPost2010Prop33
280
     0
102
RTVSPost2010PropOp33
 70
     1
102
RTVSPost2010Prop34
280
     0
102
RTVSPost2010PropOp34
 70
     1
102
RTVSPost2010Prop35
280
     0
102
RTVSPost2010PropOp35
 70
     1
102
RTVSPost2010Prop36
280
     0
102
RTVSPost2010PropOp36
 70
     1
102
RTVSPost2010Prop37
 90
       50
102
RTVSPost2010PropOp37
 70
     1
102
RTVSPost2010Prop38
140
0.0
102
RTVSPost2010PropOp38
 70
     1
102
RTVSPost2010Prop39
140
1.0
102
RTVSPost2010PropOp39
 70
     1
102
RTVSPost2010Prop40
 90
        0
102
RTVSPost2010PropOp40
 70
     1
102
RTVSPost2010Prop41ColorIndex
 90
       18
102
RTVSPost2010Prop41ColorRGB
 90
        0
102
RTVSPost2010PropOp41
 70
     1
102
RTVSPost2010Prop42
 90
       50
102
RTVSPost2010PropOp42
 70
     1
102
RTVSPost2010Prop43
 90
        3
102
RTVSPost2010PropOp43
 70
     1
102
RTVSPost2010Prop44ColorIndex
 90
        5
102
RTVSPost2010Prop44ColorRGB
 90
      255
102
RTVSPost2010PropOp44
 70
     1
102
RTVSPost2010Prop45
280
     0
102
RTVSPost2010PropOp45
 70
     1
102
RTVSPost2010Prop46
 90
       50
102
RTVSPost2010PropOp46
 70
     1
102
RTVSPost2010Prop47
 90
       50
102
RTVSPost2010PropOp47
 70
     1
102
RTVSPost2010Prop48
 90
       50
102
RTVSPost2010PropOp48
 70
     1
102
RTVSPost2010Prop49
280
     0
102
RTVSPost2010PropOp49
 70
     1
102
RTVSPost2010Prop50
 90
       50
102
RTVSPost2010PropOp50
 70
     1
102
RTVSPost2010Prop51ColorIndex
 90
      256
102
RTVSPost2010Prop51ColorRGB
 90
-16777216
102
RTVSPost2010PropOp51
 70
     0
102
RTVSPost2010Prop52
140
1.0
102
RTVSPost2010PropOp52
 70
     0
102
RTVSPost2010Prop53
 90
        2
102
RTVSPost2010PropOp53
 70
     1
102
RTVSPost2010Prop54
  1
strokes_ogs.tif
102
RTVSPost2010PropOp54
 70
     1
102
RTVSPost2010Prop55
280
     0
102
RTVSPost2010PropOp55
 70
     1
102
RTVSPost2010Prop56
140
1.0
102
RTVSPost2010PropOp56
 70
     1
102
RTVSPost2010Prop57
140
1.0
102
RTVSPost2010PropOp57
 70
     1
102
RTVSPropertyOp0
 70
     1
102
RTVSPropertyOp1
 70
     1
102
RTVSPropertyOp2
 70
     1
102
RTVSPropertyOp3
 70
     1
102
RTVSPropertyOp4
 70
     1
102
RTVSPropertyOp5
 70
     1
102
RTVSPropertyOp6
 70
     1
102
RTVSPropertyOp7
 70
     1
102
RTVSPropertyOp8
 70
     1
102
RTVSPropertyOp9
 70
     1
102
RTVSPropertyOp10
 70
     1
102
RTVSPropertyOp11
 70
     1
102
RTVSPropertyOp12
 70
     1
102
RTVSPropertyOp13
 70
     1
102
RTVSPropertyOp14
 70
     1
102
RTVSPropertyOp15
 70
     1
102
RTVSPropertyOp16
 70
     1
102
RTVSPropertyOp17
 70
     1
102
RTVSPropertyOp18
 70
     1
102
RTVSPropertyOp19
 70
     1
102
RTVSPropertyOp20
 70
     1
102
RTVSPropertyOp21
 70
     1
102
RTVSPropertyOp22
 70
     1
102
RTVSPropertyOp23
 70
     1
102
RTVSPropertyOp24
 70
     1
102
RTVSPropertyOp25
 70
     1
102
RTVSPropertyOp26
 70
     1
102
RTVSPropertyOp27
 70
     1
102
RTVSPropertyOp28
 70
     1
102
RTVSPropertyOp29
 70
     1
102
RTVSPropertyOp30
 70
     1
102
RTVSPropertyOp31
 70
     1
102
RTVSPropertyOp32
 70
     1
102
RTVSPropertyOp33
 70
     1
102
RTVSPropertyOp34
 70
     1
102
RTVSPropertyOp35
 70
     1
102
RTVSPropertyOp36
 70
     1
102
RTVSPropertyOp37
 70
     1
102
RTVSPropertyOp38
 70
     1
102
RTVSPropertyOp39
 70
     1
102
RTVSPropertyOp40
 70
     1
102
RTVSPropertyOp41
 70
     1
102
RTVSPropertyOp42
 70
     1
102
RTVSPropertyOp43
 70
     1
102
RTVSPropertyOp44
 70
     1
102
RTVSPropertyOp45
 70
     1
102
RTVSPropertyOp46
 70
     1
102
RTVSPropertyOp47
 70
     1
102
RTVSPropertyOp48
 70
     1
102
RTVSPropertyOp49
 70
     1
102
RTVSPropertyOp50
 70
     1
102
RTVSPropertyOp51
 70
     0
102
RTVSPropertyOp52
 70
     0
102
RTVSPropertyOp53
 70
     1
102
RTVSPropertyOp54
 70
     1
102
RTVSPropertyOp55
 70
     1
102
RTVSPropertyOp56
 70
     1
102
RTVSPropertyOp57
 70
     1
102
RTVSPropertyOp58
 70
     1
102
RTVSPropertyOp59
 70
     1
102
RTVSPropertyOp60
 70
     1
102
RTVSPropertyOp61
 70
     1
102
RTVSPropertyOp62
 70
     1
  0
XRECORD
  5
475
102
{ACAD_REACTORS
330
474
102
}
330
474
100
AcDbXrecord
280
     1
102
RTVSPost2010Prop28
280
     0
102
RTVSPost2010PropOp28
 70
     0
102
RTVSPost2010Prop29
280
     1
102
RTVSPost2010PropOp29
 70
     0
102
RTVSPost2010Prop30
280
     1
102
RTVSPost2010PropOp30
 70
     0
102
RTVSPost2010Prop31
280
     0
102
RTVSPost2010PropOp31
 70
     0
102
RTVSPost2010Prop32
280
     0
102
RTVSPost2010PropOp32
 70
     0
102
RTVSPost2010Prop33
280
     0
102
RTVSPost2010PropOp33
 70
     0
102
RTVSPost2010Prop34
280
     0
102
RTVSPost2010PropOp34
 70
     0
102
RTVSPost2010Prop35
280
     0
102
RTVSPost2010PropOp35
 70
     0
102
RTVSPost2010Prop36
280
     0
102
RTVSPost2010PropOp36
 70
     0
102
RTVSPost2010Prop37
 90
       50
102
RTVSPost2010PropOp37
 70
     0
102
RTVSPost2010Prop38
140
0.0
102
RTVSPost2010PropOp38
 70
     0
102
RTVSPost2010Prop39
140
1.0
102
RTVSPost2010PropOp39
 70
     0
102
RTVSPost2010Prop40
 90
        0
102
RTVSPost2010PropOp40
 70
     0
102
RTVSPost2010Prop41ColorIndex
 90
       18
102
RTVSPost2010Prop41ColorRGB
 90
        0
102
RTVSPost2010PropOp41
 70
     0
102
RTVSPost2010Prop42
 90
       50
102
RTVSPost2010PropOp42
 70
     0
102
RTVSPost2010Prop43
 90
        3
102
RTVSPost2010PropOp43
 70
     0
102
RTVSPost2010Prop44ColorIndex
 90
        5
102
RTVSPost2010Prop44ColorRGB
 90
      255
102
RTVSPost2010PropOp44
 70
     0
102
RTVSPost2010Prop45
280
     0
102
RTVSPost2010PropOp45
 70
     0
102
RTVSPost2010Prop46
 90
       50
102
RTVSPost2010PropOp46
 70
     0
102
RTVSPost2010Prop47
 90
       50
102
RTVSPost2010PropOp47
 70
     0
102
RTVSPost2010Prop48
 90
       50
102
RTVSPost2010PropOp48
 70
     0
102
RTVSPost2010Prop49
280
     0
102
RTVSPost2010PropOp49
 70
     0
102
RTVSPost2010Prop50
 90
       50
102
RTVSPost2010PropOp50
 70
     0
102
RTVSPost2010Prop51ColorIndex
 90
      256
102
RTVSPost2010Prop51ColorRGB
 90
-16777216
102
RTVSPost2010PropOp51
 70
     0
102
RTVSPost2010Prop52
140
1.0
102
RTVSPost2010PropOp52
 70
     0
102
RTVSPost2010Prop53
 90
        2
102
RTVSPost2010PropOp53
 70
     0
102
RTVSPost2010Prop54
  1
strokes_ogs.tif
102
RTVSPost2010PropOp54
 70
     0
102
RTVSPost2010Prop55
280
     0
102
RTVSPost2010PropOp55
 70
     0
102
RTVSPost2010Prop56
140
1.0
102
RTVSPost2010PropOp56
 70
     0
102
RTVSPost2010Prop57
140
1.0
102
RTVSPost2010PropOp57
 70
     0
102
RTVSPropertyOp0
 70
     0
102
RTVSPropertyOp1
 70
     0
102
RTVSPropertyOp2
 70
     0
102
RTVSPropertyOp3
 70
     0
102
RTVSPropertyOp4
 70
     0
102
RTVSPropertyOp5
 70
     0
102
RTVSPropertyOp6
 70
     0
102
RTVSPropertyOp7
 70
     0
102
RTVSPropertyOp8
 70
     0
102
RTVSPropertyOp9
 70
     0
102
RTVSPropertyOp10
 70
     0
102
RTVSPropertyOp11
 70
     0
102
RTVSPropertyOp12
 70
     0
102
RTVSPropertyOp13
 70
     0
102
RTVSPropertyOp14
 70
     2
102
RTVSPropertyOp15
 70
     0
102
RTVSPropertyOp16
 70
     0
102
RTVSPropertyOp17
 70
     0
102
RTVSPropertyOp18
 70
     0
102
RTVSPropertyOp19
 70
     0
102
RTVSPropertyOp20
 70
     0
102
RTVSPropertyOp21
 70
     0
102
RTVSPropertyOp22
 70
     0
102
RTVSPropertyOp23
 70
     0
102
RTVSPropertyOp24
 70
     0
102
RTVSPropertyOp25
 70
     0
102
RTVSPropertyOp26
 70
     0
102
RTVSPropertyOp27
 70
     0
102
RTVSPropertyOp28
 70
     0
102
RTVSPropertyOp29
 70
     0
102
RTVSPropertyOp30
 70
     0
102
RTVSPropertyOp31
 70
     0
102
RTVSPropertyOp32
 70
     0
102
RTVSPropertyOp33
 70
     0
102
RTVSPropertyOp34
 70
     0
102
RTVSPropertyOp35
 70
     0
102
RTVSPropertyOp36
 70
     0
102
RTVSPropertyOp37
 70
     0
102
RTVSPropertyOp38
 70
     0
102
RTVSPropertyOp39
 70
     0
102
RTVSPropertyOp40
 70
     0
102
RTVSPropertyOp41
 70
     0
102
RTVSPropertyOp42
 70
     0
102
RTVSPropertyOp43
 70
     0
102
RTVSPropertyOp44
 70
     0
102
RTVSPropertyOp45
 70
     0
102
RTVSPropertyOp46
 70
     0
102
RTVSPropertyOp47
 70
     0
102
RTVSPropertyOp48
 70
     0
102
RTVSPropertyOp49
 70
     0
102
RTVSPropertyOp50
 70
     0
102
RTVSPropertyOp51
 70
     0
102
RTVSPropertyOp52
 70
     0
102
RTVSPropertyOp53
 70
     0
102
RTVSPropertyOp54
 70
     0
102
RTVSPropertyOp55
 70
     0
102
RTVSPropertyOp56
 70
     0
102
RTVSPropertyOp57
 70
     0
102
RTVSPropertyOp58
 70
     1
102
RTVSPropertyOp59
 70
     1
102
RTVSPropertyOp60
 70
     1
102
RTVSPropertyOp61
 70
     1
102
RTVSPropertyOp62
 70
     1
  0
XRECORD
  5
46F
102
{ACAD_REACTORS
330
46E
102
}
330
46E
100
AcDbXrecord
280
     1
102
RTVSPost2010Prop28
280
     0
102
RTVSPost2010PropOp28
 70
     1
102
RTVSPost2010Prop29
280
     1
102
RTVSPost2010PropOp29
 70
     1
102
RTVSPost2010Prop30
280
     1
102
RTVSPost2010PropOp30
 70
     1
102
RTVSPost2010Prop31
280
     0
102
RTVSPost2010PropOp31
 70
     1
102
RTVSPost2010Prop32
280
     0
102
RTVSPost2010PropOp32
 70
     1
102
RTVSPost2010Prop33
280
     0
102
RTVSPost2010PropOp33
 70
     1
102
RTVSPost2010Prop34
280
     0
102
RTVSPost2010PropOp34
 70
     1
102
RTVSPost2010Prop35
280
     0
102
RTVSPost2010PropOp35
 70
     1
102
RTVSPost2010Prop36
280
     0
102
RTVSPost2010PropOp36
 70
     1
102
RTVSPost2010Prop37
 90
       50
102
RTVSPost2010PropOp37
 70
     1
102
RTVSPost2010Prop38
140
0.0
102
RTVSPost2010PropOp38
 70
     1
102
RTVSPost2010Prop39
140
1.0
102
RTVSPost2010PropOp39
 70
     1
102
RTVSPost2010Prop40
 90
        0
102
RTVSPost2010PropOp40
 70
     1
102
RTVSPost2010Prop41ColorIndex
 90
       18
102
RTVSPost2010Prop41ColorRGB
 90
        0
102
RTVSPost2010PropOp41
 70
     1
102
RTVSPost2010Prop42
 90
       50
102
RTVSPost2010PropOp42
 70
     1
102
RTVSPost2010Prop43
 90
        3
102
RTVSPost2010PropOp43
 70
     1
102
RTVSPost2010Prop44ColorIndex
 90
        5
102
RTVSPost2010Prop44ColorRGB
 90
      255
102
RTVSPost2010PropOp44
 70
     1
102
RTVSPost2010Prop45
280
     0
102
RTVSPost2010PropOp45
 70
     1
102
RTVSPost2010Prop46
 90
       50
102
RTVSPost2010PropOp46
 70
     1
102
RTVSPost2010Prop47
 90
       50
102
RTVSPost2010PropOp47
 70
     1
102
RTVSPost2010Prop48
 90
       50
102
RTVSPost2010PropOp48
 70
     1
102
RTVSPost2010Prop49
280
     0
102
RTVSPost2010PropOp49
 70
     1
102
RTVSPost2010Prop50
 90
       50
102
RTVSPost2010PropOp50
 70
     1
102
RTVSPost2010Prop51ColorIndex
 90
      256
102
RTVSPost2010Prop51ColorRGB
 90
-16777216
102
RTVSPost2010PropOp51
 70
     0
102
RTVSPost2010Prop52
140
1.0
102
RTVSPost2010PropOp52
 70
     0
102
RTVSPost2010Prop53
 90
        2
102
RTVSPost2010PropOp53
 70
     1
102
RTVSPost2010Prop54
  1
strokes_ogs.tif
102
RTVSPost2010PropOp54
 70
     1
102
RTVSPost2010Prop55
280
     0
102
RTVSPost2010PropOp55
 70
     1
102
RTVSPost2010Prop56
140
1.0
102
RTVSPost2010PropOp56
 70
     1
102
RTVSPost2010Prop57
140
1.0
102
RTVSPost2010PropOp57
 70
     1
102
RTVSPropertyOp0
 70
     1
102
RTVSPropertyOp1
 70
     1
102
RTVSPropertyOp2
 70
     1
102
RTVSPropertyOp3
 70
     1
102
RTVSPropertyOp4
 70
     1
102
RTVSPropertyOp5
 70
     1
102
RTVSPropertyOp6
 70
     1
102
RTVSPropertyOp7
 70
     1
102
RTVSPropertyOp8
 70
     1
102
RTVSPropertyOp9
 70
     1
102
RTVSPropertyOp10
 70
     1
102
RTVSPropertyOp11
 70
     1
102
RTVSPropertyOp12
 70
     1
102
RTVSPropertyOp13
 70
     1
102
RTVSPropertyOp14
 70
     1
102
RTVSPropertyOp15
 70
     1
102
RTVSPropertyOp16
 70
     1
102
RTVSPropertyOp17
 70
     1
102
RTVSPropertyOp18
 70
     1
102
RTVSPropertyOp19
 70
     1
102
RTVSPropertyOp20
 70
     1
102
RTVSPropertyOp21
 70
     1
102
RTVSPropertyOp22
 70
     1
102
RTVSPropertyOp23
 70
     1
102
RTVSPropertyOp24
 70
     1
102
RTVSPropertyOp25
 70
     1
102
RTVSPropertyOp26
 70
     1
102
RTVSPropertyOp27
 70
     1
102
RTVSPropertyOp28
 70
     1
102
RTVSPropertyOp29
 70
     1
102
RTVSPropertyOp30
 70
     1
102
RTVSPropertyOp31
 70
     1
102
RTVSPropertyOp32
 70
     1
102
RTVSPropertyOp33
 70
     1
102
RTVSPropertyOp34
 70
     1
102
RTVSPropertyOp35
 70
     1
102
RTVSPropertyOp36
 70
     1
102
RTVSPropertyOp37
 70
     1
102
RTVSPropertyOp38
 70
     1
102
RTVSPropertyOp39
 70
     1
102
RTVSPropertyOp40
 70
     1
102
RTVSPropertyOp41
 70
     1
102
RTVSPropertyOp42
 70
     1
102
RTVSPropertyOp43
 70
     1
102
RTVSPropertyOp44
 70
     1
102
RTVSPropertyOp45
 70
     1
102
RTVSPropertyOp46
 70
     1
102
RTVSPropertyOp47
 70
     1
102
RTVSPropertyOp48
 70
     1
102
RTVSPropertyOp49
 70
     1
102
RTVSPropertyOp50
 70
     1
102
RTVSPropertyOp51
 70
     0
102
RTVSPropertyOp52
 70
     0
102
RTVSPropertyOp53
 70
     1
102
RTVSPropertyOp54
 70
     1
102
RTVSPropertyOp55
 70
     1
102
RTVSPropertyOp56
 70
     1
102
RTVSPropertyOp57
 70
     1
102
RTVSPropertyOp58
 70
     1
102
RTVSPropertyOp59
 70
     1
102
RTVSPropertyOp60
 70
     1
102
RTVSPropertyOp61
 70
     1
102
RTVSPropertyOp62
 70
     1
  0
XRECORD
  5
477
102
{ACAD_REACTORS
330
476
102
}
330
476
100
AcDbXrecord
280
     1
102
RTVSPost2010Prop28
280
     0
102
RTVSPost2010PropOp28
 70
     0
102
RTVSPost2010Prop29
280
     1
102
RTVSPost2010PropOp29
 70
     0
102
RTVSPost2010Prop30
280
     1
102
RTVSPost2010PropOp30
 70
     0
102
RTVSPost2010Prop31
280
     0
102
RTVSPost2010PropOp31
 70
     0
102
RTVSPost2010Prop32
280
     0
102
RTVSPost2010PropOp32
 70
     0
102
RTVSPost2010Prop33
280
     0
102
RTVSPost2010PropOp33
 70
     0
102
RTVSPost2010Prop34
280
     0
102
RTVSPost2010PropOp34
 70
     0
102
RTVSPost2010Prop35
280
     0
102
RTVSPost2010PropOp35
 70
     0
102
RTVSPost2010Prop36
280
     0
102
RTVSPost2010PropOp36
 70
     0
102
RTVSPost2010Prop37
 90
       50
102
RTVSPost2010PropOp37
 70
     0
102
RTVSPost2010Prop38
140
0.0
102
RTVSPost2010PropOp38
 70
     0
102
RTVSPost2010Prop39
140
1.0
102
RTVSPost2010PropOp39
 70
     0
102
RTVSPost2010Prop40
 90
        0
102
RTVSPost2010PropOp40
 70
     0
102
RTVSPost2010Prop41ColorIndex
 90
       18
102
RTVSPost2010Prop41ColorRGB
 90
        0
102
RTVSPost2010PropOp41
 70
     0
102
RTVSPost2010Prop42
 90
       50
102
RTVSPost2010PropOp42
 70
     0
102
RTVSPost2010Prop43
 90
        3
102
RTVSPost2010PropOp43
 70
     0
102
RTVSPost2010Prop44ColorIndex
 90
        5
102
RTVSPost2010Prop44ColorRGB
 90
      255
102
RTVSPost2010PropOp44
 70
     0
102
RTVSPost2010Prop45
280
     0
102
RTVSPost2010PropOp45
 70
     0
102
RTVSPost2010Prop46
 90
       50
102
RTVSPost2010PropOp46
 70
     0
102
RTVSPost2010Prop47
 90
       50
102
RTVSPost2010PropOp47
 70
     0
102
RTVSPost2010Prop48
 90
       50
102
RTVSPost2010PropOp48
 70
     0
102
RTVSPost2010Prop49
280
     0
102
RTVSPost2010PropOp49
 70
     0
102
RTVSPost2010Prop50
 90
       50
102
RTVSPost2010PropOp50
 70
     0
102
RTVSPost2010Prop51ColorIndex
 90
      256
102
RTVSPost2010Prop51ColorRGB
 90
-16777216
102
RTVSPost2010PropOp51
 70
     0
102
RTVSPost2010Prop52
140
1.0
102
RTVSPost2010PropOp52
 70
     0
102
RTVSPost2010Prop53
 90
        2
102
RTVSPost2010PropOp53
 70
     0
102
RTVSPost2010Prop54
  1
strokes_ogs.tif
102
RTVSPost2010PropOp54
 70
     0
102
RTVSPost2010Prop55
280
     0
102
RTVSPost2010PropOp55
 70
     0
102
RTVSPost2010Prop56
140
1.0
102
RTVSPost2010PropOp56
 70
     0
102
RTVSPost2010Prop57
140
1.0
102
RTVSPost2010PropOp57
 70
     0
102
RTVSPropertyOp0
 70
     0
102
RTVSPropertyOp1
 70
     0
102
RTVSPropertyOp2
 70
     0
102
RTVSPropertyOp3
 70
     0
102
RTVSPropertyOp4
 70
     0
102
RTVSPropertyOp5
 70
     0
102
RTVSPropertyOp6
 70
     0
102
RTVSPropertyOp7
 70
     0
102
RTVSPropertyOp8
 70
     0
102
RTVSPropertyOp9
 70
     0
102
RTVSPropertyOp10
 70
     0
102
RTVSPropertyOp11
 70
     0
102
RTVSPropertyOp12
 70
     0
102
RTVSPropertyOp13
 70
     0
102
RTVSPropertyOp14
 70
     2
102
RTVSPropertyOp15
 70
     0
102
RTVSPropertyOp16
 70
     0
102
RTVSPropertyOp17
 70
     0
102
RTVSPropertyOp18
 70
     0
102
RTVSPropertyOp19
 70
     0
102
RTVSPropertyOp20
 70
     0
102
RTVSPropertyOp21
 70
     0
102
RTVSPropertyOp22
 70
     0
102
RTVSPropertyOp23
 70
     0
102
RTVSPropertyOp24
 70
     0
102
RTVSPropertyOp25
 70
     0
102
RTVSPropertyOp26
 70
     0
102
RTVSPropertyOp27
 70
     0
102
RTVSPropertyOp28
 70
     0
102
RTVSPropertyOp29
 70
     0
102
RTVSPropertyOp30
 70
     0
102
RTVSPropertyOp31
 70
     0
102
RTVSPropertyOp32
 70
     0
102
RTVSPropertyOp33
 70
     0
102
RTVSPropertyOp34
 70
     0
102
RTVSPropertyOp35
 70
     0
102
RTVSPropertyOp36
 70
     0
102
RTVSPropertyOp37
 70
     0
102
RTVSPropertyOp38
 70
     0
102
RTVSPropertyOp39
 70
     0
102
RTVSPropertyOp40
 70
     0
102
RTVSPropertyOp41
 70
     0
102
RTVSPropertyOp42
 70
     0
102
RTVSPropertyOp43
 70
     0
102
RTVSPropertyOp44
 70
     0
102
RTVSPropertyOp45
 70
     0
102
RTVSPropertyOp46
 70
     0
102
RTVSPropertyOp47
 70
     0
102
RTVSPropertyOp48
 70
     0
102
RTVSPropertyOp49
 70
     0
102
RTVSPropertyOp50
 70
     0
102
RTVSPropertyOp51
 70
     0
102
RTVSPropertyOp52
 70
     0
102
RTVSPropertyOp53
 70
     0
102
RTVSPropertyOp54
 70
     0
102
RTVSPropertyOp55
 70
     0
102
RTVSPropertyOp56
 70
     0
102
RTVSPropertyOp57
 70
     0
102
RTVSPropertyOp58
 70
     1
102
RTVSPropertyOp59
 70
     1
102
RTVSPropertyOp60
 70
     1
102
RTVSPropertyOp61
 70
     1
102
RTVSPropertyOp62
 70
     1
  0
XRECORD
  5
465
102
{ACAD_REACTORS
330
464
102
}
330
464
100
AcDbXrecord
280
     1
102
RTVSPost2010Prop28
280
     0
102
RTVSPost2010PropOp28
 70
     1
102
RTVSPost2010Prop29
280
     1
102
RTVSPost2010PropOp29
 70
     1
102
RTVSPost2010Prop30
280
     1
102
RTVSPost2010PropOp30
 70
     1
102
RTVSPost2010Prop31
280
     0
102
RTVSPost2010PropOp31
 70
     1
102
RTVSPost2010Prop32
280
     0
102
RTVSPost2010PropOp32
 70
     1
102
RTVSPost2010Prop33
280
     0
102
RTVSPost2010PropOp33
 70
     1
102
RTVSPost2010Prop34
280
     0
102
RTVSPost2010PropOp34
 70
     1
102
RTVSPost2010Prop35
280
     0
102
RTVSPost2010PropOp35
 70
     1
102
RTVSPost2010Prop36
280
     0
102
RTVSPost2010PropOp36
 70
     1
102
RTVSPost2010Prop37
 90
       50
102
RTVSPost2010PropOp37
 70
     1
102
RTVSPost2010Prop38
140
0.0
102
RTVSPost2010PropOp38
 70
     1
102
RTVSPost2010Prop39
140
1.0
102
RTVSPost2010PropOp39
 70
     1
102
RTVSPost2010Prop40
 90
        0
102
RTVSPost2010PropOp40
 70
     1
102
RTVSPost2010Prop41ColorIndex
 90
       18
102
RTVSPost2010Prop41ColorRGB
 90
        0
102
RTVSPost2010PropOp41
 70
     1
102
RTVSPost2010Prop42
 90
       50
102
RTVSPost2010PropOp42
 70
     1
102
RTVSPost2010Prop43
 90
        3
102
RTVSPost2010PropOp43
 70
     1
102
RTVSPost2010Prop44ColorIndex
 90
        5
102
RTVSPost2010Prop44ColorRGB
 90
      255
102
RTVSPost2010PropOp44
 70
     1
102
RTVSPost2010Prop45
280
     0
102
RTVSPost2010PropOp45
 70
     1
102
RTVSPost2010Prop46
 90
       50
102
RTVSPost2010PropOp46
 70
     1
102
RTVSPost2010Prop47
 90
       50
102
RTVSPost2010PropOp47
 70
     1
102
RTVSPost2010Prop48
 90
       50
102
RTVSPost2010PropOp48
 70
     1
102
RTVSPost2010Prop49
280
     0
102
RTVSPost2010PropOp49
 70
     1
102
RTVSPost2010Prop50
 90
       50
102
RTVSPost2010PropOp50
 70
     1
102
RTVSPost2010Prop51ColorIndex
 90
      256
102
RTVSPost2010Prop51ColorRGB
 90
-16777216
102
RTVSPost2010PropOp51
 70
     0
102
RTVSPost2010Prop52
140
1.0
102
RTVSPost2010PropOp52
 70
     0
102
RTVSPost2010Prop53
 90
        2
102
RTVSPost2010PropOp53
 70
     1
102
RTVSPost2010Prop54
  1
strokes_ogs.tif
102
RTVSPost2010PropOp54
 70
     1
102
RTVSPost2010Prop55
280
     0
102
RTVSPost2010PropOp55
 70
     1
102
RTVSPost2010Prop56
140
1.0
102
RTVSPost2010PropOp56
 70
     1
102
RTVSPost2010Prop57
140
1.0
102
RTVSPost2010PropOp57
 70
     1
102
RTVSPropertyOp0
 70
     1
102
RTVSPropertyOp1
 70
     1
102
RTVSPropertyOp2
 70
     1
102
RTVSPropertyOp3
 70
     1
102
RTVSPropertyOp4
 70
     1
102
RTVSPropertyOp5
 70
     1
102
RTVSPropertyOp6
 70
     1
102
RTVSPropertyOp7
 70
     1
102
RTVSPropertyOp8
 70
     1
102
RTVSPropertyOp9
 70
     1
102
RTVSPropertyOp10
 70
     1
102
RTVSPropertyOp11
 70
     1
102
RTVSPropertyOp12
 70
     1
102
RTVSPropertyOp13
 70
     1
102
RTVSPropertyOp14
 70
     1
102
RTVSPropertyOp15
 70
     1
102
RTVSPropertyOp16
 70
     1
102
RTVSPropertyOp17
 70
     1
102
RTVSPropertyOp18
 70
     1
102
RTVSPropertyOp19
 70
     1
102
RTVSPropertyOp20
 70
     1
102
RTVSPropertyOp21
 70
     1
102
RTVSPropertyOp22
 70
     1
102
RTVSPropertyOp23
 70
     1
102
RTVSPropertyOp24
 70
     1
102
RTVSPropertyOp25
 70
     1
102
RTVSPropertyOp26
 70
     1
102
RTVSPropertyOp27
 70
     1
102
RTVSPropertyOp28
 70
     1
102
RTVSPropertyOp29
 70
     1
102
RTVSPropertyOp30
 70
     1
102
RTVSPropertyOp31
 70
     1
102
RTVSPropertyOp32
 70
     1
102
RTVSPropertyOp33
 70
     1
102
RTVSPropertyOp34
 70
     1
102
RTVSPropertyOp35
 70
     1
102
RTVSPropertyOp36
 70
     1
102
RTVSPropertyOp37
 70
     1
102
RTVSPropertyOp38
 70
     1
102
RTVSPropertyOp39
 70
     1
102
RTVSPropertyOp40
 70
     1
102
RTVSPropertyOp41
 70
     1
102
RTVSPropertyOp42
 70
     1
102
RTVSPropertyOp43
 70
     1
102
RTVSPropertyOp44
 70
     1
102
RTVSPropertyOp45
 70
     1
102
RTVSPropertyOp46
 70
     1
102
RTVSPropertyOp47
 70
     1
102
RTVSPropertyOp48
 70
     1
102
RTVSPropertyOp49
 70
     1
102
RTVSPropertyOp50
 70
     1
102
RTVSPropertyOp51
 70
     0
102
RTVSPropertyOp52
 70
     0
102
RTVSPropertyOp53
 70
     1
102
RTVSPropertyOp54
 70
     1
102
RTVSPropertyOp55
 70
     1
102
RTVSPropertyOp56
 70
     1
102
RTVSPropertyOp57
 70
     1
102
RTVSPropertyOp58
 70
     1
102
RTVSPropertyOp59
 70
     1
102
RTVSPropertyOp60
 70
     1
102
RTVSPropertyOp61
 70
     1
102
RTVSPropertyOp62
 70
     1
  0
XRECORD
  5
483
102
{ACAD_REACTORS
330
482
102
}
330
482
100
AcDbXrecord
280
     1
102
RTVSPost2010Prop28
280
     0
102
RTVSPost2010PropOp28
 70
     1
102
RTVSPost2010Prop29
280
     1
102
RTVSPost2010PropOp29
 70
     1
102
RTVSPost2010Prop30
280
     1
102
RTVSPost2010PropOp30
 70
     1
102
RTVSPost2010Prop31
280
     0
102
RTVSPost2010PropOp31
 70
     1
102
RTVSPost2010Prop32
280
     0
102
RTVSPost2010PropOp32
 70
     1
102
RTVSPost2010Prop33
280
     0
102
RTVSPost2010PropOp33
 70
     1
102
RTVSPost2010Prop34
280
     0
102
RTVSPost2010PropOp34
 70
     1
102
RTVSPost2010Prop35
280
     0
102
RTVSPost2010PropOp35
 70
     1
102
RTVSPost2010Prop36
280
     0
102
RTVSPost2010PropOp36
 70
     1
102
RTVSPost2010Prop37
 90
       50
102
RTVSPost2010PropOp37
 70
     1
102
RTVSPost2010Prop38
140
0.0
102
RTVSPost2010PropOp38
 70
     1
102
RTVSPost2010Prop39
140
1.0
102
RTVSPost2010PropOp39
 70
     1
102
RTVSPost2010Prop40
 90
        0
102
RTVSPost2010PropOp40
 70
     1
102
RTVSPost2010Prop41ColorIndex
 90
       18
102
RTVSPost2010Prop41ColorRGB
 90
        0
102
RTVSPost2010PropOp41
 70
     1
102
RTVSPost2010Prop42
 90
       50
102
RTVSPost2010PropOp42
 70
     1
102
RTVSPost2010Prop43
 90
        3
102
RTVSPost2010PropOp43
 70
     1
102
RTVSPost2010Prop44ColorIndex
 90
        5
102
RTVSPost2010Prop44ColorRGB
 90
      255
102
RTVSPost2010PropOp44
 70
     1
102
RTVSPost2010Prop45
280
     0
102
RTVSPost2010PropOp45
 70
     1
102
RTVSPost2010Prop46
 90
       50
102
RTVSPost2010PropOp46
 70
     1
102
RTVSPost2010Prop47
 90
       50
102
RTVSPost2010PropOp47
 70
     1
102
RTVSPost2010Prop48
 90
       50
102
RTVSPost2010PropOp48
 70
     1
102
RTVSPost2010Prop49
280
     0
102
RTVSPost2010PropOp49
 70
     1
102
RTVSPost2010Prop50
 90
       50
102
RTVSPost2010PropOp50
 70
     1
102
RTVSPost2010Prop51ColorIndex
 90
      256
102
RTVSPost2010Prop51ColorRGB
 90
-16777216
102
RTVSPost2010PropOp51
 70
     0
102
RTVSPost2010Prop52
140
1.0
102
RTVSPost2010PropOp52
 70
     0
102
RTVSPost2010Prop53
 90
        2
102
RTVSPost2010PropOp53
 70
     1
102
RTVSPost2010Prop54
  1
strokes_ogs.tif
102
RTVSPost2010PropOp54
 70
     1
102
RTVSPost2010Prop55
280
     0
102
RTVSPost2010PropOp55
 70
     1
102
RTVSPost2010Prop56
140
1.0
102
RTVSPost2010PropOp56
 70
     1
102
RTVSPost2010Prop57
140
1.0
102
RTVSPost2010PropOp57
 70
     1
102
RTVSPropertyOp0
 70
     1
102
RTVSPropertyOp1
 70
     1
102
RTVSPropertyOp2
 70
     1
102
RTVSPropertyOp3
 70
     1
102
RTVSPropertyOp4
 70
     1
102
RTVSPropertyOp5
 70
     1
102
RTVSPropertyOp6
 70
     1
102
RTVSPropertyOp7
 70
     1
102
RTVSPropertyOp8
 70
     1
102
RTVSPropertyOp9
 70
     1
102
RTVSPropertyOp10
 70
     1
102
RTVSPropertyOp11
 70
     1
102
RTVSPropertyOp12
 70
     1
102
RTVSPropertyOp13
 70
     1
102
RTVSPropertyOp14
 70
     1
102
RTVSPropertyOp15
 70
     1
102
RTVSPropertyOp16
 70
     1
102
RTVSPropertyOp17
 70
     1
102
RTVSPropertyOp18
 70
     1
102
RTVSPropertyOp19
 70
     1
102
RTVSPropertyOp20
 70
     1
102
RTVSPropertyOp21
 70
     1
102
RTVSPropertyOp22
 70
     1
102
RTVSPropertyOp23
 70
     1
102
RTVSPropertyOp24
 70
     1
102
RTVSPropertyOp25
 70
     1
102
RTVSPropertyOp26
 70
     1
102
RTVSPropertyOp27
 70
     1
102
RTVSPropertyOp28
 70
     1
102
RTVSPropertyOp29
 70
     1
102
RTVSPropertyOp30
 70
     1
102
RTVSPropertyOp31
 70
     1
102
RTVSPropertyOp32
 70
     1
102
RTVSPropertyOp33
 70
     1
102
RTVSPropertyOp34
 70
     1
102
RTVSPropertyOp35
 70
     1
102
RTVSPropertyOp36
 70
     1
102
RTVSPropertyOp37
 70
     1
102
RTVSPropertyOp38
 70
     1
102
RTVSPropertyOp39
 70
     1
102
RTVSPropertyOp40
 70
     1
102
RTVSPropertyOp41
 70
     1
102
RTVSPropertyOp42
 70
     1
102
RTVSPropertyOp43
 70
     1
102
RTVSPropertyOp44
 70
     1
102
RTVSPropertyOp45
 70
     1
102
RTVSPropertyOp46
 70
     1
102
RTVSPropertyOp47
 70
     1
102
RTVSPropertyOp48
 70
     1
102
RTVSPropertyOp49
 70
     1
102
RTVSPropertyOp50
 70
     1
102
RTVSPropertyOp51
 70
     0
102
RTVSPropertyOp52
 70
     0
102
RTVSPropertyOp53
 70
     1
102
RTVSPropertyOp54
 70
     1
102
RTVSPropertyOp55
 70
     1
102
RTVSPropertyOp56
 70
     1
102
RTVSPropertyOp57
 70
     1
102
RTVSPropertyOp58
 70
     1
102
RTVSPropertyOp59
 70
     1
102
RTVSPropertyOp60
 70
     1
102
RTVSPropertyOp61
 70
     1
102
RTVSPropertyOp62
 70
     1
  0
XRECORD
  5
481
102
{ACAD_REACTORS
330
480
102
}
330
480
100
AcDbXrecord
280
     1
102
RTVSPost2010Prop28
280
     0
102
RTVSPost2010PropOp28
 70
     1
102
RTVSPost2010Prop29
280
     1
102
RTVSPost2010PropOp29
 70
     1
102
RTVSPost2010Prop30
280
     1
102
RTVSPost2010PropOp30
 70
     1
102
RTVSPost2010Prop31
280
     0
102
RTVSPost2010PropOp31
 70
     1
102
RTVSPost2010Prop32
280
     0
102
RTVSPost2010PropOp32
 70
     1
102
RTVSPost2010Prop33
280
     0
102
RTVSPost2010PropOp33
 70
     1
102
RTVSPost2010Prop34
280
     0
102
RTVSPost2010PropOp34
 70
     1
102
RTVSPost2010Prop35
280
     0
102
RTVSPost2010PropOp35
 70
     1
102
RTVSPost2010Prop36
280
     0
102
RTVSPost2010PropOp36
 70
     1
102
RTVSPost2010Prop37
 90
       50
102
RTVSPost2010PropOp37
 70
     1
102
RTVSPost2010Prop38
140
0.0
102
RTVSPost2010PropOp38
 70
     1
102
RTVSPost2010Prop39
140
1.0
102
RTVSPost2010PropOp39
 70
     1
102
RTVSPost2010Prop40
 90
        0
102
RTVSPost2010PropOp40
 70
     1
102
RTVSPost2010Prop41ColorIndex
 90
       18
102
RTVSPost2010Prop41ColorRGB
 90
        0
102
RTVSPost2010PropOp41
 70
     1
102
RTVSPost2010Prop42
 90
       50
102
RTVSPost2010PropOp42
 70
     1
102
RTVSPost2010Prop43
 90
        3
102
RTVSPost2010PropOp43
 70
     1
102
RTVSPost2010Prop44ColorIndex
 90
        5
102
RTVSPost2010Prop44ColorRGB
 90
      255
102
RTVSPost2010PropOp44
 70
     1
102
RTVSPost2010Prop45
280
     0
102
RTVSPost2010PropOp45
 70
     1
102
RTVSPost2010Prop46
 90
       50
102
RTVSPost2010PropOp46
 70
     1
102
RTVSPost2010Prop47
 90
       50
102
RTVSPost2010PropOp47
 70
     1
102
RTVSPost2010Prop48
 90
       50
102
RTVSPost2010PropOp48
 70
     1
102
RTVSPost2010Prop49
280
     0
102
RTVSPost2010PropOp49
 70
     1
102
RTVSPost2010Prop50
 90
       50
102
RTVSPost2010PropOp50
 70
     1
102
RTVSPost2010Prop51ColorIndex
 90
      256
102
RTVSPost2010Prop51ColorRGB
 90
-16777216
102
RTVSPost2010PropOp51
 70
     0
102
RTVSPost2010Prop52
140
1.0
102
RTVSPost2010PropOp52
 70
     0
102
RTVSPost2010Prop53
 90
        2
102
RTVSPost2010PropOp53
 70
     1
102
RTVSPost2010Prop54
  1
strokes_ogs.tif
102
RTVSPost2010PropOp54
 70
     1
102
RTVSPost2010Prop55
280
     0
102
RTVSPost2010PropOp55
 70
     1
102
RTVSPost2010Prop56
140
1.0
102
RTVSPost2010PropOp56
 70
     1
102
RTVSPost2010Prop57
140
1.0
102
RTVSPost2010PropOp57
 70
     1
102
RTVSPropertyOp0
 70
     1
102
RTVSPropertyOp1
 70
     1
102
RTVSPropertyOp2
 70
     1
102
RTVSPropertyOp3
 70
     1
102
RTVSPropertyOp4
 70
     1
102
RTVSPropertyOp5
 70
     1
102
RTVSPropertyOp6
 70
     1
102
RTVSPropertyOp7
 70
     1
102
RTVSPropertyOp8
 70
     1
102
RTVSPropertyOp9
 70
     1
102
RTVSPropertyOp10
 70
     1
102
RTVSPropertyOp11
 70
     1
102
RTVSPropertyOp12
 70
     1
102
RTVSPropertyOp13
 70
     1
102
RTVSPropertyOp14
 70
     1
102
RTVSPropertyOp15
 70
     1
102
RTVSPropertyOp16
 70
     1
102
RTVSPropertyOp17
 70
     1
102
RTVSPropertyOp18
 70
     1
102
RTVSPropertyOp19
 70
     1
102
RTVSPropertyOp20
 70
     1
102
RTVSPropertyOp21
 70
     1
102
RTVSPropertyOp22
 70
     1
102
RTVSPropertyOp23
 70
     1
102
RTVSPropertyOp24
 70
     1
102
RTVSPropertyOp25
 70
     1
102
RTVSPropertyOp26
 70
     1
102
RTVSPropertyOp27
 70
     1
102
RTVSPropertyOp28
 70
     1
102
RTVSPropertyOp29
 70
     1
102
RTVSPropertyOp30
 70
     1
102
RTVSPropertyOp31
 70
     1
102
RTVSPropertyOp32
 70
     1
102
RTVSPropertyOp33
 70
     1
102
RTVSPropertyOp34
 70
     1
102
RTVSPropertyOp35
 70
     1
102
RTVSPropertyOp36
 70
     1
102
RTVSPropertyOp37
 70
     1
102
RTVSPropertyOp38
 70
     1
102
RTVSPropertyOp39
 70
     1
102
RTVSPropertyOp40
 70
     1
102
RTVSPropertyOp41
 70
     1
102
RTVSPropertyOp42
 70
     1
102
RTVSPropertyOp43
 70
     1
102
RTVSPropertyOp44
 70
     1
102
RTVSPropertyOp45
 70
     1
102
RTVSPropertyOp46
 70
     1
102
RTVSPropertyOp47
 70
     1
102
RTVSPropertyOp48
 70
     1
102
RTVSPropertyOp49
 70
     1
102
RTVSPropertyOp50
 70
     1
102
RTVSPropertyOp51
 70
     0
102
RTVSPropertyOp52
 70
     0
102
RTVSPropertyOp53
 70
     1
102
RTVSPropertyOp54
 70
     1
102
RTVSPropertyOp55
 70
     1
102
RTVSPropertyOp56
 70
     1
102
RTVSPropertyOp57
 70
     1
102
RTVSPropertyOp58
 70
     1
102
RTVSPropertyOp59
 70
     1
102
RTVSPropertyOp60
 70
     1
102
RTVSPropertyOp61
 70
     1
102
RTVSPropertyOp62
 70
     1
  0
XRECORD
  5
47B
102
{ACAD_REACTORS
330
47A
102
}
330
47A
100
AcDbXrecord
280
     1
102
RTVSPost2010Prop28
280
     0
102
RTVSPost2010PropOp28
 70
     1
102
RTVSPost2010Prop29
280
     1
102
RTVSPost2010PropOp29
 70
     1
102
RTVSPost2010Prop30
280
     1
102
RTVSPost2010PropOp30
 70
     1
102
RTVSPost2010Prop31
280
     0
102
RTVSPost2010PropOp31
 70
     1
102
RTVSPost2010Prop32
280
     0
102
RTVSPost2010PropOp32
 70
     1
102
RTVSPost2010Prop33
280
     0
102
RTVSPost2010PropOp33
 70
     1
102
RTVSPost2010Prop34
280
     0
102
RTVSPost2010PropOp34
 70
     1
102
RTVSPost2010Prop35
280
     0
102
RTVSPost2010PropOp35
 70
     1
102
RTVSPost2010Prop36
280
     0
102
RTVSPost2010PropOp36
 70
     1
102
RTVSPost2010Prop37
 90
       50
102
RTVSPost2010PropOp37
 70
     1
102
RTVSPost2010Prop38
140
0.0
102
RTVSPost2010PropOp38
 70
     1
102
RTVSPost2010Prop39
140
1.0
102
RTVSPost2010PropOp39
 70
     1
102
RTVSPost2010Prop40
 90
        0
102
RTVSPost2010PropOp40
 70
     1
102
RTVSPost2010Prop41ColorIndex
 90
       18
102
RTVSPost2010Prop41ColorRGB
 90
        0
102
RTVSPost2010PropOp41
 70
     1
102
RTVSPost2010Prop42
 90
       50
102
RTVSPost2010PropOp42
 70
     1
102
RTVSPost2010Prop43
 90
        3
102
RTVSPost2010PropOp43
 70
     1
102
RTVSPost2010Prop44ColorIndex
 90
        5
102
RTVSPost2010Prop44ColorRGB
 90
      255
102
RTVSPost2010PropOp44
 70
     1
102
RTVSPost2010Prop45
280
     0
102
RTVSPost2010PropOp45
 70
     1
102
RTVSPost2010Prop46
 90
       50
102
RTVSPost2010PropOp46
 70
     1
102
RTVSPost2010Prop47
 90
       50
102
RTVSPost2010PropOp47
 70
     1
102
RTVSPost2010Prop48
 90
       50
102
RTVSPost2010PropOp48
 70
     1
102
RTVSPost2010Prop49
280
     0
102
RTVSPost2010PropOp49
 70
     1
102
RTVSPost2010Prop50
 90
       50
102
RTVSPost2010PropOp50
 70
     1
102
RTVSPost2010Prop51ColorIndex
 90
      256
102
RTVSPost2010Prop51ColorRGB
 90
-16777216
102
RTVSPost2010PropOp51
 70
     0
102
RTVSPost2010Prop52
140
1.0
102
RTVSPost2010PropOp52
 70
     0
102
RTVSPost2010Prop53
 90
        2
102
RTVSPost2010PropOp53
 70
     1
102
RTVSPost2010Prop54
  1
strokes_ogs.tif
102
RTVSPost2010PropOp54
 70
     1
102
RTVSPost2010Prop55
280
     0
102
RTVSPost2010PropOp55
 70
     1
102
RTVSPost2010Prop56
140
1.0
102
RTVSPost2010PropOp56
 70
     1
102
RTVSPost2010Prop57
140
1.0
102
RTVSPost2010PropOp57
 70
     1
102
RTVSPropertyOp0
 70
     1
102
RTVSPropertyOp1
 70
     1
102
RTVSPropertyOp2
 70
     1
102
RTVSPropertyOp3
 70
     1
102
RTVSPropertyOp4
 70
     1
102
RTVSPropertyOp5
 70
     1
102
RTVSPropertyOp6
 70
     1
102
RTVSPropertyOp7
 70
     1
102
RTVSPropertyOp8
 70
     1
102
RTVSPropertyOp9
 70
     1
102
RTVSPropertyOp10
 70
     1
102
RTVSPropertyOp11
 70
     1
102
RTVSPropertyOp12
 70
     1
102
RTVSPropertyOp13
 70
     1
102
RTVSPropertyOp14
 70
     1
102
RTVSPropertyOp15
 70
     1
102
RTVSPropertyOp16
 70
     1
102
RTVSPropertyOp17
 70
     1
102
RTVSPropertyOp18
 70
     1
102
RTVSPropertyOp19
 70
     1
102
RTVSPropertyOp20
 70
     1
102
RTVSPropertyOp21
 70
     1
102
RTVSPropertyOp22
 70
     1
102
RTVSPropertyOp23
 70
     1
102
RTVSPropertyOp24
 70
     1
102
RTVSPropertyOp25
 70
     1
102
RTVSPropertyOp26
 70
     1
102
RTVSPropertyOp27
 70
     1
102
RTVSPropertyOp28
 70
     1
102
RTVSPropertyOp29
 70
     1
102
RTVSPropertyOp30
 70
     1
102
RTVSPropertyOp31
 70
     1
102
RTVSPropertyOp32
 70
     1
102
RTVSPropertyOp33
 70
     1
102
RTVSPropertyOp34
 70
     1
102
RTVSPropertyOp35
 70
     1
102
RTVSPropertyOp36
 70
     1
102
RTVSPropertyOp37
 70
     1
102
RTVSPropertyOp38
 70
     1
102
RTVSPropertyOp39
 70
     1
102
RTVSPropertyOp40
 70
     1
102
RTVSPropertyOp41
 70
     1
102
RTVSPropertyOp42
 70
     1
102
RTVSPropertyOp43
 70
     1
102
RTVSPropertyOp44
 70
     1
102
RTVSPropertyOp45
 70
     1
102
RTVSPropertyOp46
 70
     1
102
RTVSPropertyOp47
 70
     1
102
RTVSPropertyOp48
 70
     1
102
RTVSPropertyOp49
 70
     1
102
RTVSPropertyOp50
 70
     1
102
RTVSPropertyOp51
 70
     0
102
RTVSPropertyOp52
 70
     0
102
RTVSPropertyOp53
 70
     1
102
RTVSPropertyOp54
 70
     1
102
RTVSPropertyOp55
 70
     1
102
RTVSPropertyOp56
 70
     1
102
RTVSPropertyOp57
 70
     1
102
RTVSPropertyOp58
 70
     1
102
RTVSPropertyOp59
 70
     1
102
RTVSPropertyOp60
 70
     1
102
RTVSPropertyOp61
 70
     1
102
RTVSPropertyOp62
 70
     1
  0
XRECORD
  5
47D
102
{ACAD_REACTORS
330
47C
102
}
330
47C
100
AcDbXrecord
280
     1
102
RTVSPost2010Prop28
280
     0
102
RTVSPost2010PropOp28
 70
     1
102
RTVSPost2010Prop29
280
     1
102
RTVSPost2010PropOp29
 70
     1
102
RTVSPost2010Prop30
280
     1
102
RTVSPost2010PropOp30
 70
     1
102
RTVSPost2010Prop31
280
     0
102
RTVSPost2010PropOp31
 70
     1
102
RTVSPost2010Prop32
280
     0
102
RTVSPost2010PropOp32
 70
     1
102
RTVSPost2010Prop33
280
     0
102
RTVSPost2010PropOp33
 70
     1
102
RTVSPost2010Prop34
280
     0
102
RTVSPost2010PropOp34
 70
     1
102
RTVSPost2010Prop35
280
     0
102
RTVSPost2010PropOp35
 70
     1
102
RTVSPost2010Prop36
280
     0
102
RTVSPost2010PropOp36
 70
     1
102
RTVSPost2010Prop37
 90
       50
102
RTVSPost2010PropOp37
 70
     1
102
RTVSPost2010Prop38
140
0.0
102
RTVSPost2010PropOp38
 70
     1
102
RTVSPost2010Prop39
140
1.0
102
RTVSPost2010PropOp39
 70
     1
102
RTVSPost2010Prop40
 90
        0
102
RTVSPost2010PropOp40
 70
     1
102
RTVSPost2010Prop41ColorIndex
 90
       18
102
RTVSPost2010Prop41ColorRGB
 90
        0
102
RTVSPost2010PropOp41
 70
     1
102
RTVSPost2010Prop42
 90
       50
102
RTVSPost2010PropOp42
 70
     1
102
RTVSPost2010Prop43
 90
        3
102
RTVSPost2010PropOp43
 70
     1
102
RTVSPost2010Prop44ColorIndex
 90
        5
102
RTVSPost2010Prop44ColorRGB
 90
      255
102
RTVSPost2010PropOp44
 70
     1
102
RTVSPost2010Prop45
280
     0
102
RTVSPost2010PropOp45
 70
     1
102
RTVSPost2010Prop46
 90
       50
102
RTVSPost2010PropOp46
 70
     1
102
RTVSPost2010Prop47
 90
       50
102
RTVSPost2010PropOp47
 70
     1
102
RTVSPost2010Prop48
 90
       50
102
RTVSPost2010PropOp48
 70
     1
102
RTVSPost2010Prop49
280
     0
102
RTVSPost2010PropOp49
 70
     1
102
RTVSPost2010Prop50
 90
       50
102
RTVSPost2010PropOp50
 70
     1
102
RTVSPost2010Prop51ColorIndex
 90
      256
102
RTVSPost2010Prop51ColorRGB
 90
-16777216
102
RTVSPost2010PropOp51
 70
     0
102
RTVSPost2010Prop52
140
1.0
102
RTVSPost2010PropOp52
 70
     0
102
RTVSPost2010Prop53
 90
        2
102
RTVSPost2010PropOp53
 70
     1
102
RTVSPost2010Prop54
  1
strokes_ogs.tif
102
RTVSPost2010PropOp54
 70
     1
102
RTVSPost2010Prop55
280
     0
102
RTVSPost2010PropOp55
 70
     1
102
RTVSPost2010Prop56
140
1.0
102
RTVSPost2010PropOp56
 70
     1
102
RTVSPost2010Prop57
140
1.0
102
RTVSPost2010PropOp57
 70
     1
102
RTVSPropertyOp0
 70
     1
102
RTVSPropertyOp1
 70
     1
102
RTVSPropertyOp2
 70
     1
102
RTVSPropertyOp3
 70
     1
102
RTVSPropertyOp4
 70
     1
102
RTVSPropertyOp5
 70
     1
102
RTVSPropertyOp6
 70
     1
102
RTVSPropertyOp7
 70
     1
102
RTVSPropertyOp8
 70
     1
102
RTVSPropertyOp9
 70
     1
102
RTVSPropertyOp10
 70
     1
102
RTVSPropertyOp11
 70
     1
102
RTVSPropertyOp12
 70
     1
102
RTVSPropertyOp13
 70
     1
102
RTVSPropertyOp14
 70
     1
102
RTVSPropertyOp15
 70
     1
102
RTVSPropertyOp16
 70
     1
102
RTVSPropertyOp17
 70
     1
102
RTVSPropertyOp18
 70
     1
102
RTVSPropertyOp19
 70
     1
102
RTVSPropertyOp20
 70
     1
102
RTVSPropertyOp21
 70
     1
102
RTVSPropertyOp22
 70
     1
102
RTVSPropertyOp23
 70
     1
102
RTVSPropertyOp24
 70
     1
102
RTVSPropertyOp25
 70
     1
102
RTVSPropertyOp26
 70
     1
102
RTVSPropertyOp27
 70
     1
102
RTVSPropertyOp28
 70
     1
102
RTVSPropertyOp29
 70
     1
102
RTVSPropertyOp30
 70
     1
102
RTVSPropertyOp31
 70
     1
102
RTVSPropertyOp32
 70
     1
102
RTVSPropertyOp33
 70
     1
102
RTVSPropertyOp34
 70
     1
102
RTVSPropertyOp35
 70
     1
102
RTVSPropertyOp36
 70
     1
102
RTVSPropertyOp37
 70
     1
102
RTVSPropertyOp38
 70
     1
102
RTVSPropertyOp39
 70
     1
102
RTVSPropertyOp40
 70
     1
102
RTVSPropertyOp41
 70
     1
102
RTVSPropertyOp42
 70
     1
102
RTVSPropertyOp43
 70
     1
102
RTVSPropertyOp44
 70
     1
102
RTVSPropertyOp45
 70
     1
102
RTVSPropertyOp46
 70
     1
102
RTVSPropertyOp47
 70
     1
102
RTVSPropertyOp48
 70
     1
102
RTVSPropertyOp49
 70
     1
102
RTVSPropertyOp50
 70
     1
102
RTVSPropertyOp51
 70
     0
102
RTVSPropertyOp52
 70
     0
102
RTVSPropertyOp53
 70
     1
102
RTVSPropertyOp54
 70
     1
102
RTVSPropertyOp55
 70
     1
102
RTVSPropertyOp56
 70
     1
102
RTVSPropertyOp57
 70
     1
102
RTVSPropertyOp58
 70
     1
102
RTVSPropertyOp59
 70
     1
102
RTVSPropertyOp60
 70
     1
102
RTVSPropertyOp61
 70
     1
102
RTVSPropertyOp62
 70
     1
  0
XRECORD
  5
46D
102
{ACAD_REACTORS
330
46C
102
}
330
46C
100
AcDbXrecord
280
     1
102
RTVSPost2010Prop28
280
     0
102
RTVSPost2010PropOp28
 70
     1
102
RTVSPost2010Prop29
280
     1
102
RTVSPost2010PropOp29
 70
     1
102
RTVSPost2010Prop30
280
     1
102
RTVSPost2010PropOp30
 70
     1
102
RTVSPost2010Prop31
280
     0
102
RTVSPost2010PropOp31
 70
     1
102
RTVSPost2010Prop32
280
     0
102
RTVSPost2010PropOp32
 70
     1
102
RTVSPost2010Prop33
280
     0
102
RTVSPost2010PropOp33
 70
     1
102
RTVSPost2010Prop34
280
     0
102
RTVSPost2010PropOp34
 70
     1
102
RTVSPost2010Prop35
280
     0
102
RTVSPost2010PropOp35
 70
     1
102
RTVSPost2010Prop36
280
     0
102
RTVSPost2010PropOp36
 70
     1
102
RTVSPost2010Prop37
 90
       50
102
RTVSPost2010PropOp37
 70
     1
102
RTVSPost2010Prop38
140
0.0
102
RTVSPost2010PropOp38
 70
     1
102
RTVSPost2010Prop39
140
1.0
102
RTVSPost2010PropOp39
 70
     1
102
RTVSPost2010Prop40
 90
        0
102
RTVSPost2010PropOp40
 70
     1
102
RTVSPost2010Prop41ColorIndex
 90
       18
102
RTVSPost2010Prop41ColorRGB
 90
        0
102
RTVSPost2010PropOp41
 70
     1
102
RTVSPost2010Prop42
 90
       50
102
RTVSPost2010PropOp42
 70
     1
102
RTVSPost2010Prop43
 90
        3
102
RTVSPost2010PropOp43
 70
     1
102
RTVSPost2010Prop44ColorIndex
 90
        5
102
RTVSPost2010Prop44ColorRGB
 90
      255
102
RTVSPost2010PropOp44
 70
     1
102
RTVSPost2010Prop45
280
     0
102
RTVSPost2010PropOp45
 70
     1
102
RTVSPost2010Prop46
 90
       50
102
RTVSPost2010PropOp46
 70
     1
102
RTVSPost2010Prop47
 90
       50
102
RTVSPost2010PropOp47
 70
     1
102
RTVSPost2010Prop48
 90
       50
102
RTVSPost2010PropOp48
 70
     1
102
RTVSPost2010Prop49
280
     0
102
RTVSPost2010PropOp49
 70
     1
102
RTVSPost2010Prop50
 90
       50
102
RTVSPost2010PropOp50
 70
     1
102
RTVSPost2010Prop51ColorIndex
 90
      256
102
RTVSPost2010Prop51ColorRGB
 90
-16777216
102
RTVSPost2010PropOp51
 70
     0
102
RTVSPost2010Prop52
140
1.0
102
RTVSPost2010PropOp52
 70
     0
102
RTVSPost2010Prop53
 90
        2
102
RTVSPost2010PropOp53
 70
     1
102
RTVSPost2010Prop54
  1
strokes_ogs.tif
102
RTVSPost2010PropOp54
 70
     1
102
RTVSPost2010Prop55
280
     0
102
RTVSPost2010PropOp55
 70
     1
102
RTVSPost2010Prop56
140
1.0
102
RTVSPost2010PropOp56
 70
     1
102
RTVSPost2010Prop57
140
1.0
102
RTVSPost2010PropOp57
 70
     1
102
RTVSPropertyOp0
 70
     1
102
RTVSPropertyOp1
 70
     1
102
RTVSPropertyOp2
 70
     1
102
RTVSPropertyOp3
 70
     1
102
RTVSPropertyOp4
 70
     1
102
RTVSPropertyOp5
 70
     1
102
RTVSPropertyOp6
 70
     1
102
RTVSPropertyOp7
 70
     1
102
RTVSPropertyOp8
 70
     1
102
RTVSPropertyOp9
 70
     1
102
RTVSPropertyOp10
 70
     1
102
RTVSPropertyOp11
 70
     1
102
RTVSPropertyOp12
 70
     1
102
RTVSPropertyOp13
 70
     1
102
RTVSPropertyOp14
 70
     1
102
RTVSPropertyOp15
 70
     1
102
RTVSPropertyOp16
 70
     1
102
RTVSPropertyOp17
 70
     1
102
RTVSPropertyOp18
 70
     1
102
RTVSPropertyOp19
 70
     1
102
RTVSPropertyOp20
 70
     1
102
RTVSPropertyOp21
 70
     1
102
RTVSPropertyOp22
 70
     1
102
RTVSPropertyOp23
 70
     1
102
RTVSPropertyOp24
 70
     1
102
RTVSPropertyOp25
 70
     1
102
RTVSPropertyOp26
 70
     1
102
RTVSPropertyOp27
 70
     1
102
RTVSPropertyOp28
 70
     1
102
RTVSPropertyOp29
 70
     1
102
RTVSPropertyOp30
 70
     1
102
RTVSPropertyOp31
 70
     1
102
RTVSPropertyOp32
 70
     1
102
RTVSPropertyOp33
 70
     1
102
RTVSPropertyOp34
 70
     1
102
RTVSPropertyOp35
 70
     1
102
RTVSPropertyOp36
 70
     1
102
RTVSPropertyOp37
 70
     1
102
RTVSPropertyOp38
 70
     1
102
RTVSPropertyOp39
 70
     1
102
RTVSPropertyOp40
 70
     1
102
RTVSPropertyOp41
 70
     1
102
RTVSPropertyOp42
 70
     1
102
RTVSPropertyOp43
 70
     1
102
RTVSPropertyOp44
 70
     1
102
RTVSPropertyOp45
 70
     1
102
RTVSPropertyOp46
 70
     1
102
RTVSPropertyOp47
 70
     1
102
RTVSPropertyOp48
 70
     1
102
RTVSPropertyOp49
 70
     1
102
RTVSPropertyOp50
 70
     1
102
RTVSPropertyOp51
 70
     0
102
RTVSPropertyOp52
 70
     0
102
RTVSPropertyOp53
 70
     1
102
RTVSPropertyOp54
 70
     1
102
RTVSPropertyOp55
 70
     1
102
RTVSPropertyOp56
 70
     1
102
RTVSPropertyOp57
 70
     1
102
RTVSPropertyOp58
 70
     1
102
RTVSPropertyOp59
 70
     1
102
RTVSPropertyOp60
 70
     1
102
RTVSPropertyOp61
 70
     1
102
RTVSPropertyOp62
 70
     1
  0
XRECORD
  5
45F
102
{ACAD_REACTORS
330
45E
102
}
330
45E
100
AcDbXrecord
280
     1
102
RTVSPost2010Prop28
280
     0
102
RTVSPost2010PropOp28
 70
     1
102
RTVSPost2010Prop29
280
     1
102
RTVSPost2010PropOp29
 70
     1
102
RTVSPost2010Prop30
280
     1
102
RTVSPost2010PropOp30
 70
     1
102
RTVSPost2010Prop31
280
     0
102
RTVSPost2010PropOp31
 70
     1
102
RTVSPost2010Prop32
280
     0
102
RTVSPost2010PropOp32
 70
     1
102
RTVSPost2010Prop33
280
     0
102
RTVSPost2010PropOp33
 70
     1
102
RTVSPost2010Prop34
280
     0
102
RTVSPost2010PropOp34
 70
     1
102
RTVSPost2010Prop35
280
     0
102
RTVSPost2010PropOp35
 70
     1
102
RTVSPost2010Prop36
280
     0
102
RTVSPost2010PropOp36
 70
     1
102
RTVSPost2010Prop37
 90
       50
102
RTVSPost2010PropOp37
 70
     1
102
RTVSPost2010Prop38
140
0.0
102
RTVSPost2010PropOp38
 70
     1
102
RTVSPost2010Prop39
140
1.0
102
RTVSPost2010PropOp39
 70
     1
102
RTVSPost2010Prop40
 90
        0
102
RTVSPost2010PropOp40
 70
     1
102
RTVSPost2010Prop41ColorIndex
 90
       18
102
RTVSPost2010Prop41ColorRGB
 90
        0
102
RTVSPost2010PropOp41
 70
     1
102
RTVSPost2010Prop42
 90
       50
102
RTVSPost2010PropOp42
 70
     1
102
RTVSPost2010Prop43
 90
        3
102
RTVSPost2010PropOp43
 70
     1
102
RTVSPost2010Prop44ColorIndex
 90
        5
102
RTVSPost2010Prop44ColorRGB
 90
      255
102
RTVSPost2010PropOp44
 70
     1
102
RTVSPost2010Prop45
280
     0
102
RTVSPost2010PropOp45
 70
     1
102
RTVSPost2010Prop46
 90
       50
102
RTVSPost2010PropOp46
 70
     1
102
RTVSPost2010Prop47
 90
       50
102
RTVSPost2010PropOp47
 70
     1
102
RTVSPost2010Prop48
 90
       50
102
RTVSPost2010PropOp48
 70
     1
102
RTVSPost2010Prop49
280
     0
102
RTVSPost2010PropOp49
 70
     1
102
RTVSPost2010Prop50
 90
       50
102
RTVSPost2010PropOp50
 70
     1
102
RTVSPost2010Prop51ColorIndex
 90
      256
102
RTVSPost2010Prop51ColorRGB
 90
-16777216
102
RTVSPost2010PropOp51
 70
     0
102
RTVSPost2010Prop52
140
1.0
102
RTVSPost2010PropOp52
 70
     0
102
RTVSPost2010Prop53
 90
        2
102
RTVSPost2010PropOp53
 70
     1
102
RTVSPost2010Prop54
  1
strokes_ogs.tif
102
RTVSPost2010PropOp54
 70
     1
102
RTVSPost2010Prop55
280
     0
102
RTVSPost2010PropOp55
 70
     1
102
RTVSPost2010Prop56
140
1.0
102
RTVSPost2010PropOp56
 70
     1
102
RTVSPost2010Prop57
140
1.0
102
RTVSPost2010PropOp57
 70
     1
102
RTVSPropertyOp0
 70
     1
102
RTVSPropertyOp1
 70
     1
102
RTVSPropertyOp2
 70
     1
102
RTVSPropertyOp3
 70
     1
102
RTVSPropertyOp4
 70
     1
102
RTVSPropertyOp5
 70
     1
102
RTVSPropertyOp6
 70
     1
102
RTVSPropertyOp7
 70
     1
102
RTVSPropertyOp8
 70
     1
102
RTVSPropertyOp9
 70
     1
102
RTVSPropertyOp10
 70
     1
102
RTVSPropertyOp11
 70
     1
102
RTVSPropertyOp12
 70
     1
102
RTVSPropertyOp13
 70
     1
102
RTVSPropertyOp14
 70
     1
102
RTVSPropertyOp15
 70
     1
102
RTVSPropertyOp16
 70
     1
102
RTVSPropertyOp17
 70
     1
102
RTVSPropertyOp18
 70
     1
102
RTVSPropertyOp19
 70
     1
102
RTVSPropertyOp20
 70
     1
102
RTVSPropertyOp21
 70
     1
102
RTVSPropertyOp22
 70
     1
102
RTVSPropertyOp23
 70
     1
102
RTVSPropertyOp24
 70
     1
102
RTVSPropertyOp25
 70
     1
102
RTVSPropertyOp26
 70
     1
102
RTVSPropertyOp27
 70
     1
102
RTVSPropertyOp28
 70
     1
102
RTVSPropertyOp29
 70
     1
102
RTVSPropertyOp30
 70
     1
102
RTVSPropertyOp31
 70
     1
102
RTVSPropertyOp32
 70
     1
102
RTVSPropertyOp33
 70
     1
102
RTVSPropertyOp34
 70
     1
102
RTVSPropertyOp35
 70
     1
102
RTVSPropertyOp36
 70
     1
102
RTVSPropertyOp37
 70
     1
102
RTVSPropertyOp38
 70
     1
102
RTVSPropertyOp39
 70
     1
102
RTVSPropertyOp40
 70
     1
102
RTVSPropertyOp41
 70
     1
102
RTVSPropertyOp42
 70
     1
102
RTVSPropertyOp43
 70
     1
102
RTVSPropertyOp44
 70
     1
102
RTVSPropertyOp45
 70
     1
102
RTVSPropertyOp46
 70
     1
102
RTVSPropertyOp47
 70
     1
102
RTVSPropertyOp48
 70
     1
102
RTVSPropertyOp49
 70
     1
102
RTVSPropertyOp50
 70
     1
102
RTVSPropertyOp51
 70
     0
102
RTVSPropertyOp52
 70
     0
102
RTVSPropertyOp53
 70
     1
102
RTVSPropertyOp54
 70
     1
102
RTVSPropertyOp55
 70
     1
102
RTVSPropertyOp56
 70
     1
102
RTVSPropertyOp57
 70
     1
102
RTVSPropertyOp58
 70
     1
102
RTVSPropertyOp59
 70
     1
102
RTVSPropertyOp60
 70
     1
102
RTVSPropertyOp61
 70
     1
102
RTVSPropertyOp62
 70
     1
  0
XRECORD
  5
47F
102
{ACAD_REACTORS
330
47E
102
}
330
47E
100
AcDbXrecord
280
     1
102
RTVSPost2010Prop28
280
     0
102
RTVSPost2010PropOp28
 70
     1
102
RTVSPost2010Prop29
280
     1
102
RTVSPost2010PropOp29
 70
     1
102
RTVSPost2010Prop30
280
     1
102
RTVSPost2010PropOp30
 70
     1
102
RTVSPost2010Prop31
280
     0
102
RTVSPost2010PropOp31
 70
     1
102
RTVSPost2010Prop32
280
     0
102
RTVSPost2010PropOp32
 70
     1
102
RTVSPost2010Prop33
280
     0
102
RTVSPost2010PropOp33
 70
     1
102
RTVSPost2010Prop34
280
     0
102
RTVSPost2010PropOp34
 70
     1
102
RTVSPost2010Prop35
280
     0
102
RTVSPost2010PropOp35
 70
     1
102
RTVSPost2010Prop36
280
     0
102
RTVSPost2010PropOp36
 70
     1
102
RTVSPost2010Prop37
 90
       50
102
RTVSPost2010PropOp37
 70
     1
102
RTVSPost2010Prop38
140
0.0
102
RTVSPost2010PropOp38
 70
     1
102
RTVSPost2010Prop39
140
1.0
102
RTVSPost2010PropOp39
 70
     1
102
RTVSPost2010Prop40
 90
        0
102
RTVSPost2010PropOp40
 70
     1
102
RTVSPost2010Prop41ColorIndex
 90
       18
102
RTVSPost2010Prop41ColorRGB
 90
        0
102
RTVSPost2010PropOp41
 70
     1
102
RTVSPost2010Prop42
 90
       50
102
RTVSPost2010PropOp42
 70
     1
102
RTVSPost2010Prop43
 90
        3
102
RTVSPost2010PropOp43
 70
     1
102
RTVSPost2010Prop44ColorIndex
 90
        5
102
RTVSPost2010Prop44ColorRGB
 90
      255
102
RTVSPost2010PropOp44
 70
     1
102
RTVSPost2010Prop45
280
     0
102
RTVSPost2010PropOp45
 70
     1
102
RTVSPost2010Prop46
 90
       50
102
RTVSPost2010PropOp46
 70
     1
102
RTVSPost2010Prop47
 90
       50
102
RTVSPost2010PropOp47
 70
     1
102
RTVSPost2010Prop48
 90
       50
102
RTVSPost2010PropOp48
 70
     1
102
RTVSPost2010Prop49
280
     0
102
RTVSPost2010PropOp49
 70
     1
102
RTVSPost2010Prop50
 90
       50
102
RTVSPost2010PropOp50
 70
     1
102
RTVSPost2010Prop51ColorIndex
 90
      256
102
RTVSPost2010Prop51ColorRGB
 90
-16777216
102
RTVSPost2010PropOp51
 70
     0
102
RTVSPost2010Prop52
140
1.0
102
RTVSPost2010PropOp52
 70
     0
102
RTVSPost2010Prop53
 90
        2
102
RTVSPost2010PropOp53
 70
     1
102
RTVSPost2010Prop54
  1
strokes_ogs.tif
102
RTVSPost2010PropOp54
 70
     1
102
RTVSPost2010Prop55
280
     0
102
RTVSPost2010PropOp55
 70
     1
102
RTVSPost2010Prop56
140
1.0
102
RTVSPost2010PropOp56
 70
     1
102
RTVSPost2010Prop57
140
1.0
102
RTVSPost2010PropOp57
 70
     1
102
RTVSPropertyOp0
 70
     1
102
RTVSPropertyOp1
 70
     1
102
RTVSPropertyOp2
 70
     1
102
RTVSPropertyOp3
 70
     1
102
RTVSPropertyOp4
 70
     1
102
RTVSPropertyOp5
 70
     1
102
RTVSPropertyOp6
 70
     1
102
RTVSPropertyOp7
 70
     1
102
RTVSPropertyOp8
 70
     1
102
RTVSPropertyOp9
 70
     1
102
RTVSPropertyOp10
 70
     1
102
RTVSPropertyOp11
 70
     1
102
RTVSPropertyOp12
 70
     1
102
RTVSPropertyOp13
 70
     1
102
RTVSPropertyOp14
 70
     1
102
RTVSPropertyOp15
 70
     1
102
RTVSPropertyOp16
 70
     1
102
RTVSPropertyOp17
 70
     1
102
RTVSPropertyOp18
 70
     1
102
RTVSPropertyOp19
 70
     1
102
RTVSPropertyOp20
 70
     1
102
RTVSPropertyOp21
 70
     1
102
RTVSPropertyOp22
 70
     1
102
RTVSPropertyOp23
 70
     1
102
RTVSPropertyOp24
 70
     1
102
RTVSPropertyOp25
 70
     1
102
RTVSPropertyOp26
 70
     1
102
RTVSPropertyOp27
 70
     1
102
RTVSPropertyOp28
 70
     1
102
RTVSPropertyOp29
 70
     1
102
RTVSPropertyOp30
 70
     1
102
RTVSPropertyOp31
 70
     1
102
RTVSPropertyOp32
 70
     1
102
RTVSPropertyOp33
 70
     1
102
RTVSPropertyOp34
 70
     1
102
RTVSPropertyOp35
 70
     1
102
RTVSPropertyOp36
 70
     1
102
RTVSPropertyOp37
 70
     1
102
RTVSPropertyOp38
 70
     1
102
RTVSPropertyOp39
 70
     1
102
RTVSPropertyOp40
 70
     1
102
RTVSPropertyOp41
 70
     1
102
RTVSPropertyOp42
 70
     1
102
RTVSPropertyOp43
 70
     1
102
RTVSPropertyOp44
 70
     1
102
RTVSPropertyOp45
 70
     1
102
RTVSPropertyOp46
 70
     1
102
RTVSPropertyOp47
 70
     1
102
RTVSPropertyOp48
 70
     1
102
RTVSPropertyOp49
 70
     1
102
RTVSPropertyOp50
 70
     1
102
RTVSPropertyOp51
 70
     0
102
RTVSPropertyOp52
 70
     0
102
RTVSPropertyOp53
 70
     1
102
RTVSPropertyOp54
 70
     1
102
RTVSPropertyOp55
 70
     1
102
RTVSPropertyOp56
 70
     1
102
RTVSPropertyOp57
 70
     1
102
RTVSPropertyOp58
 70
     1
102
RTVSPropertyOp59
 70
     1
102
RTVSPropertyOp60
 70
     1
102
RTVSPropertyOp61
 70
     1
102
RTVSPropertyOp62
 70
     1
  0
ENDSEC
  0
EOF
