  0
SECTION
  2
HEADER
  9
$ACADVER
  1
AC1018
  9
$ACADMAINTVER
 70
   104
  9
$DWGCODEPAGE
  3
ANSI_1250
  9
$LASTSAVEDBY
  1
pp0701
  9
$INSBASE
 10
0.0
 20
0.0
 30
0.0
  9
$EXTMIN
 10
222.2705322224171
 20
21.404126
 30
0.0
  9
$EXTMAX
 10
587.478648
 20
335.4000206666668
 30
0.0
  9
$LIMMIN
 10
-0.5
 20
-0.5
  9
$LIMMAX
 10
5.0
 20
5.0
  9
$ORTHOMODE
 70
     0
  9
$REGENMODE
 70
     1
  9
$FILLMODE
 70
     1
  9
$QTEXTMODE
 70
     0
  9
$MIRRTEXT
 70
     1
  9
$LTSCALE
 40
1.0
  9
$ATTMODE
 70
     1
  9
$TEXTSIZE
 40
0.2
  9
$TRACEWID
 40
0.05
  9
$TEXTSTYLE
  7
Standard
  9
$CLAYER
  8
0
  9
$CELTYPE
  6
ByLayer
  9
$CECOLOR
 62
   256
  9
$CELTSCALE
 40
1.0
  9
$DISPSILH
 70
     0
  9
$DIMSCALE
 40
1.0
  9
$DIMASZ
 40
0.18
  9
$DIMEXO
 40
0.0625
  9
$DIMDLI
 40
0.38
  9
$DIMRND
 40
0.0
  9
$DIMDLE
 40
0.0
  9
$DIMEXE
 40
0.18
  9
$DIMTP
 40
0.0
  9
$DIMTM
 40
0.0
  9
$DIMTXT
 40
0.18
  9
$DIMCEN
 40
0.09
  9
$DIMTSZ
 40
0.0
  9
$DIMTOL
 70
     0
  9
$DIMLIM
 70
     0
  9
$DIMTIH
 70
     1
  9
$DIMTOH
 70
     1
  9
$DIMSE1
 70
     0
  9
$DIMSE2
 70
     0
  9
$DIMTAD
 70
     0
  9
$DIMZIN
 70
     0
  9
$DIMBLK
  1

  9
$DIMASO
 70
     1
  9
$DIMSHO
 70
     1
  9
$DIMPOST
  1

  9
$DIMAPOST
  1

  9
$DIMALT
 70
     0
  9
$DIMALTD
 70
     2
  9
$DIMALTF
 40
25.4
  9
$DIMLFAC
 40
1.0
  9
$DIMTOFL
 70
     0
  9
$DIMTVP
 40
0.0
  9
$DIMTIX
 70
     0
  9
$DIMSOXD
 70
     0
  9
$DIMSAH
 70
     0
  9
$DIMBLK1
  1

  9
$DIMBLK2
  1

  9
$DIMSTYLE
  2
Standard
  9
$DIMCLRD
 70
     0
  9
$DIMCLRE
 70
     0
  9
$DIMCLRT
 70
     0
  9
$DIMTFAC
 40
1.0
  9
$DIMGAP
 40
0.09
  9
$DIMJUST
 70
     0
  9
$DIMSD1
 70
     0
  9
$DIMSD2
 70
     0
  9
$DIMTOLJ
 70
     1
  9
$DIMTZIN
 70
     0
  9
$DIMALTZ
 70
     0
  9
$DIMALTTZ
 70
     0
  9
$DIMUPT
 70
     0
  9
$DIMDEC
 70
     4
  9
$DIMTDEC
 70
     4
  9
$DIMALTU
 70
     2
  9
$DIMALTTD
 70
     2
  9
$DIMTXSTY
  7
Standard
  9
$DIMAUNIT
 70
     0
  9
$DIMADEC
 70
     0
  9
$DIMALTRND
 40
0.0
  9
$DIMAZIN
 70
     0
  9
$DIMDSEP
 70
    46
  9
$DIMATFIT
 70
     3
  9
$DIMFRAC
 70
     0
  9
$DIMLDRBLK
  1

  9
$DIMLUNIT
 70
     2
  9
$DIMLWD
 70
    -2
  9
$DIMLWE
 70
    -2
  9
$DIMTMOVE
 70
     0
  9
$LUNITS
 70
     2
  9
$LUPREC
 70
     4
  9
$SKETCHINC
 40
0.1
  9
$FILLETRAD
 40
0.5
  9
$AUNITS
 70
     0
  9
$AUPREC
 70
     0
  9
$MENU
  1
.
  9
$ELEVATION
 40
0.0
  9
$PELEVATION
 40
0.0
  9
$THICKNESS
 40
0.0
  9
$LIMCHECK
 70
     0
  9
$CHAMFERA
 40
0.0
  9
$CHAMFERB
 40
0.0
  9
$CHAMFERC
 40
0.0
  9
$CHAMFERD
 40
0.0
  9
$SKPOLY
 70
     0
  9
$TDCREATE
 40
2458856.411423611
  9
$TDUCREATE
 40
2458856.369764734
  9
$TDUPDATE
 40
2458856.416770834
  9
$TDUUPDATE
 40
2458856.375104167
  9
$TDINDWG
 40
0.0023379745
  9
$TDUSRTIMER
 40
0.0023379745
  9
$USRTIMER
 70
     1
  9
$ANGBASE
 50
0.0
  9
$ANGDIR
 70
     0
  9
$PDMODE
 70
     0
  9
$PDSIZE
 40
0.0
  9
$PLINEWID
 40
0.0
  9
$SPLFRAME
 70
     0
  9
$SPLINETYPE
 70
     6
  9
$SPLINESEGS
 70
     8
  9
$HANDSEED
  5
495
  9
$SURFTAB1
 70
     6
  9
$SURFTAB2
 70
     6
  9
$SURFTYPE
 70
     6
  9
$SURFU
 70
     6
  9
$SURFV
 70
     6
  9
$UCSBASE
  2

  9
$UCSNAME
  2

  9
$UCSORG
 10
249.444248
 20
244.434018
 30
0.0
  9
$UCSXDIR
 10
1.0
 20
0.0
 30
0.0
  9
$UCSYDIR
 10
0.0
 20
1.0
 30
0.0
  9
$UCSORTHOREF
  2

  9
$UCSORTHOVIEW
 70
     0
  9
$UCSORGTOP
 10
0.0
 20
0.0
 30
0.0
  9
$UCSORGBOTTOM
 10
0.0
 20
0.0
 30
0.0
  9
$UCSORGLEFT
 10
0.0
 20
0.0
 30
0.0
  9
$UCSORGRIGHT
 10
0.0
 20
0.0
 30
0.0
  9
$UCSORGFRONT
 10
0.0
 20
0.0
 30
0.0
  9
$UCSORGBACK
 10
0.0
 20
0.0
 30
0.0
  9
$PUCSBASE
  2

  9
$PUCSNAME
  2

  9
$PUCSORG
 10
0.0
 20
0.0
 30
0.0
  9
$PUCSXDIR
 10
1.0
 20
0.0
 30
0.0
  9
$PUCSYDIR
 10
0.0
 20
1.0
 30
0.0
  9
$PUCSORTHOREF
  2

  9
$PUCSORTHOVIEW
 70
     0
  9
$PUCSORGTOP
 10
0.0
 20
0.0
 30
0.0
  9
$PUCSORGBOTTOM
 10
0.0
 20
0.0
 30
0.0
  9
$PUCSORGLEFT
 10
0.0
 20
0.0
 30
0.0
  9
$PUCSORGRIGHT
 10
0.0
 20
0.0
 30
0.0
  9
$PUCSORGFRONT
 10
0.0
 20
0.0
 30
0.0
  9
$PUCSORGBACK
 10
0.0
 20
0.0
 30
0.0
  9
$USERI1
 70
     0
  9
$USERI2
 70
     0
  9
$USERI3
 70
     0
  9
$USERI4
 70
     0
  9
$USERI5
 70
     0
  9
$USERR1
 40
0.0
  9
$USERR2
 40
0.0
  9
$USERR3
 40
0.0
  9
$USERR4
 40
0.0
  9
$USERR5
 40
0.0
  9
$WORLDVIEW
 70
     1
  9
$SHADEDGE
 70
     3
  9
$SHADEDIF
 70
    70
  9
$TILEMODE
 70
     1
  9
$MAXACTVP
 70
    64
  9
$PINSBASE
 10
0.0
 20
0.0
 30
0.0
  9
$PLIMCHECK
 70
     0
  9
$PEXTMIN
 10
-0.5
 20
-0.5
 30
-0.5
  9
$PEXTMAX
 10
5.0
 20
5.0
 30
5.0
  9
$PLIMMIN
 10
-0.5
 20
-0.5
  9
$PLIMMAX
 10
5.0
 20
5.0
  9
$UNITMODE
 70
     0
  9
$VISRETAIN
 70
     1
  9
$PLINEGEN
 70
     0
  9
$PSLTSCALE
 70
     1
  9
$TREEDEPTH
 70
  3020
  9
$CMLSTYLE
  2
Standard
  9
$CMLJUST
 70
     0
  9
$CMLSCALE
 40
1.0
  9
$PROXYGRAPHICS
 70
     1
  9
$MEASUREMENT
 70
     1
  9
$CELWEIGHT
370
    13
  9
$ENDCAPS
280
     0
  9
$JOINSTYLE
280
     0
  9
$LWDISPLAY
290
     0
  9
$INSUNITS
 70
     4
  9
$HYPERLINKBASE
  1

  9
$STYLESHEET
  1

  9
$XEDIT
290
     1
  9
$CEPSNTYPE
380
     0
  9
$PSTYLEMODE
290
     1
  9
$FINGERPRINTGUID
  2
{1E8E4F2E-0866-4B85-BABA-9031E29D2286}
  9
$VERSIONGUID
  2
{1A26BDED-C55D-0749-B097-D7B701FE55E8}
  9
$EXTNAMES
290
     1
  9
$PSVPSCALE
 40
0.0
  9
$OLESTARTUP
290
     0
  9
$SORTENTS
280
   127
  9
$INDEXCTL
280
     0
  9
$HIDETEXT
280
     1
  9
$XCLIPFRAME
290
     0
  9
$HALOGAP
280
     0
  9
$OBSCOLOR
 70
   257
  9
$OBSLTYPE
280
     0
  9
$INTERSECTIONDISPLAY
280
     0
  9
$INTERSECTIONCOLOR
 70
   257
  9
$DIMASSOC
280
     2
  9
$PROJECTNAME
  1

  0
ENDSEC
  0
SECTION
  2
CLASSES
  0
CLASS
  1
ACDBDICTIONARYWDFLT
  2
AcDbDictionaryWithDefault
  3
ObjectDBX Classes
 90
        0
 91
        1
280
     0
281
     0
  0
CLASS
  1
VISUALSTYLE
  2
AcDbVisualStyle
  3
ObjectDBX Classes
 90
     4095
 91
       24
280
     0
281
     0
  0
CLASS
  1
MATERIAL
  2
AcDbMaterial
  3
ObjectDBX Classes
 90
     1153
 91
        3
280
     0
281
     0
  0
CLASS
  1
SCALE
  2
AcDbScale
  3
ObjectDBX Classes
 90
     1153
 91
       33
280
     0
281
     0
  0
CLASS
  1
TABLESTYLE
  2
AcDbTableStyle
  3
ObjectDBX Classes
 90
     4095
 91
        1
280
     0
281
     0
  0
CLASS
  1
MLEADERSTYLE
  2
AcDbMLeaderStyle
  3
ACDB_MLEADERSTYLE_CLASS
 90
     4095
 91
        1
280
     0
281
     0
  0
CLASS
  1
SUN
  2
AcDbSun
  3
SCENEOE
 90
     1153
 91
        0
280
     0
281
     0
  0
CLASS
  1
IMAGEDEF
  2
AcDbRasterImageDef
  3
ISM
 90
        0
 91
        1
280
     0
281
     0
  0
CLASS
  1
IMAGE
  2
AcDbRasterImage
  3
ISM
 90
     2175
 91
        1
280
     0
281
     1
  0
CLASS
  1
IMAGEDEF_REACTOR
  2
AcDbRasterImageDefReactor
  3
ISM
 90
        1
 91
        1
280
     0
281
     0
  0
CLASS
  1
DIMASSOC
  2
AcDbDimAssoc
  3
"AcDbDimAssoc|Product Desc:     AcDim ARX App For Dimension|Company:          Autodesk, Inc.|WEB Address:      www.autodesk.com"
 90
        0
 91
        5
280
     0
281
     0
  0
CLASS
  1
DICTIONARYVAR
  2
AcDbDictionaryVar
  3
ObjectDBX Classes
 90
        0
 91
        8
280
     0
281
     0
  0
CLASS
  1
CELLSTYLEMAP
  2
AcDbCellStyleMap
  3
ObjectDBX Classes
 90
     1152
 91
        2
280
     0
281
     0
  0
CLASS
  1
ACDBSECTIONVIEWSTYLE
  2
AcDbSectionViewStyle
  3
ObjectDBX Classes
 90
     1025
 91
        1
280
     0
281
     0
  0
CLASS
  1
ACDBDETAILVIEWSTYLE
  2
AcDbDetailViewStyle
  3
ObjectDBX Classes
 90
     1025
 91
        1
280
     0
281
     0
  0
CLASS
  1
RASTERVARIABLES
  2
AcDbRasterVariables
  3
ISM
 90
        0
 91
        1
280
     0
281
     0
  0
CLASS
  1
SORTENTSTABLE
  2
AcDbSortentsTable
  3
ObjectDBX Classes
 90
        0
 91
        1
280
     0
281
     0
  0
ENDSEC
  0
SECTION
  2
TABLES
  0
TABLE
  2
VPORT
  5
8
330
0
100
AcDbSymbolTable
 70
    16
  0
VPORT
  5
29
330
8
100
AcDbSymbolTableRecord
100
AcDbViewportTableRecord
  2
*Active
 70
     0
 10
0.0
 20
0.0
 11
1.0
 21
1.0
 12
263.0595367123279
 22
239.3487811525711
 13
0.0
 23
0.0
 14
0.5
 24
0.5
 15
0.5
 25
0.5
 16
0.0
 26
0.0
 36
1.0
 17
0.0
 27
0.0
 37
0.0
 40
344.5120979739107
 41
2.188141391106043
 42
50.0
 43
743.245104
 44
-743.245104
 50
0.0
 51
0.0
 71
     0
 72
   100
 73
     1
 74
     3
 75
     0
 76
     0
 77
     0
 78
     0
281
     0
 65
     1
110
249.444248
120
244.434018
130
0.0
111
1.0
121
0.0
131
0.0
112
0.0
122
1.0
132
0.0
 79
     0
146
0.0
1001
ACAD_NAV_VCDISPLAY
1070
     3
  0
VPORT
  5
36F
330
8
100
AcDbSymbolTableRecord
100
AcDbViewportTableRecord
  2
L1
 70
     0
 10
0.0
 20
0.0
 11
1.0
 21
1.0
 12
404.315244
 22
178.406653
 13
0.0
 23
0.0
 14
0.5
 24
0.5
 15
0.5
 25
0.5
 16
0.0
 26
0.0
 36
1.0
 17
0.0
 27
0.0
 37
0.0
 40
207.433333
 41
0.085602
 42
50.0
 43
743.245104
 44
-743.245104
 50
0.0
 51
0.0
 71
     0
 72
   100
 73
     1
 74
     3
 75
     0
 76
     0
 77
     0
 78
     0
281
     0
 65
     1
110
0.0
120
0.0
130
0.0
111
1.0
121
0.0
131
0.0
112
0.0
122
1.0
132
0.0
 79
     0
146
0.0
  0
VPORT
  5
370
330
8
100
AcDbSymbolTableRecord
100
AcDbViewportTableRecord
  2
L2
 70
     0
 10
0.0
 20
0.0
 11
0.5
 21
1.0
 12
0.0
 22
0.0
 13
0.0
 23
0.0
 14
0.5
 24
0.5
 15
0.5
 25
0.5
 16
0.0
 26
-1.0
 36
0.0
 17
0.0
 27
0.0
 37
0.0
 40
1478.660809
 41
0.012009
 42
50.0
 43
765.39502
 44
-765.39502
 50
0.0
 51
0.0
 71
     0
 72
   100
 73
     1
 74
     3
 75
     0
 76
     0
 77
     0
 78
     0
281
     0
 65
     1
110
0.0
120
0.0
130
0.0
111
1.0
121
0.0
131
0.0
112
0.0
122
1.0
132
0.0
 79
     0
146
0.0
  0
VPORT
  5
371
330
8
100
AcDbSymbolTableRecord
100
AcDbViewportTableRecord
  2
L2
 70
     0
 10
0.5
 20
0.0
 11
1.0
 21
1.0
 12
0.0
 22
0.0
 13
0.0
 23
0.0
 14
0.5
 24
0.5
 15
0.5
 25
0.5
 16
1.0
 26
0.0
 36
0.0
 17
0.0
 27
0.0
 37
0.0
 40
1478.660809
 41
0.012009
 42
50.0
 43
746.5698859999999
 44
-746.5698859999999
 50
0.0
 51
0.0
 71
     0
 72
   100
 73
     1
 74
     3
 75
     0
 76
     0
 77
     0
 78
     0
281
     0
 65
     1
110
0.0
120
0.0
130
0.0
111
1.0
121
0.0
131
0.0
112
0.0
122
1.0
132
0.0
 79
     0
146
0.0
  0
VPORT
  5
372
330
8
100
AcDbSymbolTableRecord
100
AcDbViewportTableRecord
  2
L3
 70
     0
 10
0.0
 20
0.5
 11
1.0
 21
1.0
 12
404.315244
 22
178.406653
 13
0.0
 23
0.0
 14
0.5
 24
0.5
 15
0.5
 25
0.5
 16
0.0
 26
0.0
 36
1.0
 17
0.0
 27
0.0
 37
0.0
 40
207.433333
 41
0.085602
 42
50.0
 43
743.245104
 44
-743.245104
 50
0.0
 51
0.0
 71
     0
 72
   100
 73
     1
 74
     3
 75
     0
 76
     0
 77
     0
 78
     0
281
     0
 65
     1
110
0.0
120
0.0
130
0.0
111
1.0
121
0.0
131
0.0
112
0.0
122
1.0
132
0.0
 79
     0
146
0.0
  0
VPORT
  5
373
330
8
100
AcDbSymbolTableRecord
100
AcDbViewportTableRecord
  2
L3
 70
     0
 10
0.0
 20
0.0
 11
1.0
 21
0.5
 12
0.0
 22
0.0
 13
0.0
 23
0.0
 14
0.5
 24
0.5
 15
0.5
 25
0.5
 16
0.0
 26
-1.0
 36
0.0
 17
0.0
 27
0.0
 37
0.0
 40
1478.660809
 41
0.012009
 42
50.0
 43
765.39502
 44
-765.39502
 50
0.0
 51
0.0
 71
     0
 72
   100
 73
     1
 74
     3
 75
     0
 76
     0
 77
     0
 78
     0
281
     0
 65
     1
110
0.0
120
0.0
130
0.0
111
1.0
121
0.0
131
0.0
112
0.0
122
1.0
132
0.0
 79
     0
146
0.0
  0
VPORT
  5
374
330
8
100
AcDbSymbolTableRecord
100
AcDbViewportTableRecord
  2
L4
 70
     0
 10
0.0
 20
0.5
 11
0.5
 21
1.0
 12
404.315244
 22
178.406653
 13
0.0
 23
0.0
 14
0.5
 24
0.5
 15
0.5
 25
0.5
 16
0.0
 26
0.0
 36
1.0
 17
0.0
 27
0.0
 37
0.0
 40
207.433333
 41
0.085602
 42
50.0
 43
743.245104
 44
-743.245104
 50
0.0
 51
0.0
 71
     0
 72
   100
 73
     1
 74
     3
 75
     0
 76
     0
 77
     0
 78
     0
281
     0
 65
     1
110
0.0
120
0.0
130
0.0
111
1.0
121
0.0
131
0.0
112
0.0
122
1.0
132
0.0
 79
     0
146
0.0
  0
VPORT
  5
375
330
8
100
AcDbSymbolTableRecord
100
AcDbViewportTableRecord
  2
L4
 70
     0
 10
0.0
 20
0.0
 11
0.5
 21
0.5
 12
0.0
 22
0.0
 13
0.0
 23
0.0
 14
0.5
 24
0.5
 15
0.5
 25
0.5
 16
0.0
 26
-1.0
 36
0.0
 17
0.0
 27
0.0
 37
0.0
 40
1478.660809
 41
0.012009
 42
50.0
 43
765.39502
 44
-765.39502
 50
0.0
 51
0.0
 71
     0
 72
   100
 73
     1
 74
     3
 75
     0
 76
     0
 77
     0
 78
     0
281
     0
 65
     1
110
0.0
120
0.0
130
0.0
111
1.0
121
0.0
131
0.0
112
0.0
122
1.0
132
0.0
 79
     0
146
0.0
  0
VPORT
  5
376
330
8
100
AcDbSymbolTableRecord
100
AcDbViewportTableRecord
  2
L4
 70
     0
 10
0.5
 20
0.0
 11
1.0
 21
0.5
 12
0.0
 22
0.0
 13
0.0
 23
0.0
 14
0.5
 24
0.5
 15
0.5
 25
0.5
 16
1.0
 26
0.0
 36
0.0
 17
0.0
 27
0.0
 37
0.0
 40
1478.660809
 41
0.012009
 42
50.0
 43
746.5698859999999
 44
-746.5698859999999
 50
0.0
 51
0.0
 71
     0
 72
   100
 73
     1
 74
     3
 75
     0
 76
     0
 77
     0
 78
     0
281
     0
 65
     1
110
0.0
120
0.0
130
0.0
111
1.0
121
0.0
131
0.0
112
0.0
122
1.0
132
0.0
 79
     0
146
0.0
  0
VPORT
  5
377
330
8
100
AcDbSymbolTableRecord
100
AcDbViewportTableRecord
  2
L4
 70
     0
 10
0.5
 20
0.5
 11
1.0
 21
1.0
 12
0.0
 22
0.0
 13
0.0
 23
0.0
 14
0.5
 24
0.5
 15
0.5
 25
0.5
 16
0.5773502691896259
 26
-0.5773502691896259
 36
0.5773502691896259
 17
0.0
 27
0.0
 37
0.0
 40
1453.705292
 41
0.012215
 42
50.0
 43
757.5245879999999
 44
-757.5245879999999
 50
0.0
 51
0.0
 71
     0
 72
   100
 73
     1
 74
     3
 75
     0
 76
     0
 77
     0
 78
     0
281
     0
 65
     1
110
0.0
120
0.0
130
0.0
111
1.0
121
0.0
131
0.0
112
0.0
122
1.0
132
0.0
 79
     0
146
0.0
  0
VPORT
  5
378
330
8
100
AcDbSymbolTableRecord
100
AcDbViewportTableRecord
  2
L6
 70
     0
 10
0.0
 20
0.5
 11
0.333333
 21
1.0
 12
0.0
 22
0.0
 13
0.0
 23
0.0
 14
0.5
 24
0.5
 15
0.5
 25
0.5
 16
0.7188730927569434
 26
-0.5850486126764433
 36
0.3754192287502549
 17
0.0
 27
0.0
 37
0.0
 40
1534.989881
 41
0.011568
 42
50.0
 43
794.5176169999999
 44
-794.5176169999999
 50
0.0
 51
0.0
 71
     0
 72
   100
 73
     1
 74
     3
 75
     0
 76
     0
 77
     0
 78
     0
281
     0
 65
     1
110
0.0
120
0.0
130
0.0
111
1.0
121
0.0
131
0.0
112
0.0
122
1.0
132
0.0
 79
     0
146
0.0
  0
VPORT
  5
379
330
8
100
AcDbSymbolTableRecord
100
AcDbViewportTableRecord
  2
L6
 70
     0
 10
0.0
 20
0.0
 11
0.333333
 21
0.5
 12
0.0
 22
0.0
 13
0.0
 23
0.0
 14
0.5
 24
0.5
 15
0.5
 25
0.5
 16
-1.0
 26
0.0
 36
0.0
 17
0.0
 27
0.0
 37
0.0
 40
1478.660809
 41
0.012009
 42
50.0
 43
746.5698859999999
 44
-746.5698859999999
 50
0.0
 51
0.0
 71
     0
 72
   100
 73
     1
 74
     3
 75
     0
 76
     0
 77
     0
 78
     0
281
     0
 65
     1
110
0.0
120
0.0
130
0.0
111
1.0
121
0.0
131
0.0
112
0.0
122
1.0
132
0.0
 79
     0
146
0.0
  0
VPORT
  5
37A
330
8
100
AcDbSymbolTableRecord
100
AcDbViewportTableRecord
  2
L6
 70
     0
 10
0.333333
 20
0.5
 11
0.666667
 21
1.0
 12
404.315244
 22
178.406653
 13
0.0
 23
0.0
 14
0.5
 24
0.5
 15
0.5
 25
0.5
 16
0.0
 26
0.0
 36
1.0
 17
0.0
 27
0.0
 37
0.0
 40
207.433333
 41
0.085602
 42
50.0
 43
743.245104
 44
-743.245104
 50
0.0
 51
0.0
 71
     0
 72
   100
 73
     1
 74
     3
 75
     0
 76
     0
 77
     0
 78
     0
281
     0
 65
     1
110
0.0
120
0.0
130
0.0
111
1.0
121
0.0
131
0.0
112
0.0
122
1.0
132
0.0
 79
     0
146
0.0
  0
VPORT
  5
37B
330
8
100
AcDbSymbolTableRecord
100
AcDbViewportTableRecord
  2
L6
 70
     0
 10
0.333333
 20
0.0
 11
0.666667
 21
0.5
 12
0.0
 22
0.0
 13
0.0
 23
0.0
 14
0.5
 24
0.5
 15
0.5
 25
0.5
 16
0.0
 26
-1.0
 36
0.0
 17
0.0
 27
0.0
 37
0.0
 40
1478.660809
 41
0.012009
 42
50.0
 43
765.39502
 44
-765.39502
 50
0.0
 51
0.0
 71
     0
 72
   100
 73
     1
 74
     3
 75
     0
 76
     0
 77
     0
 78
     0
281
     0
 65
     1
110
0.0
120
0.0
130
0.0
111
1.0
121
0.0
131
0.0
112
0.0
122
1.0
132
0.0
 79
     0
146
0.0
  0
VPORT
  5
37C
330
8
100
AcDbSymbolTableRecord
100
AcDbViewportTableRecord
  2
L6
 70
     0
 10
0.666667
 20
0.5
 11
1.0
 21
1.0
 12
0.0
 22
0.0
 13
0.0
 23
0.0
 14
0.5
 24
0.5
 15
0.5
 25
0.5
 16
0.5773502691896259
 26
-0.5773502691896259
 36
0.5773502691896259
 17
0.0
 27
0.0
 37
0.0
 40
1453.705292
 41
0.012215
 42
50.0
 43
757.5245879999999
 44
-757.5245879999999
 50
0.0
 51
0.0
 71
     0
 72
   100
 73
     1
 74
     3
 75
     0
 76
     0
 77
     0
 78
     0
281
     0
 65
     1
110
0.0
120
0.0
130
0.0
111
1.0
121
0.0
131
0.0
112
0.0
122
1.0
132
0.0
 79
     0
146
0.0
  0
VPORT
  5
37D
330
8
100
AcDbSymbolTableRecord
100
AcDbViewportTableRecord
  2
L6
 70
     0
 10
0.666667
 20
0.0
 11
1.0
 21
0.5
 12
0.0
 22
0.0
 13
0.0
 23
0.0
 14
0.5
 24
0.5
 15
0.5
 25
0.5
 16
1.0
 26
0.0
 36
0.0
 17
0.0
 27
0.0
 37
0.0
 40
1478.660809
 41
0.012009
 42
50.0
 43
746.5698859999999
 44
-746.5698859999999
 50
0.0
 51
0.0
 71
     0
 72
   100
 73
     1
 74
     3
 75
     0
 76
     0
 77
     0
 78
     0
281
     0
 65
     1
110
0.0
120
0.0
130
0.0
111
1.0
121
0.0
131
0.0
112
0.0
122
1.0
132
0.0
 79
     0
146
0.0
  0
ENDTAB
  0
TABLE
  2
LTYPE
  5
5
330
0
100
AcDbSymbolTable
 70
     7
  0
LTYPE
  5
14
330
5
100
AcDbSymbolTableRecord
100
AcDbLinetypeTableRecord
  2
ByBlock
 70
     0
  3

 72
    65
 73
     0
 40
0.0
  0
LTYPE
  5
15
330
5
100
AcDbSymbolTableRecord
100
AcDbLinetypeTableRecord
  2
ByLayer
 70
     0
  3

 72
    65
 73
     0
 40
0.0
  0
LTYPE
  5
16
330
5
100
AcDbSymbolTableRecord
100
AcDbLinetypeTableRecord
  2
Continuous
 70
     0
  3
Solid line
 72
    65
 73
     0
 40
0.0
  0
LTYPE
  5
6E
330
5
100
AcDbSymbolTableRecord
100
AcDbLinetypeTableRecord
  2
CENTER
 70
     0
  3
____ _ ____ _ ____ _ ____
 72
    65
 73
     4
 40
47.4
 49
22.0
 74
     4
 75
     0
340
0
 46
0.0
 50
0.0
 44
0.0
 45
0.0
 49
-8.5
 74
     4
 75
     0
340
0
 46
0.0
 50
0.0
 44
0.0
 45
0.0
 49
8.5
 74
     4
 75
     0
340
0
 46
0.0
 50
0.0
 44
0.0
 45
0.0
 49
-8.5
 74
     4
 75
     0
340
0
 46
0.0
 50
0.0
 44
0.0
 45
0.0
  0
LTYPE
  5
6F
330
5
100
AcDbSymbolTableRecord
100
AcDbLinetypeTableRecord
  2
DASHDOT
 70
     0
  3
_._._._._._._._._._._._._._._._.
 72
    65
 73
     4
 40
70.0
 49
31.0
 74
     4
 75
     0
340
0
 46
0.0
 50
0.0
 44
0.0
 45
0.0
 49
-13.0
 74
     4
 75
     0
340
0
 46
0.0
 50
0.0
 44
0.0
 45
0.0
 49
13.0
 74
     4
 75
     0
340
0
 46
0.0
 50
0.0
 44
0.0
 45
0.0
 49
-13.0
 74
     4
 75
     0
340
0
 46
0.0
 50
0.0
 44
0.0
 45
0.0
  0
LTYPE
  5
70
330
5
100
AcDbSymbolTableRecord
100
AcDbLinetypeTableRecord
  2
DASHED
 70
     0
  3
__ __ __ __ __ __ __ __ __
 72
    65
 73
     2
 40
25.72
 49
12.86
 74
     4
 75
     0
340
0
 46
0.0
 50
0.0
 44
0.0
 45
0.0
 49
-12.86
 74
     4
 75
     0
340
0
 46
0.0
 50
0.0
 44
0.0
 45
0.0
  0
LTYPE
  5
71
330
5
100
AcDbSymbolTableRecord
100
AcDbLinetypeTableRecord
  2
DOT
 70
     0
  3
.........................
 72
    65
 73
     2
 40
10.0
 49
0.0
 74
     4
 75
     0
340
0
 46
0.0
 50
0.0
 44
0.0
 45
0.0
 49
-10.0
 74
     4
 75
     0
340
0
 46
0.0
 50
0.0
 44
0.0
 45
0.0
  0
LTYPE
  5
72
330
5
100
AcDbSymbolTableRecord
100
AcDbLinetypeTableRecord
  2
PHANTOM
 70
     0
  3
____ _ _ ____ _ _ _____ _ _ ____
 72
    65
 73
     6
 40
50.5
 49
18.0
 74
     4
 75
     0
340
0
 46
0.0
 50
0.0
 44
0.0
 45
0.0
 49
-6.5
 74
     4
 75
     0
340
0
 46
0.0
 50
0.0
 44
0.0
 45
0.0
 49
6.5
 74
     4
 75
     0
340
0
 46
0.0
 50
0.0
 44
0.0
 45
0.0
 49
-6.5
 74
     4
 75
     0
340
0
 46
0.0
 50
0.0
 44
0.0
 45
0.0
 49
6.5
 74
     4
 75
     0
340
0
 46
0.0
 50
0.0
 44
0.0
 45
0.0
 49
-6.5
 74
     4
 75
     0
340
0
 46
0.0
 50
0.0
 44
0.0
 45
0.0
  0
LTYPE
  5
421
330
5
100
AcDbSymbolTableRecord
100
AcDbLinetypeTableRecord
  2
CENTER2
 70
     0
  3
Center (.5x) ___ _ ___ _ ___ _ ___ _ ___ _ ___
 72
    65
 73
     4
 40
1.125
 49
0.75
 74
     0
 49
-0.125
 74
     0
 49
0.125
 74
     0
 49
-0.125
 74
     0
  0
ENDTAB
  0
TABLE
  2
LAYER
  5
2
102
{ACAD_XDICTIONARY
360
44C
102
}
330
0
100
AcDbSymbolTable
 70
    23
  0
LAYER
  5
10
102
{ACAD_XDICTIONARY
360
42D
102
}
330
2
100
AcDbSymbolTableRecord
100
AcDbLayerTableRecord
  2
0
 70
     0
 62
     7
  6
Continuous
370
    -3
390
F
  0
LAYER
  5
76
102
{ACAD_XDICTIONARY
360
42F
102
}
330
2
100
AcDbSymbolTableRecord
100
AcDbLayerTableRecord
  2
60
 70
     0
 62
     7
420
 16777215
  6
Continuous
370
    -3
390
F
  0
LAYER
  5
2F8
330
2
100
AcDbSymbolTableRecord
100
AcDbLayerTableRecord
  2
Defpoints
 70
     0
 62
     7
  6
Continuous
290
     0
370
    -3
390
F
  0
LAYER
  5
41E
102
{ACAD_XDICTIONARY
360
431
102
}
330
2
100
AcDbSymbolTableRecord
100
AcDbLayerTableRecord
  2
1
 70
     0
 62
     4
  6
Continuous
370
    -3
390
F
  0
LAYER
  5
41F
102
{ACAD_XDICTIONARY
360
433
102
}
330
2
100
AcDbSymbolTableRecord
100
AcDbLayerTableRecord
  2
2
 70
     0
 62
     7
  6
Continuous
370
    -3
390
F
  0
LAYER
  5
420
102
{ACAD_XDICTIONARY
360
435
102
}
330
2
100
AcDbSymbolTableRecord
100
AcDbLayerTableRecord
  2
4
 70
     0
 62
     2
  6
CENTER2
370
    -3
390
F
  0
LAYER
  5
423
102
{ACAD_XDICTIONARY
360
437
102
}
330
2
100
AcDbSymbolTableRecord
100
AcDbLayerTableRecord
  2
SK2
 70
     0
 62
     7
  6
Continuous
370
    -3
390
F
  0
LAYER
  5
424
102
{ACAD_XDICTIONARY
360
439
102
}
330
2
100
AcDbSymbolTableRecord
100
AcDbLayerTableRecord
  2
SK3
 70
     0
 62
     1
  6
DASHED
370
    -3
390
F
  0
LAYER
  5
425
102
{ACAD_XDICTIONARY
360
43B
102
}
330
2
100
AcDbSymbolTableRecord
100
AcDbLayerTableRecord
  2
SK4
 70
     0
 62
     2
  6
CENTER2
370
    -3
390
F
  0
LAYER
  5
426
102
{ACAD_XDICTIONARY
360
43D
102
}
330
2
100
AcDbSymbolTableRecord
100
AcDbLayerTableRecord
  2
SK6
 70
     0
 62
     5
  6
Continuous
370
    -3
390
F
  0
LAYER
  5
427
102
{ACAD_XDICTIONARY
360
43F
102
}
330
2
100
AcDbSymbolTableRecord
100
AcDbLayerTableRecord
  2
CUT
 70
     0
 62
     1
  6
Continuous
370
    -3
390
F
  0
LAYER
  5
428
102
{ACAD_XDICTIONARY
360
441
102
}
330
2
100
AcDbSymbolTableRecord
100
AcDbLayerTableRecord
  2
NOCUT
 70
     0
 62
     7
  6
Continuous
370
    -3
390
F
  0
LAYER
  5
429
102
{ACAD_XDICTIONARY
360
443
102
}
330
2
100
AcDbSymbolTableRecord
100
AcDbLayerTableRecord
  2
80
 70
     0
 62
     6
  6
Continuous
370
    -3
390
F
  0
LAYER
  5
42A
102
{ACAD_XDICTIONARY
360
445
102
}
330
2
100
AcDbSymbolTableRecord
100
AcDbLayerTableRecord
  2
81
 70
     0
 62
     3
  6
Continuous
370
    -3
390
F
  0
LAYER
  5
42B
102
{ACAD_XDICTIONARY
360
447
102
}
330
2
100
AcDbSymbolTableRecord
100
AcDbLayerTableRecord
  2
SK1
 70
     0
 62
     4
  6
Continuous
370
    -3
390
F
  0
ENDTAB
  0
TABLE
  2
STYLE
  5
3
330
0
100
AcDbSymbolTable
 70
     3
  0
STYLE
  5
11
330
3
100
AcDbSymbolTableRecord
100
AcDbTextStyleTableRecord
  2
Standard
 70
     0
 40
0.0
 41
1.0
 50
0.0
 71
     0
 42
0.2
  3
txt
  4

  0
STYLE
  5
2F2
330
3
100
AcDbSymbolTableRecord
100
AcDbTextStyleTableRecord
  2
cesky
 70
     0
 40
0.0
 41
1.0
 50
0.0
 71
     0
 42
0.2
  3
simplex.shx
  4

  0
STYLE
  5
2F3
330
3
100
AcDbSymbolTableRecord
100
AcDbTextStyleTableRecord
  2
DWGDirectTextStyle
 70
     0
 40
0.0
 41
1.0
 50
0.0
 71
     0
 42
0.2
  3
simplex
  4

  0
ENDTAB
  0
TABLE
  2
VIEW
  5
6
330
0
100
AcDbSymbolTable
 70
     1
  0
ENDTAB
  0
TABLE
  2
UCS
  5
7
330
0
100
AcDbSymbolTable
 70
     0
  0
ENDTAB
  0
TABLE
  2
APPID
  5
9
330
0
100
AcDbSymbolTable
 70
     7
  0
APPID
  5
12
330
9
100
AcDbSymbolTableRecord
100
AcDbRegAppTableRecord
  2
ACAD
 70
     0
  0
APPID
  5
2F4
330
9
100
AcDbSymbolTableRecord
100
AcDbRegAppTableRecord
  2
ACAD_DSTYLE_DIMBREAK
 70
     0
  0
APPID
  5
37E
330
9
100
AcDbSymbolTableRecord
100
AcDbRegAppTableRecord
  2
ACAD_DSTYLE_DIM_LINETYPE
 70
     0
  0
APPID
  5
37F
330
9
100
AcDbSymbolTableRecord
100
AcDbRegAppTableRecord
  2
ACAD_DSTYLE_DIM_EXT1_LINETYPE
 70
     0
  0
APPID
  5
380
330
9
100
AcDbSymbolTableRecord
100
AcDbRegAppTableRecord
  2
ACAD_DSTYLE_DIM_EXT2_LINETYPE
 70
     0
  0
APPID
  5
3C0
330
9
100
AcDbSymbolTableRecord
100
AcDbRegAppTableRecord
  2
ACAD_MLEADERVER
 70
     0
  0
APPID
  5
455
330
9
100
AcDbSymbolTableRecord
100
AcDbRegAppTableRecord
  2
ACAD_NAV_VCDISPLAY
 70
     0
  0
ENDTAB
  0
TABLE
  2
DIMSTYLE
  5
A
330
0
100
AcDbSymbolTable
 70
     1
100
AcDbDimStyleTable
 71
     0
  0
DIMSTYLE
105
27
330
A
100
AcDbSymbolTableRecord
100
AcDbDimStyleTableRecord
  2
Standard
 70
     0
340
11
1001
ACAD_DSTYLE_DIMBREAK
1070
   391
1040
6.349999999999999
  0
ENDTAB
  0
TABLE
  2
BLOCK_RECORD
  5
1
330
0
100
AcDbSymbolTable
 70
    11
  0
BLOCK_RECORD
  5
1F
102
{ACAD_XDICTIONARY
360
3D1
102
}
330
1
100
AcDbSymbolTableRecord
100
AcDbBlockTableRecord
  2
*Model_Space
340
22
  0
BLOCK_RECORD
  5
1B
330
1
100
AcDbSymbolTableRecord
100
AcDbBlockTableRecord
  2
*Paper_Space
340
1E
  0
BLOCK_RECORD
  5
23
330
1
100
AcDbSymbolTableRecord
100
AcDbBlockTableRecord
  2
*Paper_Space0
340
26
  0
BLOCK_RECORD
  5
2F9
330
1
100
AcDbSymbolTableRecord
100
AcDbBlockTableRecord
  2
*D1
340
0
  0
BLOCK_RECORD
  5
305
330
1
100
AcDbSymbolTableRecord
100
AcDbBlockTableRecord
  2
_U0
340
0
  0
BLOCK_RECORD
  5
312
330
1
100
AcDbSymbolTableRecord
100
AcDbBlockTableRecord
  2
*D3
340
0
  0
BLOCK_RECORD
  5
31E
330
1
100
AcDbSymbolTableRecord
100
AcDbBlockTableRecord
  2
_U1
340
0
  0
BLOCK_RECORD
  5
32B
330
1
100
AcDbSymbolTableRecord
100
AcDbBlockTableRecord
  2
*D5
340
0
  0
BLOCK_RECORD
  5
337
330
1
100
AcDbSymbolTableRecord
100
AcDbBlockTableRecord
  2
_U2
340
0
  0
BLOCK_RECORD
  5
343
330
1
100
AcDbSymbolTableRecord
100
AcDbBlockTableRecord
  2
*D7
340
0
  0
BLOCK_RECORD
  5
350
330
1
100
AcDbSymbolTableRecord
100
AcDbBlockTableRecord
  2
_U3
340
0
  0
BLOCK_RECORD
  5
35C
330
1
100
AcDbSymbolTableRecord
100
AcDbBlockTableRecord
  2
*D9
340
0
  0
BLOCK_RECORD
  5
367
330
1
100
AcDbSymbolTableRecord
100
AcDbBlockTableRecord
  2
_U4
340
0
  0
ENDTAB
  0
ENDSEC
  0
SECTION
  2
BLOCKS
  0
BLOCK
  5
20
330
1F
100
AcDbEntity
  8
0
100
AcDbBlockBegin
  2
*Model_Space
 70
     0
 10
0.0
 20
0.0
 30
0.0
  3
*Model_Space
  1

  0
ENDBLK
  5
21
330
1F
100
AcDbEntity
  8
0
100
AcDbBlockEnd
  0
BLOCK
  5
1C
330
1B
100
AcDbEntity
 67
     1
  8
0
100
AcDbBlockBegin
  2
*Paper_Space
 70
     0
 10
0.0
 20
0.0
 30
0.0
  3
*Paper_Space
  1

  0
ENDBLK
  5
1D
330
1B
100
AcDbEntity
 67
     1
  8
0
100
AcDbBlockEnd
  0
BLOCK
  5
24
330
23
100
AcDbEntity
 67
     1
  8
0
100
AcDbBlockBegin
  2
*Paper_Space0
 70
     0
 10
0.0
 20
0.0
 30
0.0
  3
*Paper_Space0
  1

  0
ENDBLK
  5
25
330
23
100
AcDbEntity
 67
     1
  8
0
100
AcDbBlockEnd
  0
BLOCK
  5
2FA
330
2F9
100
AcDbEntity
  8
0
100
AcDbBlockBegin
  2
*D1
 70
     1
 10
0.0
 20
0.0
 30
0.0
  3
*D1
  1

  0
LINE
  5
2FC
330
2F9
100
AcDbEntity
  8
0
 62
    95
370
    -2
100
AcDbLine
 10
251.427449
 20
264.434018
 30
0.0
 11
236.312933
 21
264.434018
 31
0.0
  0
LINE
  5
2FD
330
2F9
100
AcDbEntity
  8
0
 62
    95
370
    -2
100
AcDbLine
 10
254.120532
 20
224.434018
 30
0.0
 11
236.312933
 21
224.434018
 31
0.0
  0
LINE
  5
2FE
330
2F9
100
AcDbEntity
  8
0
 62
    95
370
    -2
100
AcDbLine
 10
237.312933
 20
260.934018
 30
0.0
 11
237.312933
 21
227.934018
 31
0.0
  0
SOLID
  5
2FF
330
2F9
100
AcDbEntity
  8
0
 62
    95
100
AcDbTrace
 10
237.896266
 20
260.934018
 30
0.0
 11
236.7295990000001
 21
260.934018
 31
0.0
 12
237.312933
 22
264.434018
 32
0.0
 13
237.312933
 23
264.434018
 33
0.0
  0
SOLID
  5
300
330
2F9
100
AcDbEntity
  8
0
 62
    95
100
AcDbTrace
 10
236.7295990000001
 20
227.934018
 30
0.0
 11
237.896266
 21
227.934018
 31
0.0
 12
237.312933
 22
224.434018
 32
0.0
 13
237.312933
 23
224.434018
 33
0.0
  0
MTEXT
  5
301
330
2F9
100
AcDbEntity
  8
0
 62
    95
370
    13
100
AcDbMText
 10
232.062933
 20
244.434018
 30
0.0
 40
3.5
 41
0.0
 71
     5
 72
     1
  1
\A1;40
  7
cesky
 11
0.0
 21
1.0
 31
0.0
 73
     1
 44
1.0
  0
POINT
  5
302
330
2F9
100
AcDbEntity
  8
Defpoints
 62
     0
100
AcDbPoint
 10
251.427449
 20
264.434018
 30
0.0
  0
POINT
  5
303
330
2F9
100
AcDbEntity
  8
Defpoints
 62
     0
100
AcDbPoint
 10
254.120532
 20
224.434018
 30
0.0
  0
POINT
  5
304
330
2F9
100
AcDbEntity
  8
Defpoints
 62
     0
100
AcDbPoint
 10
237.312933
 20
224.434018
 30
0.0
  0
ENDBLK
  5
2FB
330
2F9
100
AcDbEntity
  8
0
100
AcDbBlockEnd
  0
BLOCK
  5
30D
330
305
100
AcDbEntity
  8
0
100
AcDbBlockBegin
  2
_U0
 70
     0
 10
0.0
 20
0.0
 30
0.0
  3
_U0
  1

  0
ENDBLK
  5
30E
330
305
100
AcDbEntity
  8
0
100
AcDbBlockEnd
  0
BLOCK
  5
313
330
312
100
AcDbEntity
  8
0
100
AcDbBlockBegin
  2
*D3
 70
     1
 10
0.0
 20
0.0
 30
0.0
  3
*D3
  1

  0
LINE
  5
315
330
312
100
AcDbEntity
  8
0
 62
    95
370
    -2
100
AcDbLine
 10
244.944248
 20
278.434018
 30
0.0
 11
226.593417
 21
278.70619
 31
0.0
  0
LINE
  5
316
330
312
100
AcDbEntity
  8
0
 62
    95
370
    -2
100
AcDbLine
 10
243.944264
 20
211.01136
 30
0.0
 11
225.593433
 21
211.283531
 31
0.0
  0
LINE
  5
317
330
312
100
AcDbEntity
  8
0
 62
    95
370
    -2
100
AcDbLine
 10
227.541403
 20
275.191745
 30
0.0
 11
226.645228
 21
214.768317
 31
0.0
  0
SOLID
  5
318
330
312
100
AcDbEntity
  8
0
 62
    95
100
AcDbTrace
 10
228.124672
 20
275.183094
 30
0.0
 11
226.958133
 21
275.200396
 31
0.0
 12
227.593307
 22
278.69136
 32
0.0
 13
227.593307
 23
278.69136
 33
0.0
  0
SOLID
  5
319
330
312
100
AcDbEntity
  8
0
 62
    95
100
AcDbTrace
 10
226.061959
 20
214.776967
 30
0.0
 11
227.228497
 21
214.759666
 31
0.0
 12
226.593323
 22
211.268702
 32
0.0
 13
226.593323
 23
211.268702
 33
0.0
  0
MTEXT
  5
31A
330
312
100
AcDbEntity
  8
0
 62
    95
370
    13
100
AcDbMText
 10
221.843893
 20
245.057888
 30
0.0
 40
3.5
 41
0.0
 71
     5
 72
     1
  1
\A1;67.43
  7
cesky
 11
0.0148299462751424
 21
0.9998900303000707
 31
0.0
 73
     1
 44
1.0
  0
POINT
  5
31B
330
312
100
AcDbEntity
  8
Defpoints
 62
     0
100
AcDbPoint
 10
244.944248
 20
278.434018
 30
0.0
  0
POINT
  5
31C
330
312
100
AcDbEntity
  8
Defpoints
 62
     0
100
AcDbPoint
 10
243.944264
 20
211.01136
 30
0.0
  0
POINT
  5
31D
330
312
100
AcDbEntity
  8
Defpoints
 62
     0
100
AcDbPoint
 10
226.593323
 20
211.268702
 30
0.0
  0
ENDBLK
  5
314
330
312
100
AcDbEntity
  8
0
100
AcDbBlockEnd
  0
BLOCK
  5
326
330
31E
100
AcDbEntity
  8
0
100
AcDbBlockBegin
  2
_U1
 70
     0
 10
0.0
 20
0.0
 30
0.0
  3
_U1
  1

  0
ENDBLK
  5
327
330
31E
100
AcDbEntity
  8
0
100
AcDbBlockEnd
  0
BLOCK
  5
32C
330
32B
100
AcDbEntity
  8
0
100
AcDbBlockBegin
  2
*D5
 70
     1
 10
0.0
 20
0.0
 30
0.0
  3
*D5
  1

  0
LINE
  5
32E
330
32B
100
AcDbEntity
  8
0
 62
   254
370
    -2
100
AcDbLine
 10
244.944248
 20
278.434018
 30
0.0
 11
233.622942
 21
278.434018
 31
0.0
  0
LINE
  5
32F
330
32B
100
AcDbEntity
  8
0
 62
   254
370
    -2
100
AcDbLine
 10
255.444248
 20
324.434018
 30
0.0
 11
233.622942
 21
324.434018
 31
0.0
  0
LINE
  5
330
330
32B
100
AcDbEntity
  8
0
 62
   254
370
    -2
100
AcDbLine
 10
234.622942
 20
281.9340180000001
 30
0.0
 11
234.622942
 21
320.934018
 31
0.0
  0
SOLID
  5
331
330
32B
100
AcDbEntity
  8
0
 62
   254
100
AcDbTrace
 10
234.039609
 20
281.9340180000001
 30
0.0
 11
235.206276
 21
281.9340180000001
 31
0.0
 12
234.622942
 22
278.434018
 32
0.0
 13
234.622942
 23
278.434018
 33
0.0
  0
SOLID
  5
332
330
32B
100
AcDbEntity
  8
0
 62
   254
100
AcDbTrace
 10
235.206276
 20
320.934018
 30
0.0
 11
234.039609
 21
320.934018
 31
0.0
 12
234.622942
 22
324.434018
 32
0.0
 13
234.622942
 23
324.434018
 33
0.0
  0
MTEXT
  5
333
330
32B
100
AcDbEntity
  8
0
 62
   254
370
    13
100
AcDbMText
 10
229.372942
 20
301.434018
 30
0.0
 40
3.5
 41
0.0
 71
     5
 72
     1
  1
\A1;46
  7
cesky
 11
0.0
 21
1.0
 31
0.0
 73
     1
 44
1.0
  0
POINT
  5
334
330
32B
100
AcDbEntity
  8
Defpoints
 62
     0
100
AcDbPoint
 10
244.944248
 20
278.434018
 30
0.0
  0
POINT
  5
335
330
32B
100
AcDbEntity
  8
Defpoints
 62
     0
100
AcDbPoint
 10
255.444248
 20
324.434018
 30
0.0
  0
POINT
  5
336
330
32B
100
AcDbEntity
  8
Defpoints
 62
     0
100
AcDbPoint
 10
234.622942
 20
324.434018
 30
0.0
  0
ENDBLK
  5
32D
330
32B
100
AcDbEntity
  8
0
100
AcDbBlockEnd
  0
BLOCK
  5
33E
330
337
100
AcDbEntity
  8
0
100
AcDbBlockBegin
  2
_U2
 70
     0
 10
0.0
 20
0.0
 30
0.0
  3
_U2
  1

  0
MTEXT
  5
338
330
337
100
AcDbEntity
  8
60
  6
Continuous
 62
   254
440
 16777216
370
    13
100
AcDbMText
 10
235.091776
 20
299.591518
 30
0.0
 40
3.5
 41
0.0
 71
     7
 72
     5
  1
\W0.7259;46
  7
cesky
 11
0.0000000000000001
 21
1.0
 31
0.0
 73
     2
 44
0.8433729999999998
  0
LINE
  5
339
330
337
100
AcDbEntity
  8
60
 62
   254
440
 16777216
370
    13
100
AcDbLine
 10
244.944248
 20
278.434018
 30
0.0
 11
233.622942
 21
278.434018
 31
0.0
  0
LINE
  5
33A
330
337
100
AcDbEntity
  8
60
 62
   254
440
 16777216
370
    13
100
AcDbLine
 10
255.444248
 20
324.434018
 30
0.0
 11
233.622942
 21
324.434018
 31
0.0
  0
LINE
  5
33B
330
337
100
AcDbEntity
  8
60
 62
   254
440
 16777216
370
    13
100
AcDbLine
 10
234.622942
 20
278.434018
 30
0.0
 11
234.622942
 21
324.434018
 31
0.0
  0
SOLID
  5
33C
330
337
100
AcDbEntity
  8
60
 62
   254
440
 16777216
370
    13
100
AcDbTrace
 10
234.622942
 20
278.434018
 30
0.0
 11
234.005798
 21
281.934016
 31
0.0
 12
235.240087
 22
281.934021
 32
0.0
 13
235.240087
 23
281.934021
 33
0.0
  0
SOLID
  5
33D
330
337
100
AcDbEntity
  8
60
 62
   254
440
 16777216
370
    13
100
AcDbTrace
 10
234.622942
 20
324.434018
 30
0.0
 11
235.240087
 21
320.934021
 31
0.0
 12
234.005798
 22
320.934016
 32
0.0
 13
234.005798
 23
320.934016
 33
0.0
  0
ENDBLK
  5
33F
330
337
100
AcDbEntity
  8
0
100
AcDbBlockEnd
  0
BLOCK
  5
344
330
343
100
AcDbEntity
  8
0
100
AcDbBlockBegin
  2
*D7
 70
     1
 10
0.0
 20
0.0
 30
0.0
  3
*D7
  1

  0
LINE
  5
346
330
343
100
AcDbEntity
  8
0
 62
   254
370
    -2
100
AcDbLine
 10
243.446773
 20
324.273475
 30
0.0
 11
243.446773
 21
331.859188
 31
0.0
  0
LINE
  5
347
330
343
100
AcDbEntity
  8
0
 62
   254
370
    -2
100
AcDbLine
 10
255.444248
 20
326.434018
 30
0.0
 11
255.444248
 21
331.859188
 31
0.0
  0
LINE
  5
348
330
343
100
AcDbEntity
  8
0
 62
   254
370
    -2
100
AcDbLine
 10
239.946773
 20
330.859188
 30
0.0
 11
236.446773
 21
330.859188
 31
0.0
  0
LINE
  5
349
330
343
100
AcDbEntity
  8
0
 62
   254
370
    -2
100
AcDbLine
 10
258.944248
 20
330.859188
 30
0.0
 11
262.444248
 21
330.859188
 31
0.0
  0
SOLID
  5
34A
330
343
100
AcDbEntity
  8
0
 62
   254
100
AcDbTrace
 10
239.946773
 20
330.275854
 30
0.0
 11
239.946773
 21
331.442521
 31
0.0
 12
243.446773
 22
330.859188
 32
0.0
 13
243.446773
 23
330.859188
 33
0.0
  0
SOLID
  5
34B
330
343
100
AcDbEntity
  8
0
 62
   254
100
AcDbTrace
 10
258.944248
 20
331.442521
 30
0.0
 11
258.944248
 21
330.275854
 31
0.0
 12
255.444248
 22
330.859188
 32
0.0
 13
255.444248
 23
330.859188
 33
0.0
  0
MTEXT
  5
34C
330
343
100
AcDbEntity
  8
0
 62
   254
370
    13
100
AcDbMText
 10
249.44551
 20
336.109188
 30
0.0
 40
3.5
 41
0.0
 71
     5
 72
     1
  1
\A1;12
  7
cesky
 73
     1
 44
1.0
  0
POINT
  5
34D
330
343
100
AcDbEntity
  8
Defpoints
 62
     0
100
AcDbPoint
 10
243.446773
 20
324.273475
 30
0.0
  0
POINT
  5
34E
330
343
100
AcDbEntity
  8
Defpoints
 62
     0
100
AcDbPoint
 10
255.444248
 20
326.434018
 30
0.0
  0
POINT
  5
34F
330
343
100
AcDbEntity
  8
Defpoints
 62
     0
100
AcDbPoint
 10
255.444248
 20
330.859188
 30
0.0
  0
ENDBLK
  5
345
330
343
100
AcDbEntity
  8
0
100
AcDbBlockEnd
  0
BLOCK
  5
357
330
350
100
AcDbEntity
  8
0
100
AcDbBlockBegin
  2
_U3
 70
     0
 10
0.0
 20
0.0
 30
0.0
  3
_U3
  1

  0
ENDBLK
  5
358
330
350
100
AcDbEntity
  8
0
100
AcDbBlockEnd
  0
BLOCK
  5
35D
330
35C
100
AcDbEntity
  8
0
100
AcDbBlockBegin
  2
*D9
 70
     1
 10
0.0
 20
0.0
 30
0.0
  3
*D9
  1

  0
LINE
  5
35F
330
35C
100
AcDbEntity
  8
0
 62
   254
370
    -2
100
AcDbLine
 10
244.944248
 20
244.434018
 30
0.0
 11
267.823544
 21
244.434018
 31
0.0
  0
LINE
  5
360
330
35C
100
AcDbEntity
  8
0
 62
   254
370
    -2
100
AcDbLine
 10
257.444248
 20
324.434018
 30
0.0
 11
267.823544
 21
324.434018
 31
0.0
  0
LINE
  5
361
330
35C
100
AcDbEntity
  8
0
 62
   254
370
    -2
100
AcDbLine
 10
266.823544
 20
244.434018
 30
0.0
 11
266.823544
 21
324.434018
 31
0.0
  0
SOLID
  5
362
330
35C
100
AcDbEntity
  8
0
 62
   254
100
AcDbTrace
 10
267.406877
 20
320.934018
 30
0.0
 11
266.24021
 21
320.934018
 31
0.0
 12
266.823544
 22
324.434018
 32
0.0
 13
266.823544
 23
324.434018
 33
0.0
  0
MTEXT
  5
363
330
35C
100
AcDbEntity
  8
0
 62
   254
370
    13
100
AcDbMText
 10
261.573544
 20
233.267352
 30
0.0
 40
3.5
 41
0.0
 71
     5
 72
     1
  1
\A1;160
  7
cesky
 11
0.0
 21
1.0
 31
0.0
 73
     1
 44
1.0
  0
POINT
  5
364
330
35C
100
AcDbEntity
  8
Defpoints
 62
     0
100
AcDbPoint
 10
244.944248
 20
244.434018
 30
0.0
  0
POINT
  5
365
330
35C
100
AcDbEntity
  8
Defpoints
 62
     0
100
AcDbPoint
 10
257.444248
 20
324.434018
 30
0.0
  0
POINT
  5
366
330
35C
100
AcDbEntity
  8
Defpoints
 62
     0
100
AcDbPoint
 10
266.823544
 20
324.434018
 30
0.0
  0
ENDBLK
  5
35E
330
35C
100
AcDbEntity
  8
0
100
AcDbBlockEnd
  0
BLOCK
  5
36D
330
367
100
AcDbEntity
  8
0
100
AcDbBlockBegin
  2
_U4
 70
     0
 10
0.0
 20
0.0
 30
0.0
  3
_U4
  1

  0
ENDBLK
  5
36E
330
367
100
AcDbEntity
  8
0
100
AcDbBlockEnd
  0
ENDSEC
  0
SECTION
  2
ENTITIES
  0
POINT
  5
73
102
{ACAD_REACTORS
330
42C
102
}
330
1F
100
AcDbEntity
  8
80
100
AcDbPoint
 10
249.444248
 20
244.434018
 30
0.0
  0
POINT
  5
75
330
1F
100
AcDbEntity
  8
SK6
 60
     1
100
AcDbPoint
 10
243.444248
 20
244.434018
 30
0.0
  0
POINT
  5
77
330
1F
100
AcDbEntity
  8
SK6
 60
     1
100
AcDbPoint
 10
255.444248
 20
244.434018
 30
0.0
  0
POINT
  5
78
330
1F
100
AcDbEntity
  8
4
 60
     1
100
AcDbPoint
 10
243.444248
 20
244.434018
 30
0.0
  0
POINT
  5
7A
330
1F
100
AcDbEntity
  8
4
 60
     1
100
AcDbPoint
 10
244.944248
 20
244.434018
 30
0.0
  0
LINE
  5
7B
330
1F
100
AcDbEntity
  8
1
100
AcDbLine
 10
255.444248
 20
211.300044
 30
0.0
 11
255.444248
 21
277.567993
 31
0.0
  0
LINE
  5
7D
330
1F
100
AcDbEntity
  8
1
100
AcDbLine
 10
243.444248
 20
211.300044
 30
0.0
 11
243.444248
 21
277.567993
 31
0.0
  0
LINE
  5
7E
330
1F
100
AcDbEntity
  8
80
100
AcDbLine
 10
249.444248
 20
243.434445
 30
0.0
 11
249.444248
 21
245.433592
 31
0.0
  0
LINE
  5
7F
330
1F
100
AcDbEntity
  8
80
100
AcDbLine
 10
248.444675
 20
244.434018
 30
0.0
 11
250.443822
 21
244.434018
 31
0.0
  0
LINE
  5
80
330
1F
100
AcDbEntity
  8
1
100
AcDbLine
 10
243.944248
 20
198.695417
 30
0.0
 11
254.944248
 21
198.695417
 31
0.0
  0
LINE
  5
81
330
1F
100
AcDbEntity
  8
1
100
AcDbLine
 10
243.944248
 20
214.196041
 30
0.0
 11
243.944248
 21
217.320759
 31
0.0
  0
LINE
  5
82
330
1F
100
AcDbEntity
  8
1
100
AcDbLine
 10
248.360737
 20
217.320759
 30
0.0
 11
248.411362
 21
214.196041
 31
0.0
  0
LINE
  5
83
330
1F
100
AcDbEntity
  8
1
100
AcDbLine
 10
248.411362
 20
214.196041
 30
0.0
 11
243.944248
 21
214.196041
 31
0.0
  0
LINE
  5
84
330
1F
100
AcDbEntity
  8
1
100
AcDbLine
 10
254.944248
 20
226.497399
 30
0.0
 11
254.944248
 21
225.572011
 31
0.0
  0
LINE
  5
85
330
1F
100
AcDbEntity
  8
1
100
AcDbLine
 10
243.944248
 20
225.572011
 30
0.0
 11
243.944248
 21
226.497399
 31
0.0
  0
LINE
  5
86
330
1F
100
AcDbEntity
  8
1
100
AcDbLine
 10
248.52232
 20
276.381585
 30
0.0
 11
248.532033
 21
276.602748
 31
0.0
  0
LINE
  5
87
330
1F
100
AcDbEntity
  8
1
100
AcDbLine
 10
254.363413
 20
261.694052
 30
0.0
 11
254.386981
 21
262.278367
 31
0.0
  0
LINE
  5
88
330
1F
100
AcDbEntity
  8
1
100
AcDbLine
 10
243.944248
 20
231.128193
 30
0.0
 11
243.944248
 21
232.803308
 31
0.0
  0
LINE
  5
89
330
1F
100
AcDbEntity
  8
1
100
AcDbLine
 10
248.409896
 20
274.123836
 30
0.0
 11
243.944248
 21
274.123836
 31
0.0
  0
LINE
  5
8A
330
1F
100
AcDbEntity
  8
1
100
AcDbLine
 10
254.944248
 20
257.030069
 30
0.0
 11
254.944248
 21
253.471163
 31
0.0
  0
LINE
  5
8B
330
1F
100
AcDbEntity
  8
1
100
AcDbLine
 10
243.944248
 20
257.030069
 30
0.0
 11
254.944248
 21
257.030069
 31
0.0
  0
LINE
  5
8C
330
1F
100
AcDbEntity
  8
1
100
AcDbLine
 10
243.944248
 20
253.471163
 30
0.0
 11
243.944248
 21
257.030069
 31
0.0
  0
LINE
  5
8D
330
1F
100
AcDbEntity
  8
1
100
AcDbLine
 10
250.477134
 20
244.137356
 30
0.0
 11
250.52776
 21
245.148798
 31
0.0
  0
LINE
  5
8E
330
1F
100
AcDbEntity
  8
1
100
AcDbLine
 10
254.944248
 20
245.148798
 30
0.0
 11
254.944248
 21
244.137356
 31
0.0
  0
LINE
  5
8F
330
1F
100
AcDbEntity
  8
1
100
AcDbLine
 10
243.944248
 20
226.497399
 30
0.0
 11
254.944248
 21
226.497399
 31
0.0
  0
LINE
  5
90
330
1F
100
AcDbEntity
  8
1
100
AcDbLine
 10
254.944248
 20
244.137356
 30
0.0
 11
250.477134
 21
244.137356
 31
0.0
  0
LINE
  5
91
330
1F
100
AcDbEntity
  8
1
100
AcDbLine
 10
243.94425
 20
202.721844
 30
0.0
 11
243.896792
 21
201.844691
 31
0.0
  0
LINE
  5
93
330
1F
100
AcDbEntity
  8
1
100
AcDbLine
 10
243.896792
 20
201.844691
 30
0.0
 11
243.696192
 21
198.0818149999999
 31
0.0
  0
LINE
  5
94
330
1F
100
AcDbEntity
  8
1
100
AcDbLine
 10
243.896792
 20
201.844691
 30
0.0
 11
243.944251
 21
202.378218
 31
0.0
  0
LINE
  5
95
330
1F
100
AcDbEntity
  8
1
100
AcDbLine
 10
255.319631
 20
277.639899
 30
0.0
 11
255.232041
 21
279.373885
 31
0.0
  0
LINE
  5
96
330
1F
100
AcDbEntity
  8
1
100
AcDbLine
 10
255.232041
 20
279.373885
 30
0.0
 11
254.99675
 21
283.920411
 31
0.0
  0
LINE
  5
97
330
1F
100
AcDbEntity
  8
1
100
AcDbLine
 10
254.898189
 20
167.856305
 30
0.0
 11
254.895999
 21
167.845428
 31
0.0
  0
LINE
  5
98
330
1F
100
AcDbEntity
  8
1
100
AcDbLine
 10
254.895999
 20
167.845428
 30
0.0
 11
254.791735
 21
167.823851
 31
0.0
  0
LINE
  5
99
330
1F
100
AcDbEntity
  8
1
100
AcDbLine
 10
247.998465
 20
167.830169
 30
0.0
 11
247.902927
 21
167.851931
 31
0.0
  0
LINE
  5
9A
330
1F
100
AcDbEntity
  8
1
100
AcDbLine
 10
247.998465
 20
167.830169
 30
0.0
 11
254.791735
 21
167.823851
 31
0.0
  0
LINE
  5
9B
330
1F
100
AcDbEntity
  8
1
100
AcDbLine
 10
250.649527
 20
297.021964
 30
0.0
 11
250.884818
 21
292.6083569999999
 31
0.0
  0
LINE
  5
9C
330
1F
100
AcDbEntity
  8
1
100
AcDbLine
 10
250.33287
 20
300.581775
 30
0.0
 11
250.649527
 21
297.021964
 31
0.0
  0
LINE
  5
9D
330
1F
100
AcDbEntity
  8
1
100
AcDbLine
 10
243.593012
 20
300.306988
 30
0.0
 11
250.33287
 21
300.581775
 31
0.0
  0
LINE
  5
9E
330
1F
100
AcDbEntity
  8
1
100
AcDbLine
 10
243.656455
 20
296.736853
 30
0.0
 11
243.593012
 21
300.306988
 31
0.0
  0
LINE
  5
9F
330
1F
100
AcDbEntity
  8
1
100
AcDbLine
 10
250.869071
 20
290.315475
 30
0.0
 11
250.889819
 21
290.001152
 31
0.0
  0
LINE
  5
A0
330
1F
100
AcDbEntity
  8
1
100
AcDbLine
 10
250.985569
 20
290.697959
 30
0.0
 11
250.997345
 21
289.994207
 31
0.0
  0
LINE
  5
A1
330
1F
100
AcDbEntity
  8
1
100
AcDbLine
 10
243.989068
 20
290.479657
 30
0.0
 11
250.98214
 21
290.764768
 31
0.0
  0
LINE
  5
A2
330
1F
100
AcDbEntity
  8
1
100
AcDbLine
 10
243.891746
 20
292.323246
 30
0.0
 11
250.884818
 21
292.6083569999999
 31
0.0
  0
LINE
  5
A3
330
1F
100
AcDbEntity
  8
1
100
AcDbLine
 10
243.512618
 20
296.223844
 30
0.0
 11
243.465542
 21
299.317937
 31
0.0
  0
LINE
  5
A4
330
1F
100
AcDbEntity
  8
1
100
AcDbLine
 10
243.56075
 20
293.347351
 30
0.0
 11
243.512618
 21
296.223844
 31
0.0
  0
LINE
  5
A5
330
1F
100
AcDbEntity
  8
1
100
AcDbLine
 10
243.56511
 20
293.26557
 30
0.0
 11
243.56075
 21
293.347351
 31
0.0
  0
LINE
  5
A6
330
1F
100
AcDbEntity
  8
1
100
AcDbLine
 10
243.56418
 20
293.280543
 30
0.0
 11
243.56511
 21
293.26557
 31
0.0
  0
LINE
  5
A7
330
1F
100
AcDbEntity
  8
1
100
AcDbLine
 10
243.896792
 20
287.023346
 30
0.0
 11
243.661502
 21
291.436953
 31
0.0
  0
LINE
  5
A8
330
1F
100
AcDbEntity
  8
1
100
AcDbLine
 10
243.94425
 20
286.146193
 30
0.0
 11
243.896792
 21
287.023346
 31
0.0
  0
LINE
  5
A9
330
1F
100
AcDbEntity
  8
1
100
AcDbLine
 10
243.989068
 20
290.479657
 30
0.0
 11
243.988138
 21
290.494629
 31
0.0
  0
LINE
  5
AA
330
1F
100
AcDbEntity
  8
1
100
AcDbLine
 10
243.656455
 20
296.736853
 30
0.0
 11
243.891746
 21
292.323246
 31
0.0
  0
LINE
  5
AB
330
1F
100
AcDbEntity
  8
1
100
AcDbLine
 10
243.447652
 20
300.59618
 30
0.0
 11
243.656455
 21
296.736853
 31
0.0
  0
LINE
  5
AC
330
1F
100
AcDbEntity
  8
1
100
AcDbLine
 10
243.448524
 20
300.538849
 30
0.0
 11
243.447652
 21
300.59618
 31
0.0
  0
LINE
  5
AD
330
1F
100
AcDbEntity
  8
1
100
AcDbLine
 10
243.448064
 20
300.556713
 30
0.0
 11
243.448524
 21
300.538849
 31
0.0
  0
LINE
  5
AE
330
1F
100
AcDbEntity
  8
1
100
AcDbLine
 10
250.890032
 20
290.612036
 30
0.0
 11
250.869071
 21
290.315475
 31
0.0
  0
LINE
  5
AF
330
1F
100
AcDbEntity
  8
1
100
AcDbLine
 10
244.129212
 20
290.040688
 30
0.0
 11
244.502221
 21
290.055895
 31
0.0
  0
LINE
  5
B0
330
1F
100
AcDbEntity
  8
1
100
AcDbLine
 10
247.896898
 20
290.194298
 30
0.0
 11
250.869071
 21
290.315475
 31
0.0
  0
LINE
  5
B1
330
1F
100
AcDbEntity
  8
1
100
AcDbLine
 10
244.113361
 20
289.592569
 30
0.0
 11
244.129212
 21
290.040688
 31
0.0
  0
LINE
  5
B2
330
1F
100
AcDbEntity
  8
1
100
AcDbLine
 10
244.129212
 20
290.040688
 30
0.0
 11
244.096762
 21
290.335071
 31
0.0
  0
LINE
  5
B3
330
1F
100
AcDbEntity
  8
1
100
AcDbLine
 10
243.992498
 20
290.412848
 30
0.0
 11
244.006287
 21
289.588733
 31
0.0
  0
LINE
  5
B4
330
1F
100
AcDbEntity
  8
1
100
AcDbLine
 10
250.985569
 20
290.697959
 30
0.0
 11
250.890032
 21
290.612036
 31
0.0
  0
LINE
  5
B5
330
1F
100
AcDbEntity
  8
1
100
AcDbLine
 10
250.982008
 20
290.764761
 30
0.0
 11
250.985569
 21
290.697959
 31
0.0
  0
LINE
  5
B6
330
1F
100
AcDbEntity
  8
1
100
AcDbLine
 10
243.988138
 20
290.494629
 30
0.0
 11
243.992498
 21
290.412848
 31
0.0
  0
LINE
  5
B7
330
1F
100
AcDbEntity
  8
1
100
AcDbLine
 10
244.096762
 20
290.335071
 30
0.0
 11
243.992498
 21
290.412848
 31
0.0
  0
LINE
  5
B8
330
1F
100
AcDbEntity
  8
1
100
AcDbLine
 10
244.096762
 20
290.335071
 30
0.0
 11
250.890032
 21
290.612036
 31
0.0
  0
LINE
  5
B9
330
1F
100
AcDbEntity
  8
1
100
AcDbLine
 10
243.989496
 20
180.619633
 30
0.0
 11
243.992498
 21
180.580181
 31
0.0
  0
LINE
  5
BA
330
1F
100
AcDbEntity
  8
1
100
AcDbLine
 10
250.985569
 20
180.705316
 30
0.0
 11
250.890032
 21
180.64617
 31
0.0
  0
LINE
  5
BB
330
1F
100
AcDbEntity
  8
1
100
AcDbLine
 10
244.096762
 20
180.52461
 30
0.0
 11
243.992498
 21
180.580181
 31
0.0
  0
LINE
  5
BC
330
1F
100
AcDbEntity
  8
1
100
AcDbLine
 10
244.096762
 20
180.52461
 30
0.0
 11
250.890032
 21
180.64617
 31
0.0
  0
LINE
  5
BD
330
1F
100
AcDbEntity
  8
1
100
AcDbLine
 10
243.989068
 20
180.619626
 30
0.0
 11
250.98214
 21
180.744762
 31
0.0
  0
LINE
  5
BE
330
1F
100
AcDbEntity
  8
1
100
AcDbLine
 10
243.656288
 20
198.081033
 30
0.0
 11
250.449557
 21
198.202593
 31
0.0
  0
LINE
  5
BF
330
1F
100
AcDbEntity
  8
1
100
AcDbLine
 10
243.56075
 20
198.021887
 30
0.0
 11
243.512618
 21
194.157875
 31
0.0
  0
LINE
  5
C0
330
1F
100
AcDbEntity
  8
1
100
AcDbLine
 10
243.677249
 20
197.729325
 30
0.0
 11
243.656288
 21
198.081033
 31
0.0
  0
LINE
  5
C1
330
1F
100
AcDbEntity
  8
1
100
AcDbLine
 10
243.656288
 20
198.081033
 30
0.0
 11
243.56075
 21
198.021887
 31
0.0
  0
LINE
  5
C2
330
1F
100
AcDbEntity
  8
1
100
AcDbLine
 10
250.459695
 20
198.1971899999999
 30
0.0
 11
250.449557
 21
198.202593
 31
0.0
  0
LINE
  5
C3
330
1F
100
AcDbEntity
  8
1
100
AcDbLine
 10
250.449557
 20
198.202593
 30
0.0
 11
250.417107
 21
197.84993
 31
0.0
  0
LINE
  5
C4
330
1F
100
AcDbEntity
  8
1
100
AcDbLine
 10
243.512618
 20
194.157875
 30
0.0
 11
243.465542
 21
189.739052
 31
0.0
  0
LINE
  5
C5
330
1F
100
AcDbEntity
  8
1
100
AcDbLine
 10
250.417107
 20
197.84993
 30
0.0
 11
250.50569
 21
194.283011
 31
0.0
  0
LINE
  5
C6
330
1F
100
AcDbEntity
  8
1
100
AcDbLine
 10
243.677249
 20
197.729325
 30
0.0
 11
250.417107
 21
197.84993
 31
0.0
  0
LINE
  5
C7
330
1F
100
AcDbEntity
  8
1
100
AcDbLine
 10
243.512618
 20
194.157875
 30
0.0
 11
243.677249
 21
197.729325
 31
0.0
  0
LINE
  5
C8
330
1F
100
AcDbEntity
  8
1
100
AcDbLine
 10
243.656455
 20
184.950836
 30
0.0
 11
243.891746
 21
181.857888
 31
0.0
  0
LINE
  5
C9
330
1F
100
AcDbEntity
  8
1
100
AcDbLine
 10
243.891746
 20
181.857888
 30
0.0
 11
250.884818
 21
181.983024
 31
0.0
  0
LINE
  5
CA
330
1F
100
AcDbEntity
  8
1
100
AcDbLine
 10
243.656455
 20
184.950836
 30
0.0
 11
243.593012
 21
187.451347
 31
0.0
  0
LINE
  5
CB
330
1F
100
AcDbEntity
  8
1
100
AcDbLine
 10
243.447652
 20
187.826442
 30
0.0
 11
243.656455
 21
184.950836
 31
0.0
  0
LINE
  5
CC
330
1F
100
AcDbEntity
  8
1
100
AcDbLine
 10
243.448064
 20
187.893324
 30
0.0
 11
250.441136
 21
188.01846
 31
0.0
  0
LINE
  5
CD
330
1F
100
AcDbEntity
  8
1
100
AcDbLine
 10
243.465542
 20
189.739052
 30
0.0
 11
250.458613
 21
189.8641879999999
 31
0.0
  0
LINE
  5
CE
330
1F
100
AcDbEntity
  8
1
100
AcDbLine
 10
250.522828
 20
195.658901
 30
0.0
 11
250.50569
 21
194.283011
 31
0.0
  0
LINE
  5
CF
330
1F
100
AcDbEntity
  8
1
100
AcDbLine
 10
250.50569
 20
194.283011
 30
0.0
 11
250.458613
 21
189.8641879999999
 31
0.0
  0
LINE
  5
D0
330
1F
100
AcDbEntity
  8
1
100
AcDbLine
 10
250.441136
 20
188.01846
 30
0.0
 11
250.441596
 21
188.033455
 31
0.0
  0
LINE
  5
D1
330
1F
100
AcDbEntity
  8
1
100
AcDbLine
 10
250.649527
 20
185.075971
 30
0.0
 11
250.884818
 21
181.983024
 31
0.0
  0
LINE
  5
D2
330
1F
100
AcDbEntity
  8
1
100
AcDbLine
 10
250.98214
 20
180.744762
 30
0.0
 11
250.98121
 21
180.762626
 31
0.0
  0
LINE
  5
D3
330
1F
100
AcDbEntity
  8
1
100
AcDbLine
 10
250.98121
 20
180.762626
 30
0.0
 11
250.985569
 21
180.705316
 31
0.0
  0
LINE
  5
D4
330
1F
100
AcDbEntity
  8
1
100
AcDbLine
 10
250.985569
 20
180.705316
 30
0.0
 11
250.990075
 21
181.067024
 31
0.0
  0
LINE
  5
D5
330
1F
100
AcDbEntity
  8
1
100
AcDbLine
 10
243.593012
 20
187.451347
 30
0.0
 11
243.54668
 21
187.746283
 31
0.0
  0
LINE
  5
D6
330
1F
100
AcDbEntity
  8
1
100
AcDbLine
 10
243.593012
 20
187.451347
 30
0.0
 11
250.33287
 21
187.571951
 31
0.0
  0
LINE
  5
D7
330
1F
100
AcDbEntity
  8
1
100
AcDbLine
 10
250.441596
 20
188.033455
 30
0.0
 11
250.440724
 21
187.951578
 31
0.0
  0
LINE
  5
D8
330
1F
100
AcDbEntity
  8
1
100
AcDbLine
 10
243.448364
 20
187.893328
 30
0.0
 11
243.447652
 21
187.826442
 31
0.0
  0
LINE
  5
D9
330
1F
100
AcDbEntity
  8
1
100
AcDbLine
 10
243.54668
 20
187.746283
 30
0.0
 11
243.447652
 21
187.826442
 31
0.0
  0
LINE
  5
DA
330
1F
100
AcDbEntity
  8
1
100
AcDbLine
 10
243.54668
 20
187.746283
 30
0.0
 11
250.33995
 21
187.867843
 31
0.0
  0
LINE
  5
DB
330
1F
100
AcDbEntity
  8
1
100
AcDbLine
 10
250.33287
 20
187.571951
 30
0.0
 11
250.649527
 21
185.075971
 31
0.0
  0
LINE
  5
DC
330
1F
100
AcDbEntity
  8
1
100
AcDbLine
 10
250.440724
 20
187.951578
 30
0.0
 11
250.649527
 21
185.075971
 31
0.0
  0
LINE
  5
DD
330
1F
100
AcDbEntity
  8
1
100
AcDbLine
 10
250.440724
 20
187.951578
 30
0.0
 11
250.33995
 21
187.867843
 31
0.0
  0
LINE
  5
DE
330
1F
100
AcDbEntity
  8
1
100
AcDbLine
 10
250.33995
 20
187.867843
 30
0.0
 11
250.33287
 21
187.571951
 31
0.0
  0
LINE
  5
DF
330
1F
100
AcDbEntity
  8
1
100
AcDbLine
 10
243.656455
 20
239.356746
 30
0.0
 11
243.891746
 21
234.04881
 31
0.0
  0
LINE
  5
E0
330
1F
100
AcDbEntity
  8
1
100
AcDbLine
 10
243.891746
 20
234.04881
 30
0.0
 11
250.884818
 21
234.338898
 31
0.0
  0
LINE
  5
E1
330
1F
100
AcDbEntity
  8
1
100
AcDbLine
 10
250.649527
 20
239.646834
 30
0.0
 11
250.884818
 21
234.338898
 31
0.0
  0
LINE
  5
E2
330
1F
100
AcDbEntity
  8
1
100
AcDbLine
 10
243.593012
 20
243.64934
 30
0.0
 11
243.54668
 21
244.105835
 31
0.0
  0
LINE
  5
E3
330
1F
100
AcDbEntity
  8
1
100
AcDbLine
 10
243.593012
 20
243.64934
 30
0.0
 11
250.33287
 21
243.928925
 31
0.0
  0
LINE
  5
E4
330
1F
100
AcDbEntity
  8
1
100
AcDbLine
 10
250.441596
 20
244.426508
 30
0.0
 11
250.440724
 21
244.409151
 31
0.0
  0
LINE
  5
E5
330
1F
100
AcDbEntity
  8
1
100
AcDbLine
 10
243.448524
 20
244.13642
 30
0.0
 11
250.441596
 21
244.426508
 31
0.0
  0
LINE
  5
E6
330
1F
100
AcDbEntity
  8
1
100
AcDbLine
 10
243.448524
 20
244.13642
 30
0.0
 11
243.447652
 21
244.119063
 31
0.0
  0
LINE
  5
E7
330
1F
100
AcDbEntity
  8
1
100
AcDbLine
 10
243.54668
 20
244.105835
 30
0.0
 11
243.447652
 21
244.119063
 31
0.0
  0
LINE
  5
E8
330
1F
100
AcDbEntity
  8
1
100
AcDbLine
 10
243.54668
 20
244.105835
 30
0.0
 11
250.33995
 21
244.387635
 31
0.0
  0
LINE
  5
E9
330
1F
100
AcDbEntity
  8
1
100
AcDbLine
 10
250.33287
 20
243.928925
 30
0.0
 11
250.649527
 21
239.646834
 31
0.0
  0
LINE
  5
EA
330
1F
100
AcDbEntity
  8
1
100
AcDbLine
 10
250.440724
 20
244.409151
 30
0.0
 11
250.649527
 21
239.646834
 31
0.0
  0
LINE
  5
EB
330
1F
100
AcDbEntity
  8
1
100
AcDbLine
 10
250.440724
 20
244.409151
 30
0.0
 11
250.33995
 21
244.387635
 31
0.0
  0
LINE
  5
EC
330
1F
100
AcDbEntity
  8
1
100
AcDbLine
 10
250.33995
 20
244.387635
 30
0.0
 11
250.33287
 21
243.928925
 31
0.0
  0
LINE
  5
ED
330
1F
100
AcDbEntity
  8
1
100
AcDbLine
 10
243.56418
 20
311.819952
 30
0.0
 11
243.593026
 21
311.820419
 31
0.0
  0
LINE
  5
EE
330
1F
100
AcDbEntity
  8
1
100
AcDbLine
 10
243.54668
 20
324.2744
 30
0.0
 11
250.33995
 21
324.384287
 31
0.0
  0
LINE
  5
EF
330
1F
100
AcDbEntity
  8
1
100
AcDbLine
 10
250.440724
 20
324.287385
 30
0.0
 11
250.649527
 21
323.591789
 31
0.0
  0
LINE
  5
F0
330
1F
100
AcDbEntity
  8
1
100
AcDbLine
 10
250.440724
 20
324.287385
 30
0.0
 11
250.33995
 21
324.384287
 31
0.0
  0
LINE
  5
F1
330
1F
100
AcDbEntity
  8
1
100
AcDbLine
 10
250.33995
 20
324.384287
 30
0.0
 11
250.33287
 21
324.344031
 31
0.0
  0
LINE
  5
F2
330
1F
100
AcDbEntity
  8
1
100
AcDbLine
 10
243.593012
 20
324.235008
 30
0.0
 11
243.54668
 21
324.2744
 31
0.0
  0
LINE
  5
F3
330
1F
100
AcDbEntity
  8
1
100
AcDbLine
 10
243.54668
 20
324.2744
 30
0.0
 11
243.447652
 21
324.174265
 31
0.0
  0
LINE
  5
F4
330
1F
100
AcDbEntity
  8
1
100
AcDbLine
 10
250.649527
 20
323.591789
 30
0.0
 11
250.884818
 21
322.657942
 31
0.0
  0
LINE
  5
F5
330
1F
100
AcDbEntity
  8
1
100
AcDbLine
 10
250.33287
 20
324.344031
 30
0.0
 11
250.649527
 21
323.591789
 31
0.0
  0
LINE
  5
F6
330
1F
100
AcDbEntity
  8
1
100
AcDbLine
 10
243.593012
 20
324.235008
 30
0.0
 11
250.33287
 21
324.344031
 31
0.0
  0
LINE
  5
F7
330
1F
100
AcDbEntity
  8
1
100
AcDbLine
 10
243.656455
 20
323.47867
 30
0.0
 11
243.593012
 21
324.235008
 31
0.0
  0
LINE
  5
F8
330
1F
100
AcDbEntity
  8
1
100
AcDbLine
 10
250.985569
 20
322.2105620000001
 30
0.0
 11
250.990941
 21
321.678603
 31
0.0
  0
LINE
  5
F9
330
1F
100
AcDbEntity
  8
1
100
AcDbLine
 10
243.891746
 20
322.544822
 30
0.0
 11
250.884818
 21
322.657942
 31
0.0
  0
LINE
  5
FA
330
1F
100
AcDbEntity
  8
1
100
AcDbLine
 10
250.98214
 20
322.229911
 30
0.0
 11
250.98121
 21
322.227866
 31
0.0
  0
LINE
  5
FB
330
1F
100
AcDbEntity
  8
1
100
AcDbLine
 10
243.989068
 20
322.1167910000001
 30
0.0
 11
250.98214
 21
322.229911
 31
0.0
  0
LINE
  5
FC
330
1F
100
AcDbEntity
  8
1
100
AcDbLine
 10
243.512618
 20
316.605557
 30
0.0
 11
243.465542
 21
321.917991
 31
0.0
  0
LINE
  5
FD
330
1F
100
AcDbEntity
  8
1
100
AcDbLine
 10
243.56075
 20
311.839301
 30
0.0
 11
243.512618
 21
316.605557
 31
0.0
  0
LINE
  5
FE
330
1F
100
AcDbEntity
  8
1
100
AcDbLine
 10
243.56511
 20
311.821997
 30
0.0
 11
243.56075
 21
311.839301
 31
0.0
  0
LINE
  5
FF
330
1F
100
AcDbEntity
  8
1
100
AcDbLine
 10
243.56418
 20
311.819952
 30
0.0
 11
243.56511
 21
311.821997
 31
0.0
  0
LINE
  5
100
330
1F
100
AcDbEntity
  8
1
100
AcDbLine
 10
243.896792
 20
310.458074
 30
0.0
 11
243.661502
 21
311.391921
 31
0.0
  0
LINE
  5
101
330
1F
100
AcDbEntity
  8
1
100
AcDbLine
 10
243.94425
 20
310.299978
 30
0.0
 11
243.896792
 21
310.458074
 31
0.0
  0
LINE
  5
102
330
1F
100
AcDbEntity
  8
1
100
AcDbLine
 10
243.989068
 20
322.1167910000001
 30
0.0
 11
243.988138
 21
322.114746
 31
0.0
  0
LINE
  5
103
330
1F
100
AcDbEntity
  8
1
100
AcDbLine
 10
243.656455
 20
323.47867
 30
0.0
 11
243.891746
 21
322.544822
 31
0.0
  0
LINE
  5
104
330
1F
100
AcDbEntity
  8
1
100
AcDbLine
 10
243.447652
 20
324.174265
 30
0.0
 11
243.656455
 21
323.47867
 31
0.0
  0
LINE
  5
105
330
1F
100
AcDbEntity
  8
1
100
AcDbLine
 10
243.448526
 20
324.075565
 30
0.0
 11
243.447652
 21
324.174265
 31
0.0
  0
LINE
  5
106
330
1F
100
AcDbEntity
  8
1
100
AcDbLine
 10
250.869071
 20
321.733233
 30
0.0
 11
250.871105
 21
321.680224
 31
0.0
  0
LINE
  5
107
330
1F
100
AcDbEntity
  8
1
100
AcDbLine
 10
250.890032
 20
322.191628
 30
0.0
 11
250.869071
 21
321.733233
 31
0.0
  0
LINE
  5
108
330
1F
100
AcDbEntity
  8
1
100
AcDbLine
 10
244.129212
 20
321.624209
 30
0.0
 11
244.502221
 21
321.630243
 31
0.0
  0
LINE
  5
109
330
1F
100
AcDbEntity
  8
1
100
AcDbLine
 10
249.04815
 20
321.703778
 30
0.0
 11
250.869071
 21
321.733233
 31
0.0
  0
LINE
  5
10A
330
1F
100
AcDbEntity
  8
1
100
AcDbLine
 10
250.985569
 20
322.2105620000001
 30
0.0
 11
250.890032
 21
322.191628
 31
0.0
  0
LINE
  5
10B
330
1F
100
AcDbEntity
  8
1
100
AcDbLine
 10
250.98121
 20
322.227866
 30
0.0
 11
250.985569
 21
322.2105620000001
 31
0.0
  0
LINE
  5
10C
330
1F
100
AcDbEntity
  8
1
100
AcDbLine
 10
243.988138
 20
322.114746
 30
0.0
 11
250.98121
 21
322.227866
 31
0.0
  0
LINE
  5
10D
330
1F
100
AcDbEntity
  8
1
100
AcDbLine
 10
243.988138
 20
322.114746
 30
0.0
 11
243.992498
 21
322.097443
 31
0.0
  0
LINE
  5
10E
330
1F
100
AcDbEntity
  8
1
100
AcDbLine
 10
244.096762
 20
322.08174
 30
0.0
 11
250.890032
 21
322.191628
 31
0.0
  0
LINE
  5
10F
330
1F
100
AcDbEntity
  8
1
100
AcDbLine
 10
244.128641
 20
321.596506
 30
0.0
 11
244.129212
 21
321.624209
 31
0.0
  0
LINE
  5
110
330
1F
100
AcDbEntity
  8
1
100
AcDbLine
 10
244.129212
 20
321.624209
 30
0.0
 11
244.096762
 21
322.08174
 31
0.0
  0
LINE
  5
111
330
1F
100
AcDbEntity
  8
1
100
AcDbLine
 10
244.096762
 20
322.08174
 30
0.0
 11
243.992498
 21
322.097443
 31
0.0
  0
LINE
  5
112
330
1F
100
AcDbEntity
  8
1
100
AcDbLine
 10
243.992498
 20
322.097443
 30
0.0
 11
243.997566
 21
321.595571
 31
0.0
  0
LINE
  5
113
330
1F
100
AcDbEntity
  8
1
100
AcDbLine
 10
243.56418
 20
293.280543
 30
0.0
 11
243.564398
 21
293.280552
 31
0.0
  0
LINE
  5
114
330
1F
100
AcDbEntity
  8
1
100
AcDbLine
 10
243.448064
 20
300.556713
 30
0.0
 11
243.448283
 21
300.556722
 31
0.0
  0
LINE
  5
115
330
1F
100
AcDbEntity
  8
1
100
AcDbLine
 10
243.54668
 20
300.6576330000001
 30
0.0
 11
250.33995
 21
300.934598
 31
0.0
  0
LINE
  5
116
330
1F
100
AcDbEntity
  8
1
100
AcDbLine
 10
250.440724
 20
300.881291
 30
0.0
 11
250.649527
 21
297.021964
 31
0.0
  0
LINE
  5
117
330
1F
100
AcDbEntity
  8
1
100
AcDbLine
 10
250.440724
 20
300.881291
 30
0.0
 11
250.33995
 21
300.934598
 31
0.0
  0
LINE
  5
118
330
1F
100
AcDbEntity
  8
1
100
AcDbLine
 10
250.33995
 20
300.934598
 30
0.0
 11
250.33287
 21
300.581775
 31
0.0
  0
LINE
  5
119
330
1F
100
AcDbEntity
  8
1
100
AcDbLine
 10
243.593012
 20
300.306988
 30
0.0
 11
243.54668
 21
300.6576330000001
 31
0.0
  0
LINE
  5
11A
330
1F
100
AcDbEntity
  8
1
100
AcDbLine
 10
243.54668
 20
300.6576330000001
 30
0.0
 11
243.447652
 21
300.59618
 31
0.0
  0
LINE
  5
11B
330
1F
100
AcDbEntity
  8
1
100
AcDbLine
 10
255.327746
 20
220.273122
 30
0.0
 11
255.232209
 21
220.360647
 31
0.0
  0
LINE
  5
11C
330
1F
100
AcDbEntity
  8
1
100
AcDbLine
 10
255.232209
 20
220.360647
 30
0.0
 11
255.211248
 21
220.149201
 31
0.0
  0
LINE
  5
11D
330
1F
100
AcDbEntity
  8
1
100
AcDbLine
 10
254.899208
 20
203.098116
 30
0.0
 11
254.895999
 21
203.036101
 31
0.0
  0
LINE
  5
11E
330
1F
100
AcDbEntity
  8
1
100
AcDbLine
 10
254.895999
 20
203.036101
 30
0.0
 11
254.791735
 21
202.954996
 31
0.0
  0
LINE
  5
11F
330
1F
100
AcDbEntity
  8
1
100
AcDbLine
 10
247.998465
 20
203.173293
 30
0.0
 11
247.902927
 21
203.260819
 31
0.0
  0
LINE
  5
120
330
1F
100
AcDbEntity
  8
1
100
AcDbLine
 10
247.998465
 20
203.173293
 30
0.0
 11
254.791735
 21
202.954996
 31
0.0
  0
LINE
  5
121
330
1F
100
AcDbEntity
  8
1
100
AcDbLine
 10
248.471389
 20
220.365782
 30
0.0
 11
248.438939
 21
220.578944
 31
0.0
  0
LINE
  5
122
330
1F
100
AcDbEntity
  8
1
100
AcDbLine
 10
248.438939
 20
220.578944
 30
0.0
 11
248.401472
 21
220.5498
 31
0.0
  0
LINE
  5
123
330
1F
100
AcDbEntity
  8
1
100
AcDbLine
 10
247.906357
 20
203.322828
 30
0.0
 11
254.899429
 21
203.09811
 31
0.0
  0
LINE
  5
124
330
1F
100
AcDbEntity
  8
1
100
AcDbLine
 10
255.375879
 20
217.804027
 30
0.0
 11
255.422955
 21
214.905625
 31
0.0
  0
LINE
  5
125
330
1F
100
AcDbEntity
  8
1
100
AcDbLine
 10
255.211248
 20
220.149201
 30
0.0
 11
255.375879
 21
217.804027
 31
0.0
  0
LINE
  5
126
330
1F
100
AcDbEntity
  8
1
100
AcDbLine
 10
248.471389
 20
220.365782
 30
0.0
 11
255.211248
 21
220.149201
 31
0.0
  0
LINE
  5
127
330
1F
100
AcDbEntity
  8
1
100
AcDbLine
 10
248.382807
 20
218.028744
 30
0.0
 11
248.471389
 21
220.365782
 31
0.0
  0
LINE
  5
128
330
1F
100
AcDbEntity
  8
1
100
AcDbLine
 10
248.003679
 20
205.172344
 30
0.0
 11
254.99675
 21
204.947626
 31
0.0
  0
LINE
  5
129
330
1F
100
AcDbEntity
  8
1
100
AcDbLine
 10
255.232041
 20
209.494152
 30
0.0
 11
254.99675
 21
204.947626
 31
0.0
  0
LINE
  5
12A
330
1F
100
AcDbEntity
  8
1
100
AcDbLine
 10
255.295485
 20
213.170554
 30
0.0
 11
255.232041
 21
209.494152
 31
0.0
  0
LINE
  5
12B
330
1F
100
AcDbEntity
  8
1
100
AcDbLine
 10
255.440845
 20
213.627766
 30
0.0
 11
255.232041
 21
209.494152
 31
0.0
  0
LINE
  5
12C
330
1F
100
AcDbEntity
  8
1
100
AcDbLine
 10
248.447361
 20
213.899171
 30
0.0
 11
255.440432
 21
213.674453
 31
0.0
  0
LINE
  5
12D
330
1F
100
AcDbEntity
  8
1
100
AcDbLine
 10
248.429883
 20
215.130343
 30
0.0
 11
255.422955
 21
214.905625
 31
0.0
  0
LINE
  5
12E
330
1F
100
AcDbEntity
  8
1
100
AcDbLine
 10
248.382807
 20
218.028744
 30
0.0
 11
248.429883
 21
215.130343
 31
0.0
  0
LINE
  5
12F
330
1F
100
AcDbEntity
  8
1
100
AcDbLine
 10
248.365531
 20
218.914957
 30
0.0
 11
248.382807
 21
218.028744
 31
0.0
  0
LINE
  5
130
330
1F
100
AcDbEntity
  8
1
100
AcDbLine
 10
247.902927
 20
203.260819
 30
0.0
 11
247.898422
 21
203.491949
 31
0.0
  0
LINE
  5
131
330
1F
100
AcDbEntity
  8
1
100
AcDbLine
 10
247.907287
 20
203.345062
 30
0.0
 11
247.902927
 21
203.260819
 31
0.0
  0
LINE
  5
132
330
1F
100
AcDbEntity
  8
1
100
AcDbLine
 10
247.906357
 20
203.322828
 30
0.0
 11
247.907287
 21
203.345062
 31
0.0
  0
LINE
  5
133
330
1F
100
AcDbEntity
  8
1
100
AcDbLine
 10
248.23897
 20
209.718869
 30
0.0
 11
248.003679
 21
205.172344
 31
0.0
  0
LINE
  5
134
330
1F
100
AcDbEntity
  8
1
100
AcDbLine
 10
248.447361
 20
213.899171
 30
0.0
 11
248.446901
 21
213.906189
 31
0.0
  0
LINE
  5
135
330
1F
100
AcDbEntity
  8
1
100
AcDbLine
 10
248.23897
 20
209.718869
 30
0.0
 11
248.555626
 21
213.387135
 31
0.0
  0
LINE
  5
136
330
1F
100
AcDbEntity
  8
1
100
AcDbLine
 10
248.447773
 20
213.852484
 30
0.0
 11
248.23897
 21
209.718869
 31
0.0
  0
LINE
  5
137
330
1F
100
AcDbEntity
  8
1
100
AcDbLine
 10
243.56511
 20
177.0460399999999
 30
0.0
 11
243.56075
 21
177.028736
 31
0.0
  0
LINE
  5
138
330
1F
100
AcDbEntity
  8
1
100
AcDbLine
 10
243.656288
 20
177.009802
 30
0.0
 11
243.56075
 21
177.028736
 31
0.0
  0
LINE
  5
139
330
1F
100
AcDbEntity
  8
1
100
AcDbLine
 10
243.656288
 20
177.009802
 30
0.0
 11
243.944259
 21
177.005144
 31
0.0
  0
LINE
  5
13A
330
1F
100
AcDbEntity
  8
1
100
AcDbLine
 10
243.677249
 20
176.551407
 30
0.0
 11
243.656288
 21
177.009802
 31
0.0
  0
LINE
  5
13B
330
1F
100
AcDbEntity
  8
1
100
AcDbLine
 10
243.677249
 20
176.551407
 30
0.0
 11
243.944316
 21
176.547087
 31
0.0
  0
LINE
  5
13C
330
1F
100
AcDbEntity
  8
1
100
AcDbLine
 10
254.944248
 20
167.15389
 30
0.0
 11
254.944248
 21
166.13458
 31
0.0
  0
LINE
  5
13D
330
1F
100
AcDbEntity
  8
1
100
AcDbLine
 10
250.477134
 20
166.13458
 30
0.0
 11
250.48615
 21
167.15389
 31
0.0
  0
LINE
  5
13E
330
1F
100
AcDbEntity
  8
1
100
AcDbLine
 10
254.944248
 20
166.13458
 30
0.0
 11
250.477134
 21
166.13458
 31
0.0
  0
LINE
  5
13F
330
1F
100
AcDbEntity
  8
1
100
AcDbLine
 10
244.501515
 20
321.698916
 30
0.0
 11
244.502402
 21
321.599257
 31
0.0
  0
LINE
  5
140
330
1F
100
AcDbEntity
  8
1
100
AcDbLine
 10
254.944248
 20
168.217928
 30
0.0
 11
254.944248
 21
168.054481
 31
0.0
  0
LINE
  5
141
330
1F
100
AcDbEntity
  8
1
100
AcDbLine
 10
254.944248
 20
320.651915
 30
0.0
 11
254.944248
 21
318.083501
 31
0.0
  0
LINE
  5
142
330
1F
100
AcDbEntity
  8
1
100
AcDbLine
 10
243.944248
 20
316.6597450000001
 30
0.0
 11
243.944248
 21
320.651915
 31
0.0
  0
LINE
  5
143
330
1F
100
AcDbEntity
  8
1
100
AcDbLine
 10
243.944248
 20
320.651915
 30
0.0
 11
254.944248
 21
320.651915
 31
0.0
  0
LINE
  5
144
330
1F
100
AcDbEntity
  8
1
100
AcDbLine
 10
243.944248
 20
167.153817
 30
0.0
 11
254.944248
 21
167.153817
 31
0.0
  0
LINE
  5
145
330
1F
100
AcDbEntity
  8
1
100
AcDbLine
 10
243.944248
 20
171.981243
 30
0.0
 11
243.944248
 21
177.656078
 31
0.0
  0
LINE
  5
146
330
1F
100
AcDbEntity
  8
1
100
AcDbLine
 10
248.360737
 20
177.656078
 30
0.0
 11
248.411362
 21
171.981243
 31
0.0
  0
LINE
  5
147
330
1F
100
AcDbEntity
  8
1
100
AcDbLine
 10
248.411362
 20
171.981243
 30
0.0
 11
243.944248
 21
171.981243
 31
0.0
  0
LINE
  5
148
330
1F
100
AcDbEntity
  8
1
100
AcDbLine
 10
254.383674
 20
310.642756
 30
0.0
 11
254.386981
 21
310.961382
 31
0.0
  0
LINE
  5
149
330
1F
100
AcDbEntity
  8
1
100
AcDbLine
 10
243.944248
 20
180.464198
 30
0.0
 11
243.944248
 21
181.336132
 31
0.0
  0
LINE
  5
14A
330
1F
100
AcDbEntity
  8
1
100
AcDbLine
 10
254.944248
 20
307.986125
 30
0.0
 11
254.944248
 21
301.104059
 31
0.0
  0
LINE
  5
14B
330
1F
100
AcDbEntity
  8
1
100
AcDbLine
 10
243.944248
 20
301.104059
 30
0.0
 11
243.944248
 21
307.986125
 31
0.0
  0
LINE
  5
14C
330
1F
100
AcDbEntity
  8
1
100
AcDbLine
 10
251.98864
 20
247.300272
 30
0.0
 11
253.444236
 21
247.300272
 31
0.0
  0
LINE
  5
14D
330
1F
100
AcDbEntity
  8
1
100
AcDbLine
 10
245.444373
 20
223.967455
 30
0.0
 11
253.444123
 21
223.967455
 31
0.0
  0
LINE
  5
14E
330
1F
100
AcDbEntity
  8
1
100
AcDbLine
 10
247.127123
 20
249.348627
 30
0.0
 11
250.398329
 21
249.71698
 31
0.0
  0
LINE
  5
14F
330
1F
100
AcDbEntity
  8
1
100
AcDbLine
 10
248.512824
 20
223.433343
 30
0.0
 11
251.767977
 21
222.973937
 31
0.0
  0
LINE
  5
150
330
1F
100
AcDbEntity
  8
1
100
AcDbLine
 10
255.440845
 20
213.627766
 30
0.0
 11
255.341817
 21
213.5772259999999
 31
0.0
  0
LINE
  5
151
330
1F
100
AcDbEntity
  8
1
100
AcDbLine
 10
255.440086
 20
213.674463
 30
0.0
 11
255.440845
 21
213.627766
 31
0.0
  0
LINE
  5
152
330
1F
100
AcDbEntity
  8
1
100
AcDbLine
 10
248.446901
 20
213.906189
 30
0.0
 11
248.447773
 21
213.852484
 31
0.0
  0
LINE
  5
153
330
1F
100
AcDbEntity
  8
1
100
AcDbLine
 10
248.548547
 20
213.795523
 30
0.0
 11
248.447773
 21
213.852484
 31
0.0
  0
LINE
  5
154
330
1F
100
AcDbEntity
  8
1
100
AcDbLine
 10
255.341817
 20
213.5772259999999
 30
0.0
 11
255.295485
 21
213.170554
 31
0.0
  0
LINE
  5
155
330
1F
100
AcDbEntity
  8
1
100
AcDbLine
 10
248.548547
 20
213.795523
 30
0.0
 11
255.341817
 21
213.5772259999999
 31
0.0
  0
LINE
  5
156
330
1F
100
AcDbEntity
  8
1
100
AcDbLine
 10
248.555626
 20
213.387135
 30
0.0
 11
248.548547
 21
213.795523
 31
0.0
  0
LINE
  5
157
330
1F
100
AcDbEntity
  8
1
100
AcDbLine
 10
248.555626
 20
213.387135
 30
0.0
 11
255.295485
 21
213.170554
 31
0.0
  0
LINE
  5
158
330
1F
100
AcDbEntity
  8
1
100
AcDbLine
 10
243.94425
 20
178.568059
 30
0.0
 11
243.896792
 21
178.409963
 31
0.0
  0
LINE
  5
159
330
1F
100
AcDbEntity
  8
1
100
AcDbLine
 10
243.896792
 20
178.409963
 30
0.0
 11
243.661502
 21
177.476116
 31
0.0
  0
LINE
  5
15A
330
1F
100
AcDbEntity
  8
1
100
AcDbLine
 10
243.896792
 20
178.409963
 30
0.0
 11
243.944251
 21
178.522706
 31
0.0
  0
LINE
  5
15B
330
1F
100
AcDbEntity
  8
1
100
AcDbLine
 10
243.448318
 20
164.768967
 30
0.0
 11
243.447652
 21
164.693772
 31
0.0
  0
LINE
  5
15C
330
1F
100
AcDbEntity
  8
1
100
AcDbLine
 10
250.440724
 20
164.580652
 30
0.0
 11
250.33995
 21
164.48375
 31
0.0
  0
LINE
  5
15D
330
1F
100
AcDbEntity
  8
1
100
AcDbLine
 10
243.54668
 20
164.593637
 30
0.0
 11
243.447652
 21
164.693772
 31
0.0
  0
LINE
  5
15E
330
1F
100
AcDbEntity
  8
1
100
AcDbLine
 10
243.54668
 20
164.593637
 30
0.0
 11
250.33995
 21
164.48375
 31
0.0
  0
LINE
  5
15F
330
1F
100
AcDbEntity
  8
1
100
AcDbLine
 10
243.448064
 20
164.768972
 30
0.0
 11
250.441136
 21
164.655853
 31
0.0
  0
LINE
  5
160
330
1F
100
AcDbEntity
  8
1
100
AcDbLine
 10
243.56075
 20
177.028736
 30
0.0
 11
243.512618
 21
172.26248
 31
0.0
  0
LINE
  5
161
330
1F
100
AcDbEntity
  8
1
100
AcDbLine
 10
243.661502
 20
177.476116
 30
0.0
 11
243.944284
 21
177.471542
 31
0.0
  0
LINE
  5
162
330
1F
100
AcDbEntity
  8
1
100
AcDbLine
 10
243.56418
 20
177.048085
 30
0.0
 11
243.56511
 21
177.0460399999999
 31
0.0
  0
LINE
  5
163
330
1F
100
AcDbEntity
  8
1
100
AcDbLine
 10
243.56418
 20
177.048085
 30
0.0
 11
243.944319
 21
177.041936
 31
0.0
  0
LINE
  5
164
330
1F
100
AcDbEntity
  8
1
100
AcDbLine
 10
250.441136
 20
164.655853
 30
0.0
 11
250.441596
 21
164.679088
 31
0.0
  0
LINE
  5
165
330
1F
100
AcDbEntity
  8
1
100
AcDbLine
 10
250.441596
 20
164.679088
 30
0.0
 11
250.440724
 21
164.580652
 31
0.0
  0
LINE
  5
166
330
1F
100
AcDbEntity
  8
1
100
AcDbLine
 10
250.440724
 20
164.580652
 30
0.0
 11
250.649527
 21
165.276248
 31
0.0
  0
LINE
  5
167
330
1F
100
AcDbEntity
  8
1
100
AcDbLine
 10
250.649527
 20
165.276248
 30
0.0
 11
250.865789
 21
166.13457
 31
0.0
  0
LINE
  5
168
330
1F
100
AcDbEntity
  8
1
100
AcDbLine
 10
243.512618
 20
172.26248
 30
0.0
 11
243.677249
 21
176.551407
 31
0.0
  0
LINE
  5
169
330
1F
100
AcDbEntity
  8
1
100
AcDbLine
 10
243.512618
 20
172.26248
 30
0.0
 11
243.465542
 21
166.950046
 31
0.0
  0
LINE
  5
16A
330
1F
100
AcDbEntity
  8
1
100
AcDbLine
 10
243.465542
 20
166.950046
 30
0.0
 11
250.458613
 21
166.836927
 31
0.0
  0
LINE
  5
16B
330
1F
100
AcDbEntity
  8
1
100
AcDbLine
 10
250.461422
 20
167.1538469999999
 30
0.0
 11
250.458613
 21
166.836927
 31
0.0
  0
LINE
  5
16C
330
1F
100
AcDbEntity
  8
1
100
AcDbLine
 10
243.56511
 20
177.0460399999999
 30
0.0
 11
243.944265
 21
177.039906
 31
0.0
  0
LINE
  5
16D
330
1F
100
AcDbEntity
  8
1
100
AcDbLine
 10
255.323387
 20
271.765404
 30
0.0
 11
255.327746
 21
271.862891
 31
0.0
  0
LINE
  5
16E
330
1F
100
AcDbEntity
  8
1
100
AcDbLine
 10
247.951724
 20
262.161494
 30
0.0
 11
248.019426
 21
262.5469970000001
 31
0.0
  0
LINE
  5
16F
330
1F
100
AcDbEntity
  8
1
100
AcDbLine
 10
247.902927
 20
262.788408
 30
0.0
 11
247.877095
 21
262.155739
 31
0.0
  0
LINE
  5
170
330
1F
100
AcDbEntity
  8
1
100
AcDbLine
 10
248.019426
 20
262.5469970000001
 30
0.0
 11
247.998465
 21
262.686391
 31
0.0
  0
LINE
  5
171
330
1F
100
AcDbEntity
  8
1
100
AcDbLine
 10
248.019426
 20
262.5469970000001
 30
0.0
 11
251.13977
 21
262.408095
 31
0.0
  0
LINE
  5
172
330
1F
100
AcDbEntity
  8
1
100
AcDbLine
 10
254.386381
 20
262.263573
 30
0.0
 11
254.759284
 21
262.246973
 31
0.0
  0
LINE
  5
173
330
1F
100
AcDbEntity
  8
1
100
AcDbLine
 10
254.759284
 20
262.246973
 30
0.0
 11
254.812695
 21
261.674951
 31
0.0
  0
LINE
  5
174
330
1F
100
AcDbEntity
  8
1
100
AcDbLine
 10
254.895999
 20
262.4771120000001
 30
0.0
 11
254.863158
 21
261.672794
 31
0.0
  0
LINE
  5
175
330
1F
100
AcDbEntity
  8
1
100
AcDbLine
 10
254.791735
 20
262.38399
 30
0.0
 11
254.759284
 21
262.246973
 31
0.0
  0
LINE
  5
176
330
1F
100
AcDbEntity
  8
1
100
AcDbLine
 10
254.895999
 20
262.4771120000001
 30
0.0
 11
254.791735
 21
262.38399
 31
0.0
  0
LINE
  5
177
330
1F
100
AcDbEntity
  8
1
100
AcDbLine
 10
254.900359
 20
262.5746
 30
0.0
 11
254.895999
 21
262.4771120000001
 31
0.0
  0
LINE
  5
178
330
1F
100
AcDbEntity
  8
1
100
AcDbLine
 10
247.907287
 20
262.885895
 30
0.0
 11
247.902927
 21
262.788408
 31
0.0
  0
LINE
  5
179
330
1F
100
AcDbEntity
  8
1
100
AcDbLine
 10
247.998465
 20
262.686391
 30
0.0
 11
247.902927
 21
262.788408
 31
0.0
  0
LINE
  5
17A
330
1F
100
AcDbEntity
  8
1
100
AcDbLine
 10
247.998465
 20
262.686391
 30
0.0
 11
254.791735
 21
262.38399
 31
0.0
  0
LINE
  5
17B
330
1F
100
AcDbEntity
  8
1
100
AcDbLine
 10
255.440105
 20
318.148034
 30
0.0
 11
255.440432
 21
318.148034
 31
0.0
  0
LINE
  5
17C
330
1F
100
AcDbEntity
  8
1
100
AcDbLine
 10
255.327746
 20
306.031559
 30
0.0
 11
255.232209
 21
306.0097970000001
 31
0.0
  0
LINE
  5
17D
330
1F
100
AcDbEntity
  8
1
100
AcDbLine
 10
255.218835
 20
306.009784
 30
0.0
 11
255.232209
 21
306.0097970000001
 31
0.0
  0
LINE
  5
17E
330
1F
100
AcDbEntity
  8
1
100
AcDbLine
 10
255.221497
 20
306.04234
 30
0.0
 11
255.324317
 21
306.042435
 31
0.0
  0
LINE
  5
17F
330
1F
100
AcDbEntity
  8
1
100
AcDbLine
 10
254.967248
 20
320.573211
 30
0.0
 11
254.99675
 21
320.573239
 31
0.0
  0
LINE
  5
180
330
1F
100
AcDbEntity
  8
1
100
AcDbLine
 10
255.327746
 20
306.031559
 30
0.0
 11
255.375879
 21
310.702227
 31
0.0
  0
LINE
  5
181
330
1F
100
AcDbEntity
  8
1
100
AcDbLine
 10
255.375879
 20
310.702227
 30
0.0
 11
255.422955
 21
315.968744
 31
0.0
  0
LINE
  5
182
330
1F
100
AcDbEntity
  8
1
100
AcDbLine
 10
255.440432
 20
318.148034
 30
0.0
 11
255.439973
 21
318.127344
 31
0.0
  0
LINE
  5
183
330
1F
100
AcDbEntity
  8
1
100
AcDbLine
 10
255.439973
 20
318.127344
 30
0.0
 11
255.440845
 21
318.2249290000001
 31
0.0
  0
LINE
  5
184
330
1F
100
AcDbEntity
  8
1
100
AcDbLine
 10
255.440845
 20
318.2249290000001
 30
0.0
 11
255.232041
 21
319.404742
 31
0.0
  0
LINE
  5
185
330
1F
100
AcDbEntity
  8
1
100
AcDbLine
 10
255.232041
 20
319.404742
 30
0.0
 11
254.99675
 21
320.573239
 31
0.0
  0
LINE
  5
186
330
1F
100
AcDbEntity
  8
1
100
AcDbLine
 10
255.324317
 20
306.042435
 30
0.0
 11
255.323387
 21
306.05321
 31
0.0
  0
LINE
  5
187
330
1F
100
AcDbEntity
  8
1
100
AcDbLine
 10
255.323387
 20
306.05321
 30
0.0
 11
255.327746
 21
306.031559
 31
0.0
  0
LINE
  5
188
330
1F
100
AcDbEntity
  8
1
100
AcDbLine
 10
248.438939
 20
220.578944
 30
0.0
 11
255.232209
 21
220.360647
 31
0.0
  0
LINE
  5
189
330
1F
100
AcDbEntity
  8
1
100
AcDbLine
 10
255.327746
 20
220.273122
 30
0.0
 11
255.375879
 21
217.804027
 31
0.0
  0
LINE
  5
18A
330
1F
100
AcDbEntity
  8
1
100
AcDbLine
 10
248.317343
 20
316.659739
 30
0.0
 11
243.944248
 21
316.659739
 31
0.0
  0
LINE
  5
18B
330
1F
100
AcDbEntity
  8
1
100
AcDbLine
 10
243.944248
 20
307.986125
 30
0.0
 11
254.944248
 21
307.986125
 31
0.0
  0
LINE
  5
18C
330
1F
100
AcDbEntity
  8
1
100
AcDbLine
 10
243.944248
 20
198.086181
 30
0.0
 11
243.944248
 21
198.695378
 31
0.0
  0
LINE
  5
18D
330
1F
100
AcDbEntity
  8
1
100
AcDbLine
 10
247.214556
 20
198.695415
 30
0.0
 11
247.256443
 21
198.145451
 31
0.0
  0
LINE
  5
18E
330
1F
100
AcDbEntity
  8
1
100
AcDbLine
 10
244.013201
 20
198.695412
 30
0.0
 11
244.059451
 21
198.088161
 31
0.0
  0
LINE
  5
18F
330
1F
100
AcDbEntity
  8
1
100
AcDbLine
 10
243.944248
 20
177.856722
 30
0.0
 11
254.944248
 21
177.856722
 31
0.0
  0
LINE
  5
190
330
1F
100
AcDbEntity
  8
1
100
AcDbLine
 10
254.944248
 20
193.620467
 30
0.0
 11
254.944248
 21
188.858183
 31
0.0
  0
LINE
  5
191
330
1F
100
AcDbEntity
  8
1
100
AcDbLine
 10
250.477134
 20
188.858183
 30
0.0
 11
250.52776
 21
193.620467
 31
0.0
  0
LINE
  5
192
330
1F
100
AcDbEntity
  8
1
100
AcDbLine
 10
254.944248
 20
188.858183
 30
0.0
 11
250.477134
 21
188.858183
 31
0.0
  0
LINE
  5
193
330
1F
100
AcDbEntity
  8
1
100
AcDbLine
 10
254.944248
 20
275.838919
 30
0.0
 11
254.944248
 21
274.702106
 31
0.0
  0
LINE
  5
194
330
1F
100
AcDbEntity
  8
1
100
AcDbLine
 10
254.944248
 20
263.287282
 30
0.0
 11
254.944248
 21
261.96941
 31
0.0
  0
LINE
  5
195
330
1F
100
AcDbEntity
  8
1
100
AcDbLine
 10
254.944248
 20
221.822777
 30
0.0
 11
254.944248
 21
220.369891
 31
0.0
  0
LINE
  5
196
330
1F
100
AcDbEntity
  8
1
100
AcDbLine
 10
244.508974
 20
289.606692
 30
0.0
 11
244.501515
 21
290.09566
 31
0.0
  0
LINE
  5
197
330
1F
100
AcDbEntity
  8
1
100
AcDbLine
 10
254.905893
 20
221.824087
 30
0.0
 11
254.830773
 21
220.37343
 31
0.0
  0
LINE
  5
198
330
1F
100
AcDbEntity
  8
1
100
AcDbLine
 10
251.70904
 20
221.928067
 30
0.0
 11
251.633859
 21
220.476235
 31
0.0
  0
LINE
  5
199
330
1F
100
AcDbEntity
  8
1
100
AcDbLine
 10
247.906357
 20
167.862808
 30
0.0
 11
254.899429
 21
167.856304
 31
0.0
  0
LINE
  5
19A
330
1F
100
AcDbEntity
  8
1
100
AcDbLine
 10
254.944238
 20
182.858508
 30
0.0
 11
255.232209
 21
182.85824
 31
0.0
  0
LINE
  5
19B
330
1F
100
AcDbEntity
  8
1
100
AcDbLine
 10
255.327746
 20
182.836478
 30
0.0
 11
255.375879
 21
178.16581
 31
0.0
  0
LINE
  5
19C
330
1F
100
AcDbEntity
  8
1
100
AcDbLine
 10
255.327746
 20
182.836478
 30
0.0
 11
255.232209
 21
182.85824
 31
0.0
  0
LINE
  5
19D
330
1F
100
AcDbEntity
  8
1
100
AcDbLine
 10
255.232209
 20
182.85824
 30
0.0
 11
255.211248
 21
182.419816
 31
0.0
  0
LINE
  5
19E
330
1F
100
AcDbEntity
  8
1
100
AcDbLine
 10
255.375879
 20
178.16581
 30
0.0
 11
255.422955
 21
172.899293
 31
0.0
  0
LINE
  5
19F
330
1F
100
AcDbEntity
  8
1
100
AcDbLine
 10
255.211248
 20
182.419816
 30
0.0
 11
255.375879
 21
178.16581
 31
0.0
  0
LINE
  5
1A0
330
1F
100
AcDbEntity
  8
1
100
AcDbLine
 10
254.944181
 20
182.420064
 30
0.0
 11
255.211248
 21
182.419816
 31
0.0
  0
LINE
  5
1A1
330
1F
100
AcDbEntity
  8
1
100
AcDbLine
 10
255.232041
 20
169.463295
 30
0.0
 11
254.99675
 21
168.2947979999999
 31
0.0
  0
LINE
  5
1A2
330
1F
100
AcDbEntity
  8
1
100
AcDbLine
 10
248.003679
 20
168.301301
 30
0.0
 11
254.99675
 21
168.2947979999999
 31
0.0
  0
LINE
  5
1A3
330
1F
100
AcDbEntity
  8
1
100
AcDbLine
 10
255.295485
 20
170.407234
 30
0.0
 11
255.232041
 21
169.463295
 31
0.0
  0
LINE
  5
1A4
330
1F
100
AcDbEntity
  8
1
100
AcDbLine
 10
255.440845
 20
170.643108
 30
0.0
 11
255.232041
 21
169.463295
 31
0.0
  0
LINE
  5
1A5
330
1F
100
AcDbEntity
  8
1
100
AcDbLine
 10
248.447361
 20
170.726506
 30
0.0
 11
255.440432
 21
170.720003
 31
0.0
  0
LINE
  5
1A6
330
1F
100
AcDbEntity
  8
1
100
AcDbLine
 10
248.429883
 20
172.905796
 30
0.0
 11
255.422955
 21
172.899293
 31
0.0
  0
LINE
  5
1A7
330
1F
100
AcDbEntity
  8
1
100
AcDbLine
 10
248.385629
 20
177.856652
 30
0.0
 11
248.429883
 21
172.905796
 31
0.0
  0
LINE
  5
1A8
330
1F
100
AcDbEntity
  8
1
100
AcDbLine
 10
247.902927
 20
167.851931
 30
0.0
 11
247.898422
 21
168.28915
 31
0.0
  0
LINE
  5
1A9
330
1F
100
AcDbEntity
  8
1
100
AcDbLine
 10
247.907287
 20
167.873583
 30
0.0
 11
247.902927
 21
167.851931
 31
0.0
  0
LINE
  5
1AA
330
1F
100
AcDbEntity
  8
1
100
AcDbLine
 10
247.906357
 20
167.862808
 30
0.0
 11
247.907287
 21
167.873583
 31
0.0
  0
LINE
  5
1AB
330
1F
100
AcDbEntity
  8
1
100
AcDbLine
 10
248.23897
 20
169.469798
 30
0.0
 11
248.003679
 21
168.301301
 31
0.0
  0
LINE
  5
1AC
330
1F
100
AcDbEntity
  8
1
100
AcDbLine
 10
248.447361
 20
170.726506
 30
0.0
 11
248.446901
 21
170.747196
 31
0.0
  0
LINE
  5
1AD
330
1F
100
AcDbEntity
  8
1
100
AcDbLine
 10
255.440845
 20
170.643108
 30
0.0
 11
255.341817
 21
170.545534
 31
0.0
  0
LINE
  5
1AE
330
1F
100
AcDbEntity
  8
1
100
AcDbLine
 10
255.440157
 20
170.720002
 30
0.0
 11
255.440845
 21
170.643108
 31
0.0
  0
LINE
  5
1AF
330
1F
100
AcDbEntity
  8
1
100
AcDbLine
 10
248.446901
 20
170.747196
 30
0.0
 11
248.447773
 21
170.649611
 31
0.0
  0
LINE
  5
1B0
330
1F
100
AcDbEntity
  8
1
100
AcDbLine
 10
255.341817
 20
170.545534
 30
0.0
 11
255.295485
 21
170.407234
 31
0.0
  0
LINE
  5
1B1
330
1F
100
AcDbEntity
  8
1
100
AcDbLine
 10
248.548547
 20
170.551851
 30
0.0
 11
255.341817
 21
170.545534
 31
0.0
  0
LINE
  5
1B2
330
1F
100
AcDbEntity
  8
1
100
AcDbLine
 10
248.555626
 20
170.413502
 30
0.0
 11
255.295485
 21
170.407234
 31
0.0
  0
LINE
  5
1B3
330
1F
100
AcDbEntity
  8
1
100
AcDbLine
 10
248.23897
 20
169.469798
 30
0.0
 11
248.555626
 21
170.413502
 31
0.0
  0
LINE
  5
1B4
330
1F
100
AcDbEntity
  8
1
100
AcDbLine
 10
248.555626
 20
170.413502
 30
0.0
 11
248.548547
 21
170.551851
 31
0.0
  0
LINE
  5
1B5
330
1F
100
AcDbEntity
  8
1
100
AcDbLine
 10
255.32388
 20
307.338585
 30
0.0
 11
255.324317
 21
307.338571
 31
0.0
  0
LINE
  5
1B6
330
1F
100
AcDbEntity
  8
1
100
AcDbLine
 10
248.548547
 20
318.280685
 30
0.0
 11
255.341817
 21
318.071322
 31
0.0
  0
LINE
  5
1B7
330
1F
100
AcDbEntity
  8
1
100
AcDbLine
 10
248.447773
 20
318.199393
 30
0.0
 11
248.23897
 21
315.734286
 31
0.0
  0
LINE
  5
1B8
330
1F
100
AcDbEntity
  8
1
100
AcDbLine
 10
248.555626
 20
318.067953
 30
0.0
 11
248.548547
 21
318.280685
 31
0.0
  0
LINE
  5
1B9
330
1F
100
AcDbEntity
  8
1
100
AcDbLine
 10
248.548547
 20
318.280685
 30
0.0
 11
248.447773
 21
318.199393
 31
0.0
  0
LINE
  5
1BA
330
1F
100
AcDbEntity
  8
1
100
AcDbLine
 10
255.440845
 20
317.983872
 30
0.0
 11
255.341817
 21
318.071322
 31
0.0
  0
LINE
  5
1BB
330
1F
100
AcDbEntity
  8
1
100
AcDbLine
 10
255.341817
 20
318.071322
 30
0.0
 11
255.295485
 21
317.860236
 31
0.0
  0
LINE
  5
1BC
330
1F
100
AcDbEntity
  8
1
100
AcDbLine
 10
248.23897
 20
315.734286
 30
0.0
 11
248.003679
 21
312.840265
 31
0.0
  0
LINE
  5
1BD
330
1F
100
AcDbEntity
  8
1
100
AcDbLine
 10
255.295485
 20
317.860236
 30
0.0
 11
255.232041
 21
315.518766
 31
0.0
  0
LINE
  5
1BE
330
1F
100
AcDbEntity
  8
1
100
AcDbLine
 10
248.555626
 20
318.067953
 30
0.0
 11
255.295485
 21
317.860236
 31
0.0
  0
LINE
  5
1BF
330
1F
100
AcDbEntity
  8
1
100
AcDbLine
 10
248.23897
 20
315.734286
 30
0.0
 11
248.555626
 21
318.067953
 31
0.0
  0
LINE
  5
1C0
330
1F
100
AcDbEntity
  8
1
100
AcDbLine
 10
247.902927
 20
311.564245
 30
0.0
 11
247.895146
 21
310.895598
 31
0.0
  0
LINE
  5
1C1
330
1F
100
AcDbEntity
  8
1
100
AcDbLine
 10
248.010526
 20
310.900459
 30
0.0
 11
248.019426
 21
311.098917
 31
0.0
  0
LINE
  5
1C2
330
1F
100
AcDbEntity
  8
1
100
AcDbLine
 10
247.906357
 20
311.610873
 30
0.0
 11
254.899429
 21
311.395352
 31
0.0
  0
LINE
  5
1C3
330
1F
100
AcDbEntity
  8
1
100
AcDbLine
 10
248.003679
 20
312.840265
 30
0.0
 11
254.99675
 21
312.624744
 31
0.0
  0
LINE
  5
1C4
330
1F
100
AcDbEntity
  8
1
100
AcDbLine
 10
255.327746
 20
307.385199
 30
0.0
 11
255.375879
 21
311.521425
 31
0.0
  0
LINE
  5
1C5
330
1F
100
AcDbEntity
  8
1
100
AcDbLine
 10
255.375879
 20
311.521425
 30
0.0
 11
255.422955
 21
316.071005
 31
0.0
  0
LINE
  5
1C6
330
1F
100
AcDbEntity
  8
1
100
AcDbLine
 10
255.43997
 20
317.899345
 30
0.0
 11
255.440845
 21
317.983872
 31
0.0
  0
LINE
  5
1C7
330
1F
100
AcDbEntity
  8
1
100
AcDbLine
 10
255.440845
 20
317.983872
 30
0.0
 11
255.232041
 21
315.518766
 31
0.0
  0
LINE
  5
1C8
330
1F
100
AcDbEntity
  8
1
100
AcDbLine
 10
255.232041
 20
315.518766
 30
0.0
 11
254.99675
 21
312.624744
 31
0.0
  0
LINE
  5
1C9
330
1F
100
AcDbEntity
  8
1
100
AcDbLine
 10
254.944248
 20
221.822854
 30
0.0
 11
254.944248
 21
222.477066
 31
0.0
  0
LINE
  5
1CA
330
1F
100
AcDbEntity
  8
1
100
AcDbLine
 10
254.944248
 20
221.822854
 30
0.0
 11
254.905893
 21
221.824087
 31
0.0
  0
LINE
  5
1CB
330
1F
100
AcDbEntity
  8
1
100
AcDbLine
 10
254.944248
 20
223.129078
 30
0.0
 11
254.944248
 21
222.477066
 31
0.0
  0
LINE
  5
1CC
330
1F
100
AcDbEntity
  8
1
100
AcDbLine
 10
254.944248
 20
204.060404
 30
0.0
 11
254.944248
 21
202.61274
 31
0.0
  0
LINE
  5
1CD
330
1F
100
AcDbEntity
  8
1
100
AcDbLine
 10
254.944248
 20
285.645104
 30
0.0
 11
254.944248
 21
279.994491
 31
0.0
  0
LINE
  5
1CE
330
1F
100
AcDbEntity
  8
1
100
AcDbLine
 10
243.944248
 20
279.994491
 30
0.0
 11
243.944248
 21
285.645104
 31
0.0
  0
LINE
  5
1CF
330
1F
100
AcDbEntity
  8
1
100
AcDbLine
 10
243.944248
 20
285.645104
 30
0.0
 11
254.944248
 21
285.645104
 31
0.0
  0
LINE
  5
1D0
330
1F
100
AcDbEntity
  8
1
100
AcDbLine
 10
254.944248
 20
299.59031
 30
0.0
 11
250.510638
 21
299.59031
 31
0.0
  0
LINE
  5
1D1
330
1F
100
AcDbEntity
  8
1
100
AcDbLine
 10
243.944248
 20
246.316999
 30
0.0
 11
243.944248
 21
247.99156
 31
0.0
  0
LINE
  5
1D2
330
1F
100
AcDbEntity
  8
1
100
AcDbLine
 10
254.944248
 20
261.96941
 30
0.0
 11
254.944248
 21
261.669325
 31
0.0
  0
LINE
  5
1D3
330
1F
100
AcDbEntity
  8
1
100
AcDbLine
 10
254.885392
 20
261.97203
 30
0.0
 11
254.944248
 21
261.96941
 31
0.0
  0
LINE
  5
1D4
330
1F
100
AcDbEntity
  8
1
100
AcDbLine
 10
243.982603
 20
247.993186
 30
0.0
 11
244.056719
 21
246.321663
 31
0.0
  0
LINE
  5
1D5
330
1F
100
AcDbEntity
  8
1
100
AcDbLine
 10
247.179456
 20
248.126203
 30
0.0
 11
247.253586
 21
246.454364
 31
0.0
  0
LINE
  5
1D6
330
1F
100
AcDbEntity
  8
1
100
AcDbLine
 10
243.944248
 20
248.81217
 30
0.0
 11
243.944248
 21
247.991595
 31
0.0
  0
LINE
  5
1D7
330
1F
100
AcDbEntity
  8
1
100
AcDbLine
 10
243.944248
 20
247.991595
 30
0.0
 11
243.982603
 21
247.993186
 31
0.0
  0
LINE
  5
1D8
330
1F
100
AcDbEntity
  8
1
100
AcDbLine
 10
243.944248
 20
248.81217
 30
0.0
 11
243.944248
 21
249.900078
 31
0.0
  0
LINE
  5
1D9
330
1F
100
AcDbEntity
  8
1
100
AcDbLine
 10
254.899429
 20
311.395352
 30
0.0
 11
254.900359
 21
311.402348
 31
0.0
  0
LINE
  5
1DA
330
1F
100
AcDbEntity
  8
1
100
AcDbLine
 10
254.944247
 20
302.6548850000001
 30
0.0
 11
254.991704
 21
303.215158
 31
0.0
  0
LINE
  5
1DB
330
1F
100
AcDbEntity
  8
1
100
AcDbLine
 10
254.991704
 20
303.215158
 30
0.0
 11
255.226995
 21
306.109179
 31
0.0
  0
LINE
  5
1DC
330
1F
100
AcDbEntity
  8
1
100
AcDbLine
 10
255.324317
 20
307.338571
 30
0.0
 11
255.323387
 21
307.331575
 31
0.0
  0
LINE
  5
1DD
330
1F
100
AcDbEntity
  8
1
100
AcDbLine
 10
255.323387
 20
307.331575
 30
0.0
 11
255.327746
 21
307.385199
 31
0.0
  0
LINE
  5
1DE
330
1F
100
AcDbEntity
  8
1
100
AcDbLine
 10
254.900359
 20
311.402348
 30
0.0
 11
254.895999
 21
311.348724
 31
0.0
  0
LINE
  5
1DF
330
1F
100
AcDbEntity
  8
1
100
AcDbLine
 10
247.906717
 20
311.610861
 30
0.0
 11
247.902927
 21
311.564245
 31
0.0
  0
LINE
  5
1E0
330
1F
100
AcDbEntity
  8
1
100
AcDbLine
 10
247.998465
 20
311.507497
 30
0.0
 11
247.902927
 21
311.564245
 31
0.0
  0
LINE
  5
1E1
330
1F
100
AcDbEntity
  8
1
100
AcDbLine
 10
247.998465
 20
311.507497
 30
0.0
 11
254.791735
 21
311.298134
 31
0.0
  0
LINE
  5
1E2
330
1F
100
AcDbEntity
  8
1
100
AcDbLine
 10
248.019426
 20
311.098917
 30
0.0
 11
247.998465
 21
311.507497
 31
0.0
  0
LINE
  5
1E3
330
1F
100
AcDbEntity
  8
1
100
AcDbLine
 10
248.019426
 20
311.098917
 30
0.0
 11
250.742961
 21
311.01498
 31
0.0
  0
LINE
  5
1E4
330
1F
100
AcDbEntity
  8
1
100
AcDbLine
 10
254.386275
 20
310.902696
 30
0.0
 11
254.759284
 21
310.8912
 31
0.0
  0
LINE
  5
1E5
330
1F
100
AcDbEntity
  8
1
100
AcDbLine
 10
254.759284
 20
310.8912
 30
0.0
 11
254.765481
 21
310.633863
 31
0.0
  0
LINE
  5
1E6
330
1F
100
AcDbEntity
  8
1
100
AcDbLine
 10
254.895999
 20
311.348724
 30
0.0
 11
254.887647
 21
310.631024
 31
0.0
  0
LINE
  5
1E7
330
1F
100
AcDbEntity
  8
1
100
AcDbLine
 10
254.895999
 20
311.348724
 30
0.0
 11
254.791735
 21
311.298134
 31
0.0
  0
LINE
  5
1E8
330
1F
100
AcDbEntity
  8
1
100
AcDbLine
 10
254.791735
 20
311.298134
 30
0.0
 11
254.759284
 21
310.8912
 31
0.0
  0
LINE
  5
1E9
330
1F
100
AcDbEntity
  8
1
100
AcDbLine
 10
243.448064
 20
300.974713
 30
0.0
 11
243.448392
 21
300.9747069999999
 31
0.0
  0
LINE
  5
1EA
330
1F
100
AcDbEntity
  8
1
100
AcDbLine
 10
243.656288
 20
290.787004
 30
0.0
 11
243.56075
 21
290.8461500000001
 31
0.0
  0
LINE
  5
1EB
330
1F
100
AcDbEntity
  8
1
100
AcDbLine
 10
243.656288
 20
290.787004
 30
0.0
 11
243.696198
 21
290.78629
 31
0.0
  0
LINE
  5
1EC
330
1F
100
AcDbEntity
  8
1
100
AcDbLine
 10
243.56418
 20
290.885596
 30
0.0
 11
243.691038
 21
290.883326
 31
0.0
  0
LINE
  5
1ED
330
1F
100
AcDbEntity
  8
1
100
AcDbLine
 10
243.512618
 20
294.710162
 30
0.0
 11
243.465542
 21
299.128985
 31
0.0
  0
LINE
  5
1EE
330
1F
100
AcDbEntity
  8
1
100
AcDbLine
 10
243.56075
 20
290.8461500000001
 30
0.0
 11
243.512618
 21
294.710162
 31
0.0
  0
LINE
  5
1EF
330
1F
100
AcDbEntity
  8
1
100
AcDbLine
 10
243.56511
 20
290.90346
 30
0.0
 11
243.56075
 21
290.8461500000001
 31
0.0
  0
LINE
  5
1F0
330
1F
100
AcDbEntity
  8
1
100
AcDbLine
 10
243.56418
 20
290.885596
 30
0.0
 11
243.56511
 21
290.90346
 31
0.0
  0
LINE
  5
1F1
330
1F
100
AcDbEntity
  8
1
100
AcDbLine
 10
243.656455
 20
303.917201
 30
0.0
 11
243.891746
 21
307.010149
 31
0.0
  0
LINE
  5
1F2
330
1F
100
AcDbEntity
  8
1
100
AcDbLine
 10
243.447652
 20
301.041595
 30
0.0
 11
243.656455
 21
303.917201
 31
0.0
  0
LINE
  5
1F3
330
1F
100
AcDbEntity
  8
1
100
AcDbLine
 10
243.448524
 20
300.959718
 30
0.0
 11
243.447652
 21
301.041595
 31
0.0
  0
LINE
  5
1F4
330
1F
100
AcDbEntity
  8
1
100
AcDbLine
 10
243.448064
 20
300.974713
 30
0.0
 11
243.448524
 21
300.959718
 31
0.0
  0
LINE
  5
1F5
330
1F
100
AcDbEntity
  8
1
100
AcDbLine
 10
254.944247
 20
186.213152
 30
0.0
 11
254.991704
 21
185.652879
 31
0.0
  0
LINE
  5
1F6
330
1F
100
AcDbEntity
  8
1
100
AcDbLine
 10
254.991704
 20
185.652879
 30
0.0
 11
255.218911
 21
182.858294
 31
0.0
  0
LINE
  5
1F7
330
1F
100
AcDbEntity
  8
1
100
AcDbLine
 10
254.944245
 20
186.002638
 30
0.0
 11
254.991704
 21
185.652879
 31
0.0
  0
LINE
  5
1F8
330
1F
100
AcDbEntity
  8
1
100
AcDbLine
 10
255.422299
 20
274.209319
 30
0.0
 11
255.422955
 21
274.20929
 31
0.0
  0
LINE
  5
1F9
330
1F
100
AcDbEntity
  8
1
100
AcDbLine
 10
248.548547
 20
274.986809
 30
0.0
 11
255.341817
 21
274.684408
 31
0.0
  0
LINE
  5
1FA
330
1F
100
AcDbEntity
  8
1
100
AcDbLine
 10
248.447773
 20
274.969604
 30
0.0
 11
248.23897
 21
270.303604
 31
0.0
  0
LINE
  5
1FB
330
1F
100
AcDbEntity
  8
1
100
AcDbLine
 10
248.555626
 20
274.547611
 30
0.0
 11
248.548547
 21
274.986809
 31
0.0
  0
LINE
  5
1FC
330
1F
100
AcDbEntity
  8
1
100
AcDbLine
 10
248.548547
 20
274.986809
 30
0.0
 11
248.447773
 21
274.969604
 31
0.0
  0
LINE
  5
1FD
330
1F
100
AcDbEntity
  8
1
100
AcDbLine
 10
255.440845
 20
274.658309
 30
0.0
 11
255.341817
 21
274.684408
 31
0.0
  0
LINE
  5
1FE
330
1F
100
AcDbEntity
  8
1
100
AcDbLine
 10
255.341817
 20
274.684408
 30
0.0
 11
255.295485
 21
274.247587
 31
0.0
  0
LINE
  5
1FF
330
1F
100
AcDbEntity
  8
1
100
AcDbLine
 10
248.23897
 20
270.303604
 30
0.0
 11
248.003679
 21
265.042343
 31
0.0
  0
LINE
  5
200
330
1F
100
AcDbEntity
  8
1
100
AcDbLine
 10
255.295485
 20
274.247587
 30
0.0
 11
255.232041
 21
269.992309
 31
0.0
  0
LINE
  5
201
330
1F
100
AcDbEntity
  8
1
100
AcDbLine
 10
248.555626
 20
274.547611
 30
0.0
 11
255.295485
 21
274.247587
 31
0.0
  0
LINE
  5
202
330
1F
100
AcDbEntity
  8
1
100
AcDbLine
 10
248.23897
 20
270.303604
 30
0.0
 11
248.555626
 21
274.547611
 31
0.0
  0
LINE
  5
203
330
1F
100
AcDbEntity
  8
1
100
AcDbLine
 10
247.906357
 20
262.8652259999999
 30
0.0
 11
254.899429
 21
262.55393
 31
0.0
  0
LINE
  5
204
330
1F
100
AcDbEntity
  8
1
100
AcDbLine
 10
248.003679
 20
265.042343
 30
0.0
 11
254.99675
 21
264.731047
 31
0.0
  0
LINE
  5
205
330
1F
100
AcDbEntity
  8
1
100
AcDbLine
 10
255.327746
 20
271.862891
 30
0.0
 11
255.375879
 21
273.041731
 31
0.0
  0
LINE
  5
206
330
1F
100
AcDbEntity
  8
1
100
AcDbLine
 10
255.375879
 20
273.041731
 30
0.0
 11
255.422955
 21
274.20929
 31
0.0
  0
LINE
  5
207
330
1F
100
AcDbEntity
  8
1
100
AcDbLine
 10
255.440432
 20
274.64744
 30
0.0
 11
255.439973
 21
274.636675
 31
0.0
  0
LINE
  5
208
330
1F
100
AcDbEntity
  8
1
100
AcDbLine
 10
255.439973
 20
274.636675
 30
0.0
 11
255.440845
 21
274.658309
 31
0.0
  0
LINE
  5
209
330
1F
100
AcDbEntity
  8
1
100
AcDbLine
 10
255.440845
 20
274.658309
 30
0.0
 11
255.232041
 21
269.992309
 31
0.0
  0
LINE
  5
20A
330
1F
100
AcDbEntity
  8
1
100
AcDbLine
 10
255.232041
 20
269.992309
 30
0.0
 11
254.99675
 21
264.731047
 31
0.0
  0
LINE
  5
20B
330
1F
100
AcDbEntity
  8
1
100
AcDbLine
 10
254.899429
 20
262.55393
 30
0.0
 11
254.900359
 21
262.5746
 31
0.0
  0
LINE
  5
20C
330
1F
100
AcDbEntity
  8
1
100
AcDbLine
 10
254.871988
 20
261.672473
 30
0.0
 11
254.991704
 21
264.3476950000001
 31
0.0
  0
LINE
  5
20D
330
1F
100
AcDbEntity
  8
1
100
AcDbLine
 10
254.991704
 20
264.3476950000001
 30
0.0
 11
255.226995
 21
269.608957
 31
0.0
  0
LINE
  5
20E
330
1F
100
AcDbEntity
  8
1
100
AcDbLine
 10
255.324317
 20
271.786073
 30
0.0
 11
255.323387
 21
271.765404
 31
0.0
  0
LINE
  5
20F
330
1F
100
AcDbEntity
  8
1
100
AcDbLine
 10
248.548547
 20
170.551851
 30
0.0
 11
248.447773
 21
170.649611
 31
0.0
  0
LINE
  5
210
330
1F
100
AcDbEntity
  8
1
100
AcDbLine
 10
248.447773
 20
170.649611
 30
0.0
 11
248.23897
 21
169.469798
 31
0.0
  0
LINE
  5
211
330
1F
100
AcDbEntity
  8
1
100
AcDbLine
 10
243.656288
 20
246.305214
 30
0.0
 11
250.449557
 21
246.587014
 31
0.0
  0
LINE
  5
212
330
1F
100
AcDbEntity
  8
1
100
AcDbLine
 10
243.56075
 20
246.202634
 30
0.0
 11
243.512618
 21
245.504353
 31
0.0
  0
LINE
  5
213
330
1F
100
AcDbEntity
  8
1
100
AcDbLine
 10
243.677249
 20
246.26622
 30
0.0
 11
243.656288
 21
246.305214
 31
0.0
  0
LINE
  5
214
330
1F
100
AcDbEntity
  8
1
100
AcDbLine
 10
243.656288
 20
246.305214
 30
0.0
 11
243.56075
 21
246.202634
 31
0.0
  0
LINE
  5
215
330
1F
100
AcDbEntity
  8
1
100
AcDbLine
 10
250.511253
 20
246.53122
 30
0.0
 11
250.449557
 21
246.587014
 31
0.0
  0
LINE
  5
216
330
1F
100
AcDbEntity
  8
1
100
AcDbLine
 10
250.449557
 20
246.587014
 30
0.0
 11
250.417107
 21
246.545804
 31
0.0
  0
LINE
  5
217
330
1F
100
AcDbEntity
  8
1
100
AcDbLine
 10
243.512618
 20
245.504353
 30
0.0
 11
243.465542
 21
244.567628
 31
0.0
  0
LINE
  5
218
330
1F
100
AcDbEntity
  8
1
100
AcDbLine
 10
250.417107
 20
246.545804
 30
0.0
 11
250.50569
 21
245.794441
 31
0.0
  0
LINE
  5
219
330
1F
100
AcDbEntity
  8
1
100
AcDbLine
 10
243.677249
 20
246.26622
 30
0.0
 11
250.417107
 21
246.545804
 31
0.0
  0
LINE
  5
21A
330
1F
100
AcDbEntity
  8
1
100
AcDbLine
 10
243.512618
 20
245.504353
 30
0.0
 11
243.677249
 21
246.26622
 31
0.0
  0
LINE
  5
21B
330
1F
100
AcDbEntity
  8
1
100
AcDbLine
 10
243.989167
 20
231.869615
 30
0.0
 11
243.992498
 21
231.794479
 31
0.0
  0
LINE
  5
21C
330
1F
100
AcDbEntity
  8
1
100
AcDbLine
 10
250.985569
 20
232.084567
 30
0.0
 11
250.890032
 21
231.981988
 31
0.0
  0
LINE
  5
21D
330
1F
100
AcDbEntity
  8
1
100
AcDbLine
 10
244.096762
 20
231.700188
 30
0.0
 11
243.992498
 21
231.794479
 31
0.0
  0
LINE
  5
21E
330
1F
100
AcDbEntity
  8
1
100
AcDbLine
 10
244.096762
 20
231.700188
 30
0.0
 11
250.890032
 21
231.981988
 31
0.0
  0
LINE
  5
21F
330
1F
100
AcDbEntity
  8
1
100
AcDbLine
 10
243.989068
 20
231.869612
 30
0.0
 11
250.98214
 21
232.1597
 31
0.0
  0
LINE
  5
220
330
1F
100
AcDbEntity
  8
1
100
AcDbLine
 10
243.448064
 20
244.138448
 30
0.0
 11
243.448524
 21
244.13642
 31
0.0
  0
LINE
  5
221
330
1F
100
AcDbEntity
  8
1
100
AcDbLine
 10
243.448064
 20
244.138448
 30
0.0
 11
250.441136
 21
244.428536
 31
0.0
  0
LINE
  5
222
330
1F
100
AcDbEntity
  8
1
100
AcDbLine
 10
243.465542
 20
244.567628
 30
0.0
 11
250.458613
 21
244.857716
 31
0.0
  0
LINE
  5
223
330
1F
100
AcDbEntity
  8
1
100
AcDbLine
 10
243.447652
 20
244.119063
 30
0.0
 11
243.656455
 21
239.356746
 31
0.0
  0
LINE
  5
224
330
1F
100
AcDbEntity
  8
1
100
AcDbLine
 10
250.522919
 20
246.044404
 30
0.0
 11
250.50569
 21
245.794441
 31
0.0
  0
LINE
  5
225
330
1F
100
AcDbEntity
  8
1
100
AcDbLine
 10
250.50569
 20
245.794441
 30
0.0
 11
250.458613
 21
244.857716
 31
0.0
  0
LINE
  5
226
330
1F
100
AcDbEntity
  8
1
100
AcDbLine
 10
250.441136
 20
244.428536
 30
0.0
 11
250.441596
 21
244.426508
 31
0.0
  0
LINE
  5
227
330
1F
100
AcDbEntity
  8
1
100
AcDbLine
 10
250.98214
 20
232.1597
 30
0.0
 11
250.98121
 21
232.182919
 31
0.0
  0
LINE
  5
228
330
1F
100
AcDbEntity
  8
1
100
AcDbLine
 10
250.98121
 20
232.182919
 30
0.0
 11
250.985569
 21
232.084567
 31
0.0
  0
LINE
  5
229
330
1F
100
AcDbEntity
  8
1
100
AcDbLine
 10
250.985569
 20
232.084567
 30
0.0
 11
250.990075
 21
232.149933
 31
0.0
  0
LINE
  5
22A
330
1F
100
AcDbEntity
  8
1
100
AcDbLine
 10
243.656455
 20
239.356746
 30
0.0
 11
243.593012
 21
243.64934
 31
0.0
  0
LINE
  5
22B
330
1F
100
AcDbEntity
  8
1
100
AcDbLine
 10
254.944248
 20
322.733456
 30
0.0
 11
254.944248
 21
320.651915
 31
0.0
  0
LINE
  5
22C
330
1F
100
AcDbEntity
  8
1
100
AcDbLine
 10
243.944264
 20
277.856677
 30
0.0
 11
243.444248
 21
277.567993
 31
0.0
  0
LINE
  5
22D
330
1F
100
AcDbEntity
  8
1
100
AcDbLine
 10
255.444248
 20
277.567993
 30
0.0
 11
254.944233
 21
277.856677
 31
0.0
  0
LINE
  5
22E
330
1F
100
AcDbEntity
  8
1
100
AcDbLine
 10
255.319608
 20
211.228083
 30
0.0
 11
255.444248
 21
211.300044
 31
0.0
  0
LINE
  5
22F
330
1F
100
AcDbEntity
  8
1
100
AcDbLine
 10
254.944248
 20
168.054481
 30
0.0
 11
254.944248
 21
167.153817
 31
0.0
  0
LINE
  5
230
330
1F
100
AcDbEntity
  8
1
100
AcDbLine
 10
243.944248
 20
321.595181
 30
0.0
 11
243.944248
 21
320.651915
 31
0.0
  0
LINE
  5
231
330
1F
100
AcDbEntity
  8
1
100
AcDbLine
 10
243.944248
 20
171.981243
 30
0.0
 11
243.944248
 21
167.153817
 31
0.0
  0
LINE
  5
232
330
1F
100
AcDbEntity
  8
1
100
AcDbLine
 10
254.944248
 20
322.733456
 30
0.0
 11
250.865843
 21
322.733456
 31
0.0
  0
LINE
  5
233
330
1F
100
AcDbEntity
  8
1
100
AcDbLine
 10
243.944248
 20
316.659739
 30
0.0
 11
243.944248
 21
307.986125
 31
0.0
  0
LINE
  5
234
330
1F
100
AcDbEntity
  8
1
100
AcDbLine
 10
254.944248
 20
310.629718
 30
0.0
 11
254.944248
 21
307.986125
 31
0.0
  0
LINE
  5
235
330
1F
100
AcDbEntity
  8
1
100
AcDbLine
 10
243.944248
 20
180.464198
 30
0.0
 11
243.944248
 21
177.856722
 31
0.0
  0
LINE
  5
236
330
1F
100
AcDbEntity
  8
1
100
AcDbLine
 10
243.944248
 20
289.5865609999999
 30
0.0
 11
243.944248
 21
285.645104
 31
0.0
  0
LINE
  5
237
330
1F
100
AcDbEntity
  8
1
100
AcDbLine
 10
243.944248
 20
214.196041
 30
0.0
 11
243.944248
 21
198.695417
 31
0.0
  0
LINE
  5
238
330
1F
100
AcDbEntity
  8
1
100
AcDbLine
 10
243.944248
 20
231.128193
 30
0.0
 11
243.944248
 21
226.497399
 31
0.0
  0
LINE
  5
239
330
1F
100
AcDbEntity
  8
1
100
AcDbLine
 10
254.944248
 20
188.858183
 30
0.0
 11
254.944248
 21
177.856722
 31
0.0
  0
LINE
  5
23A
330
1F
100
AcDbEntity
  8
1
100
AcDbLine
 10
254.944248
 20
299.59031
 30
0.0
 11
254.944248
 21
285.645104
 31
0.0
  0
LINE
  5
23B
330
1F
100
AcDbEntity
  8
1
100
AcDbLine
 10
254.944248
 20
202.61274
 30
0.0
 11
254.944248
 21
198.695417
 31
0.0
  0
LINE
  5
23C
330
1F
100
AcDbEntity
  8
1
100
AcDbLine
 10
254.944248
 20
261.669337
 30
0.0
 11
254.944248
 21
257.030069
 31
0.0
  0
LINE
  5
23D
330
1F
100
AcDbEntity
  8
1
100
AcDbLine
 10
254.944248
 20
244.137356
 30
0.0
 11
254.944248
 21
226.497399
 31
0.0
  0
LINE
  5
23E
330
1F
100
AcDbEntity
  8
1
100
AcDbLine
 10
243.944248
 20
274.123836
 30
0.0
 11
243.944248
 21
257.030069
 31
0.0
  0
LINE
  5
23F
330
1F
100
AcDbEntity
  8
SK3
100
AcDbLine
 10
255.444248
 20
224.434018
 30
0.0
 11
243.444248
 21
224.434018
 31
0.0
  0
LINE
  5
240
330
1F
100
AcDbEntity
  8
1
100
AcDbLine
 10
243.444248
 20
211.300044
 30
0.0
 11
243.944264
 21
211.01136
 31
0.0
  0
LINE
  5
241
330
1F
100
AcDbEntity
  8
SK3
100
AcDbLine
 10
243.444248
 20
264.434018
 30
0.0
 11
255.444248
 21
264.434018
 31
0.0
  0
LINE
  5
242
330
1F
100
AcDbEntity
  8
81
100
AcDbLine
 10
255.444248
 20
322.434018
 30
0.0
 11
255.444248
 21
326.434018
 31
0.0
  0
LINE
  5
243
330
1F
100
AcDbEntity
  8
81
100
AcDbLine
 10
253.444248
 20
324.434018
 30
0.0
 11
257.444248
 21
324.434018
 31
0.0
  0
LINE
  5
244
330
1F
100
AcDbEntity
  8
NOCUT
100
AcDbLine
 10
243.444248
 20
277.567993
 30
0.0
 11
244.944248
 21
278.434018
 31
0.0
  0
LINE
  5
246
330
1F
100
AcDbEntity
  8
NOCUT
100
AcDbLine
 10
244.944248
 20
278.434018
 30
0.0
 11
244.944248
 21
306.434018
 31
0.0
  0
LINE
  5
247
330
1F
100
AcDbEntity
  8
NOCUT
100
AcDbLine
 10
243.944248
 20
306.434018
 30
0.0
 11
243.944248
 21
322.734018
 31
0.0
  0
LINE
  5
248
330
1F
100
AcDbEntity
  8
NOCUT
100
AcDbLine
 10
253.944248
 20
278.434018
 30
0.0
 11
255.444248
 21
277.567993
 31
0.0
  0
LINE
  5
249
330
1F
100
AcDbEntity
  8
NOCUT
100
AcDbLine
 10
255.444248
 20
277.567993
 30
0.0
 11
255.444248
 21
267.934018
 31
0.0
  0
LINE
  5
24A
330
1F
100
AcDbEntity
  8
NOCUT
100
AcDbLine
 10
243.444248
 20
267.934018
 30
0.0
 11
243.444248
 21
277.567993
 31
0.0
  0
LINE
  5
24B
330
1F
100
AcDbEntity
  8
NOCUT
100
AcDbLine
 10
244.944248
 20
306.434018
 30
0.0
 11
243.944248
 21
306.434018
 31
0.0
  0
LINE
  5
24C
330
1F
100
AcDbEntity
  8
NOCUT
100
AcDbLine
 10
254.944248
 20
322.734018
 30
0.0
 11
254.944248
 21
306.434018
 31
0.0
  0
LINE
  5
24D
330
1F
100
AcDbEntity
  8
NOCUT
100
AcDbLine
 10
254.944248
 20
306.434018
 30
0.0
 11
253.944248
 21
306.434018
 31
0.0
  0
LINE
  5
24E
330
1F
100
AcDbEntity
  8
NOCUT
100
AcDbLine
 10
253.944248
 20
306.434018
 30
0.0
 11
253.944248
 21
278.434018
 31
0.0
  0
LINE
  5
24F
330
1F
100
AcDbEntity
  8
NOCUT
100
AcDbLine
 10
243.944248
 20
322.734018
 30
0.0
 11
254.944248
 21
322.734018
 31
0.0
  0
LINE
  5
250
330
1F
100
AcDbEntity
  8
NOCUT
100
AcDbLine
 10
255.444248
 20
267.934018
 30
0.0
 11
243.444248
 21
267.934018
 31
0.0
  0
ELLIPSE
  5
256
330
1F
100
AcDbEntity
  8
1
100
AcDbEllipse
 10
243.956519
 20
247.470115
 30
0.0
 11
0.1243397567576056
 21
-2.997422163274547
 31
0.0
210
0.0
220
0.0
230
1.0
 40
0.01616
 41
1.745531006972311
 42
2.034358329355518
  0
ELLIPSE
  5
257
330
1F
100
AcDbEntity
  8
1
100
AcDbEllipse
 10
247.157102
 20
244.434018
 30
0.0
 11
-2.518505927514595
 21
-78.29996160948455
 31
0.0
210
0.0
220
0.0
230
1.0
 40
0.030787
 41
1.014695501633424
 42
1.175298717156922
  0
ELLIPSE
  5
258
330
1F
100
AcDbEntity
  8
1
100
AcDbEllipse
 10
253.663512
 20
244.435764
 30
0.0
 11
-2.518528124004414
 21
-78.30206910719415
 31
0.0
210
0.0
220
0.0
230
0.9999999999999998
 40
0.030788
 41
1.008640771924615
 42
1.013677433752921
  0
ELLIPSE
  5
259
330
1F
100
AcDbEntity
  8
1
100
AcDbEllipse
 10
237.911052
 20
244.429833
 30
0.0
 11
-985.614250051352
 21
-66.15523734953079
 31
0.0
210
0.0
220
0.0
230
0.9999999999999998
 40
0.042487
 41
1.578054132607495
 42
1.579500474307274
  0
ELLIPSE
  5
25A
330
1F
100
AcDbEntity
  8
1
100
AcDbEllipse
 10
247.157102
 20
244.434018
 30
0.0
 11
-3.485515302830863
 21
-78.29999999070067
 31
0.0
210
0.0
220
0.0
230
0.9999999999999998
 40
0.000928
 41
4.477264965224678
 42
4.484123226692309
  0
ELLIPSE
  5
25B
330
1F
100
AcDbEntity
  8
1
100
AcDbEllipse
 10
273.861136
 20
244.394192
 30
0.0
 11
-1826.232766588212
 21
76.51710902473205
 31
0.0
210
0.0
220
0.0
230
0.9999999999999996
 40
0.00933
 41
4.723443679057707
 42
4.72519450016765
  0
ELLIPSE
  5
25C
330
1F
100
AcDbEntity
  8
1
100
AcDbEllipse
 10
237.906625
 20
244.428982
 30
0.0
 11
-985.8061460959113
 21
-76.47670253414125
 31
0.0
210
0.0
220
0.0
230
1.0
 40
0.017096
 41
4.697587929756259
 42
4.700950627508162
  0
ELLIPSE
  5
25D
330
1F
100
AcDbEntity
  8
1
100
AcDbEllipse
 10
251.731394
 20
244.434018
 30
0.0
 11
-3.248906560779774
 21
78.29998241652166
 31
0.0
210
0.0
220
0.0
230
0.9999999999999998
 40
0.016148
 41
1.57391508909505
 42
1.734518304635429
  0
ELLIPSE
  5
25E
330
1F
100
AcDbEntity
  8
1
100
AcDbEllipse
 10
260.979745
 20
244.435371
 30
0.0
 11
-985.7201179761197
 21
77.12949909997544
 31
0.0
210
0.0
220
0.0
230
1.0
 40
0.013709
 41
1.558651376693978
 42
1.561758150958409
  0
ELLIPSE
  5
25F
330
1F
100
AcDbEntity
  8
1
100
AcDbEllipse
 10
245.224964
 20
244.434187
 30
0.0
 11
-3.248925651836241
 21
78.30050707950966
 31
0.0
210
0.0
220
0.0
230
0.9999999999999998
 40
0.016148
 41
1.733263766435545
 42
1.7405646838509
  0
ELLIPSE
  5
260
330
1F
100
AcDbEntity
  8
1
100
AcDbEllipse
 10
254.9783
 20
286.97329
 30
0.0
 11
0.1284709790788165
 21
-3.997936368620007
 31
0.0
210
0.0
220
0.0
230
1.0
 40
0.030789
 41
5.283833972926458
 42
5.580290674433375
  0
ELLIPSE
  5
261
330
1F
100
AcDbEntity
  8
1
100
AcDbEllipse
 10
255.111873
 20
277.213426
 30
0.0
 11
0.1252592046018462
 21
-3.897987959404508
 31
0.0
210
0.0
220
0.0
230
1.0
 40
0.030789
 41
4.156405488373914
 42
4.549889973755822
  0
ELLIPSE
  5
262
330
1F
100
AcDbEntity
  8
1
100
AcDbEllipse
 10
255.111873
 20
277.213426
 30
0.0
 11
0.1252592046018462
 21
-3.897987959404508
 31
0.0
210
0.0
220
0.0
230
1.0
 40
0.030789
 41
1.695065868839497
 42
3.645111301259903
  0
ELLIPSE
  5
263
330
1F
100
AcDbEntity
  8
1
100
AcDbEllipse
 10
250.903268
 20
293.827828
 30
0.0
 11
0.1629465342484829
 21
-3.996679675302538
 31
0.0
210
0.0
220
0.0
230
1.0
 40
0.017877
 41
5.021725559854368
 42
5.584879721011587
  0
ELLIPSE
  5
264
330
1F
100
AcDbEntity
  8
1
100
AcDbEllipse
 10
243.643051
 20
290.2174819999999
 30
0.0
 11
0.1629465342484829
 21
-3.996679675302538
 31
0.0
210
0.0
220
0.0
230
1.0
 40
0.017877
 41
1.880132906264571
 42
2.443287067421786
  0
ELLIPSE
  5
265
330
1F
100
AcDbEntity
  8
1
100
AcDbEllipse
 10
243.910196
 20
293.542717
 30
0.0
 11
0.1629465342484829
 21
-3.996679675302538
 31
0.0
210
0.0
220
0.0
230
1.0
 40
0.017877
 41
5.021725559854362
 42
5.584879721011584
  0
ELLIPSE
  5
266
330
1F
100
AcDbEntity
  8
1
100
AcDbEllipse
 10
243.288579
 20
303.12403
 30
0.0
 11
0.1629465342484829
 21
-3.996679675302538
 31
0.0
210
0.0
220
0.0
230
1.0
 40
0.017877
 41
0.3093365794696675
 42
0.8724907406268975
  0
ELLIPSE
  5
267
330
1F
100
AcDbEntity
  8
1
100
AcDbEllipse
 10
243.776624
 20
291.8801
 30
0.0
 11
0.1588728708922709
 21
-3.896762683419975
 31
0.0
210
0.0
220
0.0
230
1.0
 40
0.017877
 41
5.323080489276476
 42
6.283185307179585
  0
ELLIPSE
  5
268
330
1F
100
AcDbEntity
  8
1
100
AcDbEllipse
 10
243.776624
 20
291.8801
 30
0.0
 11
0.1588728708922709
 21
-3.896762683419975
 31
0.0
210
0.0
220
0.0
230
1.0
 40
0.017877
 41
0.0
 42
0.1528040546441534
  0
ELLIPSE
  5
269
330
1F
100
AcDbEntity
  8
1
100
AcDbEllipse
 10
243.776624
 20
291.8801
 30
0.0
 11
0.1588728708922709
 21
-3.896762683419975
 31
0.0
210
0.0
220
0.0
230
1.0
 40
0.017877
 41
0.673719645344034
 42
5.323080489276492
  0
ELLIPSE
  5
26A
330
1F
100
AcDbEntity
  8
1
100
AcDbEllipse
 10
243.910196
 20
178.048354
 30
0.0
 11
0.071565568912144
 21
-3.999359744927464
 31
0.0
210
0.0
220
0.0
230
1.0
 40
0.04073
 41
2.26837307780927
 42
2.831527238966483
  0
ELLIPSE
  5
26B
330
1F
100
AcDbEntity
  8
1
100
AcDbEllipse
 10
243.288579
 20
190.956565
 30
0.0
 11
0.071565568912144
 21
-3.999359744927464
 31
0.0
210
0.0
220
0.0
230
1.0
 40
0.04073
 41
0.6975767510143698
 42
1.260730912171581
  0
ELLIPSE
  5
26C
330
1F
100
AcDbEntity
  8
1
100
AcDbEllipse
 10
250.281651
 20
191.081701
 30
0.0
 11
0.071565568912144
 21
-3.999359744927464
 31
0.0
210
0.0
220
0.0
230
1.0
 40
0.04073
 41
0.697576751014367
 42
1.260730912171583
  0
ELLIPSE
  5
26D
330
1F
100
AcDbEntity
  8
1
100
AcDbEllipse
 10
250.903268
 20
178.173489
 30
0.0
 11
0.071565568912144
 21
-3.999359744927464
 31
0.0
210
0.0
220
0.0
230
1.0
 40
0.04073
 41
2.268373077809263
 42
2.831527238966478
  0
ELLIPSE
  5
26E
330
1F
100
AcDbEntity
  8
1
100
AcDbEllipse
 10
250.903268
 20
326.213985
 30
0.0
 11
0.0646952573743713
 21
-3.999476781239423
 31
0.0
210
0.0
220
0.0
230
1.0
 40
0.041441
 41
5.807152721826236
 42
6.196062771512793
  0
ELLIPSE
  5
26F
330
1F
100
AcDbEntity
  8
1
100
AcDbEllipse
 10
243.643051
 20
307.835877
 30
0.0
 11
0.0646952573743713
 21
-3.999476781239423
 31
0.0
210
0.0
220
0.0
230
1.0
 40
0.041441
 41
2.665560068236439
 42
3.228714229393657
  0
ELLIPSE
  5
270
330
1F
100
AcDbEntity
  8
1
100
AcDbEllipse
 10
243.910196
 20
326.100866
 30
0.0
 11
0.0646952573743713
 21
-3.999476781239423
 31
0.0
210
0.0
220
0.0
230
1.0
 40
0.041441
 41
5.807152721826236
 42
6.370306882983449
  0
ELLIPSE
  5
271
330
1F
100
AcDbEntity
  8
1
100
AcDbEllipse
 10
243.288579
 20
323.748394
 30
0.0
 11
0.0646952573743713
 21
-3.999476781239423
 31
0.0
210
0.0
220
0.0
230
1.0
 40
0.041441
 41
1.094763741441545
 42
1.652021016879005
  0
ELLIPSE
  5
272
330
1F
100
AcDbEntity
  8
1
100
AcDbEllipse
 10
243.776624
 20
316.968372
 30
0.0
 11
0.063077875940012
 21
-3.899489861708437
 31
0.0
210
0.0
220
0.0
230
0.9999999999999998
 40
0.041441
 41
6.108507430897552
 42
6.283185307179585
  0
ELLIPSE
  5
273
330
1F
100
AcDbEntity
  8
1
100
AcDbEllipse
 10
243.776624
 20
316.968372
 30
0.0
 11
0.063077875940012
 21
-3.899489861708437
 31
0.0
210
0.0
220
0.0
230
0.9999999999999998
 40
0.041441
 41
0.0
 42
0.9382313682017732
  0
ELLIPSE
  5
274
330
1F
100
AcDbEntity
  8
1
100
AcDbEllipse
 10
243.776624
 20
316.968372
 30
0.0
 11
0.063077875940012
 21
-3.899489861708437
 31
0.0
210
0.0
220
0.0
230
0.9999999999999998
 40
0.041441
 41
1.459146716439346
 42
6.108507430898067
  0
ELLIPSE
  5
275
330
1F
100
AcDbEntity
  8
1
100
AcDbEllipse
 10
254.9783
 20
201.894747
 30
0.0
 11
-0.1284709790788165
 21
-3.997936368620007
 31
0.0
210
0.0
220
0.0
230
1.0
 40
0.030789
 41
3.844487286335998
 42
4.407641447493209
  0
ELLIPSE
  5
276
330
1F
100
AcDbEntity
  8
1
100
AcDbEllipse
 10
255.599918
 20
217.486989
 30
0.0
 11
-0.1284709790788165
 21
-3.997936368620007
 31
0.0
210
0.0
220
0.0
230
1.0
 40
0.030789
 41
5.415283613130891
 42
5.978437774288106
  0
ELLIPSE
  5
277
330
1F
100
AcDbEntity
  8
1
100
AcDbEllipse
 10
247.985228
 20
202.119464
 30
0.0
 11
-0.1284709790788165
 21
-3.997936368620007
 31
0.0
210
0.0
220
0.0
230
1.0
 40
0.030789
 41
3.844487286335997
 42
4.407641447493209
  0
ELLIPSE
  5
278
330
1F
100
AcDbEntity
  8
1
100
AcDbEllipse
 10
248.606846
 20
217.711706
 30
0.0
 11
-0.1284709790788165
 21
-3.997936368620007
 31
0.0
210
0.0
220
0.0
230
1.0
 40
0.030789
 41
5.415283613130894
 42
5.978437774288102
  0
ELLIPSE
  5
279
330
1F
100
AcDbEntity
  8
1
100
AcDbEllipse
 10
251.731394
 20
244.434018
 30
0.0
 11
-1.268757726240527
 21
78.29998232822378
 31
0.0
210
0.0
220
0.0
230
0.9999999999999998
 40
0.041471
 41
6.118121299966813
 42
6.124979559018261
  0
ELLIPSE
  5
27A
330
1F
100
AcDbEntity
  8
1
100
AcDbEllipse
 10
260.976768
 20
244.445525
 30
0.0
 11
-985.594147215888
 21
13.6767989514108
 31
0.0
210
0.0
220
0.0
230
1.0
 40
0.078211
 41
4.723583408404282
 42
4.726946830337292
  0
ELLIPSE
  5
27B
330
1F
100
AcDbEntity
  8
1
100
AcDbEllipse
 10
225.23125
 20
245.006204
 30
0.0
 11
-1817.443053965209
 21
-13.4788891909441
 31
0.0
210
0.0
220
0.0
230
0.9999999999999998
 40
0.04212
 41
4.699714163907167
 42
4.701473451434468
  0
ELLIPSE
  5
27C
330
1F
100
AcDbEntity
  8
1
100
AcDbEllipse
 10
245.224956
 20
244.433865
 30
0.0
 11
-1.268759114427777
 21
78.30013560690236
 31
0.0
210
0.0
220
0.0
230
0.9999999999999998
 40
0.041471
 41
6.112076114941213
 42
6.1197318689019
  0
ELLIPSE
  5
27D
330
1F
100
AcDbEntity
  8
1
100
AcDbEllipse
 10
247.157102
 20
244.434018
 30
0.0
 11
-0.0729597731123738
 21
-78.29999994159199
 31
0.0
210
0.0
220
0.0
230
1.0
 40
0.044515
 41
0.2283485470431573
 42
0.3889517625592411
  0
ELLIPSE
  5
27E
330
1F
100
AcDbEntity
  8
1
100
AcDbEllipse
 10
237.914373
 20
244.404931
 30
0.0
 11
-985.4791787004677
 21
-17.04914292643001
 31
0.0
210
0.0
220
0.0
230
1.0
 40
0.077517
 41
1.579562860236438
 42
1.579587878781381
  0
ELLIPSE
  5
27F
330
1F
100
AcDbEntity
  8
1
100
AcDbEllipse
 10
243.288579
 20
165.119643
 30
0.0
 11
-0.0646952573743717
 21
-3.999476781239424
 31
0.0
210
0.0
220
0.0
230
1.0
 40
0.041441
 41
1.483674750991032
 42
2.046828912148249
  0
ELLIPSE
  5
280
330
1F
100
AcDbEntity
  8
1
100
AcDbEllipse
 10
243.643051
 20
181.03216
 30
0.0
 11
-0.0646952573743717
 21
-3.999476781239424
 31
0.0
210
0.0
220
0.0
230
1.0
 40
0.041441
 41
0.0871225356668042
 42
0.4760325853533535
  0
ELLIPSE
  5
281
330
1F
100
AcDbEntity
  8
1
100
AcDbEllipse
 10
250.281651
 20
165.006524
 30
0.0
 11
-0.0646952573743717
 21
-3.999476781239424
 31
0.0
210
0.0
220
0.0
230
1.0
 40
0.041441
 41
1.483674750991032
 42
2.046828912148245
  0
ELLIPSE
  5
282
330
1F
100
AcDbEntity
  8
1
100
AcDbEllipse
 10
255.111873
 20
267.170002
 30
0.0
 11
-0.1734361390855401
 21
-3.896141669095095
 31
0.0
210
0.0
220
0.0
230
0.9999999999999998
 40
0.000929
 41
0.0
 42
6.283185307179585
  0
ELLIPSE
  5
283
330
1F
100
AcDbEntity
  8
1
100
AcDbEllipse
 10
255.599918
 20
316.300438
 30
0.0
 11
0.0037198041855824
 21
-3.999998270381727
 31
0.0
210
0.0
220
0.0
230
1.0
 40
0.044471
 41
4.777151922726552
 42
4.795366499115623
  0
ELLIPSE
  5
284
330
1F
100
AcDbEntity
  8
1
100
AcDbEllipse
 10
255.599918
 20
316.300438
 30
0.0
 11
0.0037198041855824
 21
-3.999998270381727
 31
0.0
210
0.0
220
0.0
230
1.0
 40
0.044471
 41
4.695600212798886
 42
4.716261009572082
  0
ELLIPSE
  5
285
330
1F
100
AcDbEntity
  8
1
100
AcDbEllipse
 10
255.599918
 20
316.300438
 30
0.0
 11
0.0037198041855824
 21
-3.999998270381727
 31
0.0
210
0.0
220
0.0
230
1.0
 40
0.044471
 41
4.23221233795841
 42
4.277035971759531
  0
ELLIPSE
  5
286
330
1F
100
AcDbEntity
  8
1
100
AcDbEllipse
 10
254.9783
 20
324.559461
 30
0.0
 11
0.0037198041855824
 21
-3.999998270381727
 31
0.0
210
0.0
220
0.0
230
1.0
 40
0.044471
 41
6.069706209367181
 42
6.366162825910526
  0
ELLIPSE
  5
287
330
1F
100
AcDbEntity
  8
1
100
AcDbEllipse
 10
255.245445
 20
302.494707
 30
0.0
 11
0.0037198041855824
 21
-3.999998270381727
 31
0.0
210
0.0
220
0.0
230
1.0
 40
0.044471
 41
2.661416011163519
 42
3.091963533588349
  0
ELLIPSE
  5
288
330
1F
100
AcDbEntity
  8
1
100
AcDbEllipse
 10
247.157102
 20
244.434018
 30
0.0
 11
-2.41563212334085
 21
-78.29996159620029
 31
0.0
210
0.0
220
0.0
230
1.0
 40
0.032104
 41
3.692815930735716
 42
3.699674182704593
  0
ELLIPSE
  5
289
330
1F
100
AcDbEntity
  8
1
100
AcDbEllipse
 10
253.66356
 20
244.435733
 30
0.0
 11
-2.415607790306058
 21
-78.29822396148035
 31
0.0
210
0.0
220
0.0
230
1.0
 40
0.032104
 41
3.698069550619623
 42
3.705725411040388
  0
ELLIPSE
  5
28A
330
1F
100
AcDbEntity
  8
1
100
AcDbEllipse
 10
273.704025
 20
244.778226
 30
0.0
 11
-1819.486160597555
 21
41.93978031778086
 31
0.0
210
0.0
220
0.0
230
0.9999999999999998
 40
0.036113
 41
4.723838352939263
 42
4.725595664692263
  0
ELLIPSE
  5
28B
330
1F
100
AcDbEntity
  8
1
100
AcDbEllipse
 10
237.902774
 20
244.392694
 30
0.0
 11
-985.970194623642
 21
-42.27142406049917
 31
0.0
210
0.0
220
0.0
230
1.0
 40
0.066897
 41
4.69604446593732
 42
4.69940659339758
  0
ELLIPSE
  5
28C
330
1F
100
AcDbEntity
  8
1
100
AcDbEllipse
 10
251.731394
 20
244.434018
 30
0.0
 11
-1.403452020673165
 21
78.29997910588632
 31
0.0
210
0.0
220
0.0
230
1.0
 40
0.040757
 41
2.359252750867324
 42
2.519855966393492
  0
ELLIPSE
  5
28D
330
1F
100
AcDbEntity
  8
1
100
AcDbEllipse
 10
260.973824
 20
244.407584
 30
0.0
 11
-985.4589647920811
 21
45.0942452924395
 31
0.0
210
0.0
220
0.0
230
1.0
 40
0.064922
 41
1.56363194833616
 42
1.563659647239146
  0
ELLIPSE
  5
28E
330
1F
100
AcDbEntity
  8
1
100
AcDbEllipse
 10
245.22494
 20
244.432664
 30
0.0
 11
-1.403459337502676
 21
78.29859653122224
 31
0.0
210
0.0
220
0.0
230
0.9999999999999998
 40
0.040758
 41
2.524716006046964
 42
2.525896325522348
  0
ELLIPSE
  5
28F
330
1F
100
AcDbEntity
  8
1
100
AcDbEllipse
 10
254.9783
 20
164.308576
 30
0.0
 11
-0.003719804185582
 21
-3.999998270381727
 31
0.0
210
0.0
220
0.0
230
1.0
 40
0.044471
 41
3.224578229161773
 42
3.621769296016066
  0
ELLIPSE
  5
290
330
1F
100
AcDbEntity
  8
1
100
AcDbEllipse
 10
255.599918
 20
172.567598
 30
0.0
 11
-0.003719804185582
 21
-3.999998270381727
 31
0.0
210
0.0
220
0.0
230
1.0
 40
0.044471
 41
4.629411461653751
 42
5.192565622810967
  0
ELLIPSE
  5
291
330
1F
100
AcDbEntity
  8
1
100
AcDbEllipse
 10
247.985228
 20
164.315079
 30
0.0
 11
-0.003719804185582
 21
-3.999998270381727
 31
0.0
210
0.0
220
0.0
230
1.0
 40
0.044471
 41
3.058615134858852
 42
3.621769296016065
  0
ELLIPSE
  5
292
330
1F
100
AcDbEntity
  8
1
100
AcDbEllipse
 10
248.606846
 20
172.574102
 30
0.0
 11
-0.003719804185582
 21
-3.999998270381727
 31
0.0
210
0.0
220
0.0
230
1.0
 40
0.044471
 41
4.629411461653752
 42
5.192565622810967
  0
ELLIPSE
  5
293
330
1F
100
AcDbEntity
  8
1
100
AcDbEllipse
 10
247.985228
 20
315.424755
 30
0.0
 11
-0.1232181889232855
 21
-3.998101709301361
 31
0.0
210
0.0
220
0.0
230
1.0
 40
0.032103
 41
0.3057369056385946
 42
0.8688910667958097
  0
ELLIPSE
  5
294
330
1F
100
AcDbEntity
  8
1
100
AcDbEllipse
 10
255.599918
 20
319.121455
 30
0.0
 11
-0.1232181889232855
 21
-3.998101709301361
 31
0.0
210
0.0
220
0.0
230
1.0
 40
0.032103
 41
5.02402277174303
 42
5.581280047180495
  0
ELLIPSE
  5
295
330
1F
100
AcDbEntity
  8
1
100
AcDbEllipse
 10
254.9783
 20
315.209234
 30
0.0
 11
-0.1232181889232855
 21
-3.998101709301361
 31
0.0
210
0.0
220
0.0
230
1.0
 40
0.032103
 41
0.3057369056385934
 42
0.8688910667958097
  0
ELLIPSE
  5
296
330
1F
100
AcDbEntity
  8
1
100
AcDbEllipse
 10
254.931978
 20
220.210411
 30
0.0
 11
-0.0963532343091125
 21
-2.998452276465006
 31
0.0
210
0.0
220
0.0
230
1.0
 40
0.030789
 41
3.856287519698121
 42
4.145114842081275
  0
ELLIPSE
  5
297
330
1F
100
AcDbEntity
  8
1
100
AcDbEllipse
 10
251.731394
 20
244.434018
 30
0.0
 11
-3.1933482792235
 21
78.29997922350964
 31
0.0
210
0.0
220
0.0
230
1.0
 40
0.017865
 41
5.33266655129525
 42
5.339524810712246
  0
ELLIPSE
  5
298
330
1F
100
AcDbEntity
  8
1
100
AcDbEllipse
 10
260.983617
 20
244.413967
 30
0.0
 11
-985.880220081162
 21
64.28522351781386
 31
0.0
210
0.0
220
0.0
230
0.9999999999999998
 40
0.045383
 41
4.725461333321058
 42
4.728823766684495
  0
ELLIPSE
  5
299
330
1F
100
AcDbEntity
  8
1
100
AcDbEllipse
 10
224.989865
 20
244.247961
 30
0.0
 11
-1827.917779283191
 21
-64.26162452901206
 31
0.0
210
0.0
220
0.0
230
0.9999999999999998
 40
0.024678
 41
4.699097761278535
 42
4.700846968119433
  0
ELLIPSE
  5
29A
330
1F
100
AcDbEntity
  8
1
100
AcDbEllipse
 10
245.22493
 20
244.435629
 30
0.0
 11
-3.193296076547047
 21
78.29812366726077
 31
0.0
210
0.0
220
0.0
230
1.0
 40
0.017864
 41
5.326612752893252
 42
5.334268650221128
  0
ELLIPSE
  5
29B
330
1F
100
AcDbEntity
  8
1
100
AcDbEllipse
 10
255.245445
 20
303.524689
 30
0.0
 11
-0.1232181889232855
 21
-3.998101709301361
 31
0.0
210
0.0
220
0.0
230
1.0
 40
0.032103
 41
3.447329559228379
 42
4.010483720385602
  0
ELLIPSE
  5
29C
330
1F
100
AcDbEntity
  8
1
100
AcDbEllipse
 10
255.111873
 20
309.366962
 30
0.0
 11
-0.1201377342002034
 21
-3.898149166568828
 31
0.0
210
0.0
220
0.0
230
0.9999999999999998
 40
0.032103
 41
5.73781248545933
 42
6.283185307179585
  0
ELLIPSE
  5
29D
330
1F
100
AcDbEntity
  8
1
100
AcDbEllipse
 10
255.111873
 20
309.366962
 30
0.0
 11
-0.1201377342002034
 21
-3.898149166568828
 31
0.0
210
0.0
220
0.0
230
0.9999999999999998
 40
0.032103
 41
0.0
 42
0.5675361364795397
  0
ELLIPSE
  5
29E
330
1F
100
AcDbEntity
  8
1
100
AcDbEllipse
 10
255.111873
 20
309.366962
 30
0.0
 11
-0.1201377342002034
 21
-3.898149166568828
 31
0.0
210
0.0
220
0.0
230
0.9999999999999998
 40
0.032103
 41
0.5675360853821241
 42
5.216896919145678
  0
ELLIPSE
  5
29F
330
1F
100
AcDbEntity
  8
1
100
AcDbEllipse
 10
243.643051
 20
288.314323
 30
0.0
 11
-0.0715655689121447
 21
-3.999359744927464
 31
0.0
210
0.0
220
0.0
230
1.0
 40
0.04073
 41
3.584263144918319
 42
4.014812229370325
  0
ELLIPSE
  5
2A0
330
1F
100
AcDbEntity
  8
1
100
AcDbEllipse
 10
243.910196
 20
310.819683
 30
0.0
 11
-0.0715655689121447
 21
-3.999359744927464
 31
0.0
210
0.0
220
0.0
230
1.0
 40
0.04073
 41
0.3100654146233193
 42
0.6065218795546499
  0
ELLIPSE
  5
2A1
330
1F
100
AcDbEntity
  8
1
100
AcDbEllipse
 10
243.288579
 20
297.911472
 30
0.0
 11
-0.0715655689121447
 21
-3.999359744927464
 31
0.0
210
0.0
220
0.0
230
1.0
 40
0.04073
 41
1.880861741418211
 42
1.92051128153551
  0
ELLIPSE
  5
2A2
330
1F
100
AcDbEntity
  8
1
100
AcDbEllipse
 10
243.288579
 20
297.911472
 30
0.0
 11
-0.0715655689121447
 21
-3.999359744927464
 31
0.0
210
0.0
220
0.0
230
1.0
 40
0.04073
 41
1.959967302981078
 42
1.9748292879086
  0
ELLIPSE
  5
2A3
330
1F
100
AcDbEntity
  8
1
100
AcDbEllipse
 10
243.288579
 20
297.911472
 30
0.0
 11
-0.0715655689121447
 21
-3.999359744927464
 31
0.0
210
0.0
220
0.0
230
1.0
 40
0.04073
 41
2.309465913620576
 42
2.44401590257542
  0
ELLIPSE
  5
2A4
330
1F
100
AcDbEntity
  8
1
100
AcDbEllipse
 10
243.776624
 20
299.567003
 30
0.0
 11
-0.0697764296893411
 21
-3.899375751304278
 31
0.0
210
0.0
220
0.0
230
1.0
 40
0.04073
 41
2.245244763785925
 42
4.428553572566755
  0
ELLIPSE
  5
2A5
330
1F
100
AcDbEntity
  8
1
100
AcDbEllipse
 10
247.985228
 20
264.711141
 30
0.0
 11
-0.1778832195749129
 21
-3.996042737533428
 31
0.0
210
0.0
220
0.0
230
1.0
 40
0.000929
 41
1.090661040040153
 42
1.653815201197399
  0
ELLIPSE
  5
2A6
330
1F
100
AcDbEntity
  8
1
100
AcDbEllipse
 10
255.599918
 20
278.191584
 30
0.0
 11
-0.1778832195749129
 21
-3.996042737533428
 31
0.0
210
0.0
220
0.0
230
1.0
 40
0.000929
 41
5.803050020424882
 42
6.366204181582163
  0
ELLIPSE
  5
2A7
330
1F
100
AcDbEntity
  8
1
100
AcDbEllipse
 10
254.9783
 20
264.399846
 30
0.0
 11
-0.1778832195749129
 21
-3.996042737533428
 31
0.0
210
0.0
220
0.0
230
1.0
 40
0.000929
 41
1.090661040040209
 42
1.653815201197398
  0
ELLIPSE
  5
2A8
330
1F
100
AcDbEntity
  8
1
100
AcDbEllipse
 10
255.245445
 20
269.940158
 30
0.0
 11
-0.1778832195749129
 21
-3.996042737533428
 31
0.0
210
0.0
220
0.0
230
1.0
 40
0.000929
 41
4.232253693630005
 42
4.795407854787171
  0
ELLIPSE
  5
2A9
330
1F
100
AcDbEntity
  8
1
100
AcDbEllipse
 10
243.910196
 20
232.217358
 30
0.0
 11
0.1657863423434741
 21
-3.996562884366061
 31
0.0
210
0.0
220
0.0
230
1.0
 40
0.01616
 41
1.483004401560388
 42
2.046158562717589
  0
ELLIPSE
  5
2AA
330
1F
100
AcDbEntity
  8
1
100
AcDbEllipse
 10
243.288579
 20
248.119854
 30
0.0
 11
0.1657863423434741
 21
-3.996562884366061
 31
0.0
210
0.0
220
0.0
230
1.0
 40
0.01616
 41
0.0877974097490783
 42
0.4753622359227112
  0
ELLIPSE
  5
2AB
330
1F
100
AcDbEntity
  8
1
100
AcDbEllipse
 10
250.281651
 20
248.409942
 30
0.0
 11
0.1657863423434741
 21
-3.996562884366061
 31
0.0
210
0.0
220
0.0
230
1.0
 40
0.01616
 41
6.195393381945077
 42
6.758547543102286
  0
ELLIPSE
  5
2AC
330
1F
100
AcDbEntity
  8
1
100
AcDbEllipse
 10
250.903268
 20
232.507447
 30
0.0
 11
0.1657863423434741
 21
-3.996562884366061
 31
0.0
210
0.0
220
0.0
230
1.0
 40
0.01616
 41
1.483004401560386
 42
2.046158562717601
  0
SPLINE
  5
2C0
330
1F
100
AcDbEntity
  8
1
100
AcDbSpline
210
0.0
220
0.0
230
1.0
 70
     8
 71
     3
 72
    25
 73
    21
 74
     0
 42
0.000000001
 43
0.0000000001
 40
0.0
 40
0.0
 40
0.0
 40
0.0
 40
0.1249999999999848
 40
0.2499999999999696
 40
0.2499999999999696
 40
0.2812499999999687
 40
0.2812499999999687
 40
0.3124999999999678
 40
0.374999999999966
 40
0.374999999999966
 40
0.4999999999999736
 40
0.4999999999999736
 40
0.6249999999999809
 40
0.6249999999999809
 40
0.6874999999999841
 40
0.6874999999999841
 40
0.7499999999999872
 40
0.7499999999999872
 40
0.8749999999999936
 40
1.0
 40
1.0
 40
1.0
 40
1.0
 10
247.100695543881
 20
250.002437074508
 30
0.0
 10
247.1031030598258
 20
249.9458137433471
 30
0.0
 10
247.1086853094014
 20
249.8259489600768
 30
0.0
 10
247.1142564006531
 20
249.6929322374794
 30
0.0
 10
247.1176413330407
 20
249.605617207504
 30
0.0
 10
247.1183156821525
 20
249.5879266657789
 30
0.0
 10
247.1196562856709
 20
249.5522686180882
 30
0.0
 10
247.1216569316273
 20
249.4983336750828
 30
0.0
 10
247.1236519563643
 20
249.4430708179149
 30
0.0
 10
247.1277522043032
 20
249.3308063466265
 30
0.0
 10
247.13064698587
 20
249.2536493193032
 30
0.0
 10
247.1376011260263
 20
249.0947888797764
 30
0.0
 10
247.1415143625781
 20
249.0130802708078
 30
0.0
 10
247.1473997008683
 20
248.8870261158743
 30
0.0
 10
247.1493683703162
 20
248.844425410165
 30
0.0
 10
247.153266646332
 20
248.7580364479066
 30
0.0
 10
247.1551988089426
 20
248.7141822415176
 30
0.0
 10
247.1608676681884
 20
248.581913881342
 30
0.0
 10
247.168076516892
 20
248.403064877618
 30
0.0
 10
247.1753280990025
 20
248.2193098807427
 30
0.0
 10
247.1794564720674
 20
248.1262032503705
 30
0.0
  0
SPLINE
  5
2C1
330
1F
100
AcDbEntity
  8
1
100
AcDbSpline
210
0.0
220
0.0
230
1.0
 70
    24
 71
     3
 72
    34
 73
    30
 74
     0
 42
0.000000001
 43
0.0000000001
 40
0.0
 40
0.0
 40
0.0
 40
0.0
 40
0.1249999999999891
 40
0.1249999999999891
 40
0.1562499999999889
 40
0.1562499999999889
 40
0.1874999999999886
 40
0.1874999999999886
 40
0.2499999999999881
 40
0.3124999999999875
 40
0.3124999999999875
 40
0.374999999999987
 40
0.374999999999987
 40
0.4999999999999931
 40
0.4999999999999931
 40
0.5312499999999956
 40
0.5312499999999956
 40
0.5624999999999979
 40
0.6249999999999968
 40
0.6249999999999968
 40
0.7500000000000034
 40
0.7500000000000034
 40
0.8125000000000035
 40
0.8125000000000035
 40
0.8437500000000035
 40
0.8437500000000035
 40
0.8750000000000037
 40
0.8750000000000037
 40
1.0
 40
1.0
 40
1.0
 40
1.0
 10
254.9442482849925
 20
225.5720113786399
 30
0.0
 10
254.9442482849925
 20
225.5481412551414
 30
0.0
 10
254.9442482849925
 20
225.513257814715
 30
0.0
 10
254.9442482849925
 20
225.4559926782001
 30
0.0
 10
254.9442482849925
 20
225.4438542055443
 30
0.0
 10
254.9442482849925
 20
225.4181993652138
 30
0.0
 10
254.9442482849925
 20
225.404675795635
 30
0.0
 10
254.9442482849925
 20
225.3621703727774
 30
0.0
 10
254.9442482849925
 20
225.3002661550017
 30
0.0
 10
254.9442482849925
 20
225.227967049926
 30
0.0
 10
254.9442482849925
 20
225.1504448564735
 30
0.0
 10
254.9442482849925
 20
225.1090261982998
 30
0.0
 10
254.9442482849925
 20
224.9777367555995
 30
0.0
 10
254.9442482849925
 20
224.8806364885448
 30
0.0
 10
254.9442482849925
 20
224.7472346491343
 30
0.0
 10
254.9442482849925
 20
224.7199578575831
 30
0.0
 10
254.9442482849925
 20
224.6644831560518
 30
0.0
 10
254.9442482849925
 20
224.579787254971
 30
0.0
 10
254.9442482849925
 20
224.4906981849529
 30
0.0
 10
254.9442482849925
 20
224.3067542418263
 30
0.0
 10
254.9442482849925
 20
224.1764579941772
 30
0.0
 10
254.9442482849925
 20
223.9694930687527
 30
0.0
 10
254.9442482849925
 20
223.8985794816543
 30
0.0
 10
254.9442482849925
 20
223.7892702059549
 30
0.0
 10
254.9442482849925
 20
223.752343617829
 30
0.0
 10
254.9442482849925
 20
223.677497253266
 30
0.0
 10
254.9442482849925
 20
223.6395552078537
 30
0.0
 10
254.9442482849925
 20
223.4486630507596
 30
0.0
 10
254.9442482849925
 20
223.2911789010446
 30
0.0
 10
254.9442482849925
 20
223.1290783284385
 30
0.0
  0
SPLINE
  5
2C2
330
1F
100
AcDbEntity
  8
1
100
AcDbSpline
210
0.0
220
0.0
230
1.0
 70
    24
 71
     3
 72
    70
 73
    66
 74
     0
 42
0.000000001
 43
0.0000000001
 40
0.0
 40
0.0
 40
0.0
 40
0.0
 40
0.0625000000000008
 40
0.0625000000000008
 40
0.1250000000000017
 40
0.1250000000000017
 40
0.1328125000000026
 40
0.1328125000000026
 40
0.1406250000000035
 40
0.1406250000000035
 40
0.1562500000000037
 40
0.1562500000000037
 40
0.1875000000000041
 40
0.1875000000000041
 40
0.2500000000000031
 40
0.2500000000000031
 40
0.2656250000000018
 40
0.2734375000000012
 40
0.2734375000000012
 40
0.2812500000000006
 40
0.2812500000000006
 40
0.3124999999999961
 40
0.3124999999999961
 40
0.3749999999999871
 40
0.3749999999999871
 40
0.4062499999999826
 40
0.4062499999999826
 40
0.4218749999999809
 40
0.4218749999999809
 40
0.4374999999999791
 40
0.4374999999999791
 40
0.4999999999999726
 40
0.4999999999999726
 40
0.5312499999999693
 40
0.5312499999999693
 40
0.5468749999999676
 40
0.5468749999999676
 40
0.5624999999999659
 40
0.5624999999999659
 40
0.624999999999962
 40
0.624999999999962
 40
0.6874999999999583
 40
0.6874999999999583
 40
0.6953124999999585
 40
0.6953124999999585
 40
0.7031249999999587
 40
0.7187499999999618
 40
0.7187499999999618
 40
0.7499999999999676
 40
0.7499999999999676
 40
0.8124999999999818
 40
0.8124999999999818
 40
0.8281249999999854
 40
0.8281249999999854
 40
0.8437499999999889
 40
0.8437499999999889
 40
0.8749999999999921
 40
0.8749999999999921
 40
0.8906249999999921
 40
0.8906249999999921
 40
0.9062499999999921
 40
0.9062499999999921
 40
0.937499999999996
 40
0.937499999999996
 40
1.0
 40
1.0
 40
1.0
 40
1.0
 10
243.9442482849925
 20
217.3207587315682
 30
0.0
 10
243.9442482849925
 20
217.4449104653968
 30
0.0
 10
243.9442482849925
 20
217.5823306375948
 30
0.0
 10
243.9442482849925
 20
217.8826011360892
 30
0.0
 10
243.9442482849925
 20
218.045453742227
 30
0.0
 10
243.9442482849925
 20
218.2433669896151
 30
0.0
 10
243.9442482849925
 20
218.2655627609336
 30
0.0
 10
243.9442482849925
 20
218.3103686007358
 30
0.0
 10
243.9442482849925
 20
218.3330031098074
 30
0.0
 10
243.9442482849925
 20
218.4013330250301
 30
0.0
 10
243.9442482849925
 20
218.4474215768538
 30
0.0
 10
243.9442482849924
 20
218.5872665586947
 30
0.0
 10
243.9442482849925
 20
218.6826000007036
 30
0.0
 10
243.9442482849925
 20
218.9747869608121
 30
0.0
 10
243.9442482849925
 20
219.1777917490969
 30
0.0
 10
243.9442482849925
 20
219.4419454516842
 30
0.0
 10
243.9442482849925
 20
219.5219756208929
 30
0.0
 10
243.9442482849925
 20
219.6031986909593
 30
0.0
 10
243.9442482849925
 20
219.6576149550679
 30
0.0
 10
243.9442482849925
 20
219.6849720318585
 30
0.0
 10
243.9442482849925
 20
219.8218444808418
 30
0.0
 10
243.9442482849925
 20
219.9320536180756
 30
0.0
 10
243.9442482849924
 20
220.2647569337402
 30
0.0
 10
243.9442482849925
 20
220.4893153806617
 30
0.0
 10
243.9442482849925
 20
220.8302788697972
 30
0.0
 10
243.9442482849925
 20
220.9446239185173
 30
0.0
 10
243.9442482849925
 20
221.1172038002063
 30
0.0
 10
243.9442482849925
 20
221.1750237365877
 30
0.0
 10
243.9442482849925
 20
221.290143650405
 30
0.0
 10
243.9442482849925
 20
221.347505496813
 30
0.0
 10
243.9442482849925
 20
221.633339205569
 30
0.0
 10
243.9442482849925
 20
221.85890140602
 30
0.0
 10
243.9442482849925
 20
222.1926658041407
 30
0.0
 10
243.9442482849925
 20
222.3031541368247
 30
0.0
 10
243.9442482849925
 20
222.4677164438491
 30
0.0
 10
243.9442482849925
 20
222.5223753007832
 30
0.0
 10
243.9442482849925
 20
222.6312964083651
 30
0.0
 10
243.9442482849925
 20
222.6856108417088
 30
0.0
 10
243.9442482849925
 20
222.9538685411956
 30
0.0
 10
243.9442482849925
 20
223.1597135782685
 30
0.0
 10
243.9442482849925
 20
223.5544331246317
 30
0.0
 10
243.9442482849925
 20
223.7433082410166
 30
0.0
 10
243.9442482849925
 20
223.9458771865477
 30
0.0
 10
243.9442482849925
 20
223.9682658106232
 30
0.0
 10
243.9442482849925
 20
224.0125854907259
 30
0.0
 10
243.9442482849925
 20
224.0784297162811
 30
0.0
 10
243.9442482849925
 20
224.142385425119
 30
0.0
 10
243.9442482849925
 20
224.2678138637758
 30
0.0
 10
243.9442482849925
 20
224.3481257770196
 30
0.0
 10
243.9442482849925
 20
224.5792846123278
 30
0.0
 10
243.9442482849925
 20
224.7204118070185
 30
0.0
 10
243.9442482849925
 20
224.8802200725056
 30
0.0
 10
243.9442482849925
 20
224.9113471397734
 30
0.0
 10
243.9442482849925
 20
224.9719036869901
 30
0.0
 10
243.9442482849925
 20
225.0012358832672
 30
0.0
 10
243.9442482849925
 20
225.0861876993881
 30
0.0
 10
243.9442482849925
 20
225.1388637761962
 30
0.0
 10
243.9442482849925
 20
225.2119544769718
 30
0.0
 10
243.9442482849925
 20
225.2353297192445
 30
0.0
 10
243.9442482849925
 20
225.2800927650789
 30
0.0
 10
243.9442482849925
 20
225.301489693845
 30
0.0
 10
243.9442482849925
 20
225.362362657678
 30
0.0
 10
243.9442482849925
 20
225.3986451240154
 30
0.0
 10
243.9442482849925
 20
225.4947892685146
 30
0.0
 10
243.9442482849925
 20
225.5420227525174
 30
0.0
 10
243.9442482849925
 20
225.5720113786399
 30
0.0
  0
SPLINE
  5
2C3
330
1F
100
AcDbEntity
  8
1
100
AcDbSpline
210
0.0
220
0.0
230
1.0
 70
     8
 71
     3
 72
    52
 73
    48
 74
     0
 42
0.000000001
 43
0.0000000001
 40
0.0
 40
0.0
 40
0.0
 40
0.0
 40
0.0312499999999966
 40
0.0468749999999933
 40
0.0468749999999933
 40
0.06249999999999
 40
0.06249999999999
 40
0.1249999999999842
 40
0.1249999999999842
 40
0.1874999999999784
 40
0.1874999999999784
 40
0.2499999999999726
 40
0.2499999999999726
 40
0.2812499999999698
 40
0.2812499999999698
 40
0.312499999999967
 40
0.312499999999967
 40
0.3749999999999626
 40
0.4374999999999585
 40
0.4374999999999585
 40
0.468749999999957
 40
0.468749999999957
 40
0.484374999999957
 40
0.484374999999957
 40
0.4999999999999569
 40
0.4999999999999569
 40
0.5624999999999609
 40
0.6249999999999649
 40
0.6249999999999649
 40
0.656249999999968
 40
0.656249999999968
 40
0.6718749999999689
 40
0.6718749999999689
 40
0.6874999999999698
 40
0.6874999999999698
 40
0.7499999999999734
 40
0.7499999999999734
 40
0.812499999999977
 40
0.812499999999977
 40
0.8749999999999806
 40
0.8749999999999806
 40
0.8906249999999811
 40
0.8906249999999811
 40
0.9062499999999815
 40
0.9374999999999864
 40
0.9374999999999864
 40
1.0
 40
1.0
 40
1.0
 40
1.0
 10
248.5320329429316
 20
223.7977648891886
 30
0.0
 10
248.5286454529995
 20
223.736221752389
 30
0.0
 10
248.5235713831127
 20
223.6419834839962
 30
0.0
 10
248.5185082221845
 20
223.5448165292617
 30
0.0
 10
248.5151352332301
 20
223.4793803704941
 30
0.0
 10
248.5134479837254
 20
223.4462939462385
 30
0.0
 10
248.5050415453094
 20
223.2796650796269
 30
0.0
 10
248.498454314338
 20
223.1434055402214
 30
0.0
 10
248.4855462380972
 20
222.8651762211531
 30
0.0
 10
248.4792254197679
 20
222.723205864002
 30
0.0
 10
248.4668494027227
 20
222.4335713313062
 30
0.0
 10
248.4607941861385
 20
222.2859075387878
 30
0.0
 10
248.4519163098783
 20
222.0600185742822
 30
0.0
 10
248.4489854964933
 20
221.983828101498
 30
0.0
 10
248.4432574299323
 20
221.8316523247345
 30
0.0
 10
248.4404530647368
 20
221.7554927095556
 30
0.0
 10
248.4322157738896
 20
221.526802529754
 30
0.0
 10
248.4217006379184
 20
221.2213198068296
 30
0.0
 10
248.4121099835806
 20
220.9147257677537
 30
0.0
 10
248.4052704196929
 20
220.6843553852428
 30
0.0
 10
248.4030495839325
 20
220.6074943113625
 30
0.0
 10
248.3998088041419
 20
220.492093942242
 30
0.0
 10
248.3987462338514
 20
220.4537005981446
 30
0.0
 10
248.3966623534311
 20
220.3772834982201
 30
0.0
 10
248.3956400586912
 20
220.3392247568262
 30
0.0
 10
248.390625800275
 20
220.1496723750759
 30
0.0
 10
248.3832235911598
 20
219.8511210470654
 30
0.0
 10
248.3770365144123
 20
219.5618358368431
 30
0.0
 10
248.3728565399047
 20
219.3483822465753
 30
0.0
 10
248.3715400851706
 20
219.2778172307465
 30
0.0
 10
248.3696826851757
 20
219.1728640538573
 30
0.0
 10
248.3690831089174
 20
219.1380287960502
 30
0.0
 10
248.367923526067
 20
219.0686600230262
 30
0.0
 10
248.367363868842
 20
219.0341437035694
 30
0.0
 10
248.3646806521313
 20
218.8633186159141
 30
0.0
 10
248.3628878035024
 20
218.7314659976859
 30
0.0
 10
248.3599882606095
 20
218.4770862443935
 30
0.0
 10
248.3588816199681
 20
218.35455983811
 30
0.0
 10
248.3573553453098
 20
218.1188440917127
 30
0.0
 10
248.3569356494304
 20
218.0056539108307
 30
0.0
 10
248.3568546475755
 20
217.8701953705039
 30
0.0
 10
248.3568607523148
 20
217.8433902355678
 30
0.0
 10
248.3569175840526
 20
217.7906282510876
 30
0.0
 10
248.3570696468697
 20
217.7126721464412
 30
0.0
 10
248.3574209131807
 20
217.6382545933083
 30
0.0
 10
248.3583877462781
 20
217.4941143888702
 30
0.0
 10
248.3593839894083
 20
217.4042681247153
 30
0.0
 10
248.3607369680107
 20
217.3207587315682
 30
0.0
  0
SPLINE
  5
2C4
330
1F
100
AcDbEntity
  8
1
100
AcDbSpline
210
0.0
220
0.0
230
1.0
 70
     8
 71
     3
 72
    10
 73
     6
 74
     0
 42
0.000000001
 43
0.0000000001
 40
0.0
 40
0.0
 40
0.0
 40
0.0
 40
0.5000000000000001
 40
0.5000000000000001
 40
1.0
 40
1.0
 40
1.0
 40
1.0
 10
248.5320329429316
 20
223.7977648891886
 30
0.0
 10
248.9029749105966
 20
223.7302260120943
 30
0.0
 10
249.274445967429
 20
223.6633841122751
 30
0.0
 10
250.0182782147473
 20
223.5308728993513
 30
0.0
 10
250.3906400820027
 20
223.4652044777652
 30
0.0
 10
250.7633866245855
 20
223.4000427948881
 30
0.0
  0
SPLINE
  5
2C5
330
1F
100
AcDbEntity
  8
1
100
AcDbSpline
210
0.0
220
0.0
230
1.0
 70
     8
 71
     3
 72
     8
 73
     4
 74
     0
 42
0.000000001
 43
0.0000000001
 40
0.0
 40
0.0
 40
0.0
 40
0.0
 40
1.0
 40
1.0
 40
1.0
 40
1.0
 10
250.7633866245855
 20
223.4000427948881
 30
0.0
 10
251.1047287148253
 20
223.3403710810128
 30
0.0
 10
251.446197269962
 20
223.2804598770453
 30
0.0
 10
251.7878010261039
 20
223.2203909093634
 30
0.0
  0
SPLINE
  5
2C6
330
1F
100
AcDbEntity
  8
1
100
AcDbSpline
210
0.0
220
0.0
230
1.0
 70
     8
 71
     3
 72
     8
 73
     4
 74
     0
 42
0.000000001
 43
0.0000000001
 40
0.0
 40
0.0
 40
0.0
 40
0.0
 40
1.0
 40
1.0
 40
1.0
 40
1.0
 10
251.7878010261039
 20
223.2203909093634
 30
0.0
 10
252.839945058633
 20
223.1899953032665
 30
0.0
 10
253.8920945366347
 20
223.1595669128244
 30
0.0
 10
254.9442482849925
 20
223.1290783284385
 30
0.0
  0
SPLINE
  5
2C7
330
1F
100
AcDbEntity
  8
1
100
AcDbSpline
210
0.0
220
0.0
230
1.0
 70
    12
 71
     2
 72
     6
 73
     3
 74
     0
 42
0.000000001
 43
0.0000000001
 40
0.0
 40
0.0
 40
0.0
 40
1.0
 40
1.0
 40
1.0
 10
254.9442482849927
 20
202.6127403720587
 30
0.0
 41
0.5000003910202065
 10
254.6525495547879
 20
202.6235050407901
 30
0.0
 41
0.4999996089797937
 10
254.3608510914473
 20
202.6342719209096
 30
0.0
 41
0.5000003910202065
  0
SPLINE
  5
2C8
330
1F
100
AcDbEntity
  8
1
100
AcDbSpline
210
0.0
220
0.0
230
1.0
 70
     8
 71
     3
 72
    50
 73
    46
 74
     0
 42
0.000000001
 43
0.0000000001
 40
0.0
 40
0.0
 40
0.0
 40
0.0
 40
0.062500000000013
 40
0.062500000000013
 40
0.125000000000026
 40
0.125000000000026
 40
0.1875000000000391
 40
0.1875000000000391
 40
0.2031250000000386
 40
0.2031250000000386
 40
0.2187500000000381
 40
0.2187500000000381
 40
0.2500000000000372
 40
0.2500000000000372
 40
0.3125000000000306
 40
0.3750000000000241
 40
0.3750000000000241
 40
0.406250000000021
 40
0.406250000000021
 40
0.4218750000000194
 40
0.4218750000000194
 40
0.4375000000000177
 40
0.4375000000000177
 40
0.5000000000000115
 40
0.5625000000000052
 40
0.5625000000000052
 40
0.5937500000000034
 40
0.5937500000000034
 40
0.6093750000000036
 40
0.6093750000000036
 40
0.6250000000000038
 40
0.6250000000000038
 40
0.6875000000000032
 40
0.6875000000000032
 40
0.7500000000000023
 40
0.7500000000000023
 40
0.8125000000000014
 40
0.8125000000000014
 40
0.8281250000000014
 40
0.8281250000000014
 40
0.843750000000001
 40
0.8750000000000005
 40
0.8750000000000005
 40
0.9375000000000003
 40
1.0
 40
1.0
 40
1.0
 40
1.0
 10
250.5277596019741
 20
245.1487984152275
 30
0.0
 10
250.5291140521146
 20
245.1758590277307
 30
0.0
 10
250.5301059693279
 20
245.2105897242334
 30
0.0
 10
250.5313906579799
 20
245.294842895916
 30
0.0
 10
250.5316833529311
 20
245.3443669893338
 30
0.0
 10
250.5315725733243
 20
245.4581439862069
 30
0.0
 10
250.5311691405392
 20
245.5223960058748
 30
0.0
 10
250.5302178252538
 20
245.6121686926621
 30
0.0
 10
250.5300051539187
 20
245.6305973204045
 30
0.0
 10
250.5295344588078
 20
245.6684140943298
 30
0.0
 10
250.5292768997935
 20
245.6877620162032
 30
0.0
 10
250.5284406372131
 20
245.746927362894
 30
0.0
 10
250.5277974802235
 20
245.7879398255242
 30
0.0
 10
250.5256158346096
 20
245.9155965104848
 30
0.0
 10
250.5220357988232
 20
246.0980999054795
 30
0.0
 10
250.5171314232201
 20
246.3048623572581
 30
0.0
 10
250.512947483285
 20
246.4691967672468
 30
0.0
 10
250.5114683965186
 20
246.5255216652989
 30
0.0
 10
250.5091204040781
 20
246.6123786512941
 30
0.0
 10
250.508316465779
 20
246.6417136667634
 30
0.0
 10
250.5066748521743
 20
246.7008316866695
 30
0.0
 10
250.5058360635051
 20
246.7306561604014
 30
0.0
 10
250.5015531666697
 20
246.8810917369461
 30
0.0
 10
250.4941326602719
 20
247.1301720661326
 30
0.0
 10
250.4856017054905
 20
247.3956457890293
 30
0.0
 10
250.478783267261
 20
247.6009547617553
 30
0.0
 10
250.4764402846783
 20
247.6704269934947
 30
0.0
 10
250.4728188121574
 20
247.7762149471163
 30
0.0
 10
250.4715938123863
 20
247.8117410011667
 30
0.0
 10
250.469107723046
 20
247.8833258978932
 30
0.0
 10
250.4678456943181
 20
247.9194106879089
 30
0.0
 10
250.4614813981131
 20
248.100132956399
 30
0.0
 10
250.4561905000184
 20
248.2464359371254
 30
0.0
 10
250.4452222377272
 20
248.5423844954629
 30
0.0
 10
250.4395448409496
 20
248.6920303548719
 30
0.0
 10
250.4278035049518
 20
248.9946653308554
 30
0.0
 10
250.4217395984367
 20
249.1476541645602
 30
0.0
 10
250.4139103669396
 20
249.3410468538692
 30
0.0
 10
250.4123298771423
 20
249.3798855836083
 30
0.0
 10
250.4091600203634
 20
249.4573812259381
 30
0.0
 10
250.4043884720555
 20
249.5734386294527
 30
0.0
 10
250.399567237772
 20
249.6889445508585
 30
0.0
 10
250.3898596027331
 20
249.919233088089
 30
0.0
 10
250.3767426409549
 20
250.2243593063777
 30
0.0
 10
250.3632819029544
 20
250.5256698315249
 30
0.0
 10
250.3564636270533
 20
250.6753493845035
 30
0.0
  0
SPLINE
  5
2C9
330
1F
100
AcDbEntity
  8
1
100
AcDbSpline
210
0.0
220
0.0
230
1.0
 70
    24
 71
     3
 72
    74
 73
    70
 74
     0
 42
0.000000001
 43
0.0000000001
 40
0.0
 40
0.0
 40
0.0
 40
0.0
 40
0.0624999999999847
 40
0.0624999999999847
 40
0.078124999999983
 40
0.078124999999983
 40
0.0937499999999813
 40
0.0937499999999813
 40
0.124999999999981
 40
0.124999999999981
 40
0.1406249999999795
 40
0.1406249999999795
 40
0.1562499999999781
 40
0.1562499999999781
 40
0.1874999999999749
 40
0.1874999999999749
 40
0.2031249999999722
 40
0.2031249999999722
 40
0.2187499999999696
 40
0.2187499999999696
 40
0.2499999999999659
 40
0.2499999999999659
 40
0.3124999999999571
 40
0.3124999999999571
 40
0.3281249999999551
 40
0.3359374999999545
 40
0.3359374999999545
 40
0.343749999999954
 40
0.343749999999954
 40
0.3749999999999507
 40
0.3749999999999507
 40
0.4374999999999439
 40
0.4374999999999439
 40
0.4687499999999404
 40
0.4687499999999404
 40
0.476562499999939
 40
0.476562499999939
 40
0.4843749999999379
 40
0.4843749999999379
 40
0.4999999999999357
 40
0.4999999999999357
 40
0.5624999999999295
 40
0.5624999999999295
 40
0.593749999999927
 40
0.593749999999927
 40
0.6093749999999258
 40
0.6093749999999258
 40
0.6249999999999245
 40
0.6249999999999245
 40
0.6874999999999213
 40
0.7499999999999181
 40
0.7499999999999181
 40
0.7578124999999201
 40
0.7578124999999201
 40
0.7656249999999221
 40
0.7812499999999259
 40
0.7812499999999259
 40
0.8124999999999335
 40
0.8124999999999335
 40
0.8749999999999488
 40
0.8749999999999488
 40
0.8906249999999552
 40
0.8906249999999552
 40
0.8984374999999584
 40
0.8984374999999584
 40
0.9062499999999616
 40
0.9374999999999744
 40
0.9374999999999744
 40
1.0
 40
1.0
 40
1.0
 40
1.0
 10
254.9442482849925
 20
253.4711627486659
 30
0.0
 10
254.9442482849925
 20
253.3559434775455
 30
0.0
 10
254.9442482849925
 20
253.2261653409663
 30
0.0
 10
254.9442482849925
 20
253.0457892731728
 30
0.0
 10
254.9442482849925
 20
253.0088002002585
 30
0.0
 10
254.9442482849925
 20
252.9333110638306
 30
0.0
 10
254.9442482849925
 20
252.8947729799464
 30
0.0
 10
254.9442482849925
 20
252.7767883899274
 30
0.0
 10
254.9442482849925
 20
252.6949750345565
 30
0.0
 10
254.9442482849925
 20
252.5674974148246
 30
0.0
 10
254.9442482849925
 20
252.5241634549034
 30
0.0
 10
254.9442482849925
 20
252.4361846604997
 30
0.0
 10
254.9442482849925
 20
252.3915388210438
 30
0.0
 10
254.9442482849925
 20
252.2556433258263
 30
0.0
 10
254.9442482849925
 20
252.162438561265
 30
0.0
 10
254.9442482849925
 20
252.0187130479555
 30
0.0
 10
254.9442482849925
 20
251.9701423314153
 30
0.0
 10
254.9442482849925
 20
251.8717176973686
 30
0.0
 10
254.9442482849925
 20
251.8220872127131
 30
0.0
 10
254.9442482849925
 20
251.6719626948619
 30
0.0
 10
254.9442482849925
 20
251.5702374117477
 30
0.0
 10
254.9442482849925
 20
251.2602369091516
 30
0.0
 10
254.9442482849925
 20
251.0471645058194
 30
0.0
 10
254.9442482849925
 20
250.7727335671923
 30
0.0
 10
254.9442482849925
 20
250.6897942159182
 30
0.0
 10
254.9442482849925
 20
250.6059272246854
 30
0.0
 10
254.9442482849925
 20
250.5498079040225
 30
0.0
 10
254.9442482849925
 20
250.5216134686893
 30
0.0
 10
254.9442482849925
 20
250.3805987817721
 30
0.0
 10
254.9442482849925
 20
250.2675937069374
 30
0.0
 10
254.9442482849925
 20
249.9280148739379
 30
0.0
 10
254.9442482849925
 20
249.7008806569369
 30
0.0
 10
254.9442482849925
 20
249.3590618769966
 30
0.0
 10
254.9442482849925
 20
249.2449352497244
 30
0.0
 10
254.9442482849925
 20
249.1020375018343
 30
0.0
 10
254.9442482849925
 20
249.0734459619012
 30
0.0
 10
254.9442482849925
 20
249.0162386888724
 30
0.0
 10
254.9442482849925
 20
248.987624237297
 30
0.0
 10
254.9442482849925
 20
248.9021180079329
 30
0.0
 10
254.9442482849925
 20
248.8454381023864
 30
0.0
 10
254.9442482849925
 20
248.5636342616458
 30
0.0
 10
254.9442482849925
 20
248.3432697296361
 30
0.0
 10
254.9442482849925
 20
248.0201950464276
 30
0.0
 10
254.9442482849925
 20
247.9137542654371
 30
0.0
 10
254.9442482849925
 20
247.7560003280173
 30
0.0
 10
254.9442482849925
 20
247.7037339005109
 30
0.0
 10
254.9442482849925
 20
247.5998470244547
 30
0.0
 10
254.9442482849925
 20
247.5481422602518
 30
0.0
 10
254.9442482849925
 20
247.2933295837312
 30
0.0
 10
254.9442482849925
 20
246.9065558508015
 30
0.0
 10
254.9442482849925
 20
246.5602303584703
 30
0.0
 10
254.9442482849925
 20
246.3772117697763
 30
0.0
 10
254.9442482849925
 20
246.3570198438957
 30
0.0
 10
254.9442482849925
 20
246.3170855584625
 30
0.0
 10
254.9442482849925
 20
246.2578768908419
 30
0.0
 10
254.9442482849925
 20
246.2007270870497
 30
0.0
 10
254.9442482849925
 20
246.0891331653685
 30
0.0
 10
254.9442482849925
 20
246.0183408893673
 30
0.0
 10
254.9442482849925
 20
245.8166077648536
 30
0.0
 10
254.9442482849925
 20
245.696248895176
 30
0.0
 10
254.9442482849925
 20
245.5638355391534
 30
0.0
 10
254.9442482849925
 20
245.5382595423948
 30
0.0
 10
254.9442482849925
 20
245.5012778896829
 30
0.0
 10
254.9442482849925
 20
245.4891758429671
 30
0.0
 10
254.9442482849925
 20
245.4655245736726
 30
0.0
 10
254.9442482849925
 20
245.4077244499724
 30
0.0
 10
254.9442482849925
 20
245.3565068021789
 30
0.0
 10
254.9442482849925
 20
245.2460455426131
 30
0.0
 10
254.9442482849922
 20
245.1889458053371
 30
0.0
 10
254.9442482849922
 20
245.1487984152276
 30
0.0
  0
SPLINE
  5
2CA
330
1F
100
AcDbEntity
  8
1
100
AcDbSpline
210
0.0
220
0.0
230
1.0
 70
    24
 71
     3
 72
    32
 73
    28
 74
     0
 42
0.000000001
 43
0.0000000001
 40
0.0
 40
0.0
 40
0.0
 40
0.0
 40
0.1249999999999968
 40
0.1249999999999968
 40
0.1874999999999954
 40
0.1874999999999954
 40
0.2187499999999935
 40
0.2187499999999935
 40
0.2499999999999917
 40
0.2499999999999917
 40
0.3749999999999919
 40
0.3749999999999919
 40
0.4999999999999921
 40
0.4999999999999921
 40
0.5624999999999951
 40
0.5624999999999951
 40
0.5937499999999938
 40
0.5937499999999938
 40
0.6249999999999926
 40
0.687499999999989
 40
0.687499999999989
 40
0.7187499999999878
 40
0.7187499999999878
 40
0.7499999999999865
 40
0.7499999999999865
 40
0.8749999999999932
 40
1.0
 40
1.0
 40
1.0
 40
1.0
 10
243.9442482849925
 20
249.9000776473588
 30
0.0
 10
243.9442482849925
 20
250.0813750295359
 30
0.0
 10
243.9442482849925
 20
250.2613214187894
 30
0.0
 10
243.9442482849925
 20
250.5292074689053
 30
0.0
 10
243.9442482849925
 20
250.6181629794962
 30
0.0
 10
243.9442482849925
 20
250.7510770004995
 30
0.0
 10
243.9442482849925
 20
250.7952950715472
 30
0.0
 10
243.9442482849925
 20
250.8835556482543
 30
0.0
 10
243.9442482849925
 20
250.9275509699943
 30
0.0
 10
243.9442482849925
 20
251.1455905176778
 30
0.0
 10
243.9442482849925
 20
251.314991276007
 30
0.0
 10
243.9442482849925
 20
251.6440385742027
 30
0.0
 10
243.9442482849925
 20
251.8036844723514
 30
0.0
 10
243.9442482849925
 20
252.0357381059803
 30
0.0
 10
243.9442482849925
 20
252.1118501136819
 30
0.0
 10
243.9442482849925
 20
252.224114982811
 30
0.0
 10
243.9442482849925
 20
252.2612150775012
 30
0.0
 10
243.9442482849925
 20
252.3343935041014
 30
0.0
 10
243.9442482849925
 20
252.4427746594635
 30
0.0
 10
243.9442482849925
 20
252.5470190319972
 30
0.0
 10
243.9442482849925
 20
252.6485065992354
 30
0.0
 10
243.9442482849925
 20
252.6818759988363
 30
0.0
 10
243.9442482849925
 20
252.7476914649659
 30
0.0
 10
243.9442482849925
 20
252.7801698814724
 30
0.0
 10
243.9442482849925
 20
252.93981225223
 30
0.0
 10
243.9442482849923
 20
253.1771829216012
 30
0.0
 10
243.9442482849926
 20
253.3792019303332
 30
0.0
 10
243.9442482849926
 20
253.4711627486656
 30
0.0
  0
SPLINE
  5
2CB
330
1F
100
AcDbEntity
  8
1
100
AcDbSpline
210
0.0
220
0.0
230
1.0
 70
     8
 71
     3
 72
     8
 73
     4
 74
     0
 42
0.000000001
 43
0.0000000001
 40
0.0
 40
0.0
 40
0.0
 40
0.0
 40
1.0
 40
1.0
 40
1.0
 40
1.0
 10
243.9442482849925
 20
249.9000776473587
 30
0.0
 10
244.9964020333502
 20
249.9340868986298
 30
0.0
 10
246.0485515113519
 20
249.9681949936875
 30
0.0
 10
247.100695543881
 20
250.002437074508
 30
0.0
  0
SPLINE
  5
2CC
330
1F
100
AcDbEntity
  8
1
100
AcDbSpline
210
0.0
220
0.0
230
1.0
 70
     8
 71
     3
 72
     8
 73
     4
 74
     0
 42
0.000000001
 43
0.0000000001
 40
0.0
 40
0.0
 40
0.0
 40
0.0
 40
1.0
 40
1.0
 40
1.0
 40
1.0
 10
247.100695543881
 20
250.0024370745079
 30
0.0
 10
247.4422993000229
 20
250.0701075937141
 30
0.0
 10
247.78376785516
 20
250.1382683519844
 30
0.0
 10
248.1251099453998
 20
250.2068656996451
 30
0.0
  0
SPLINE
  5
2CD
330
1F
100
AcDbEntity
  8
1
100
AcDbSpline
210
0.0
220
0.0
230
1.0
 70
     8
 71
     3
 72
    10
 73
     6
 74
     0
 42
0.000000001
 43
0.0000000001
 40
0.0
 40
0.0
 40
0.0
 40
0.0
 40
0.5
 40
0.5
 40
1.0
 40
1.0
 40
1.0
 40
1.0
 10
248.1251099453995
 20
250.2068656996476
 30
0.0
 10
248.4978564879823
 20
250.2817742002451
 30
0.0
 10
248.8702183552377
 20
250.3581111073243
 30
0.0
 10
249.614050602556
 20
250.5140952613803
 30
0.0
 10
249.9855216593884
 20
250.593739995324
 30
0.0
 10
250.3564636270533
 20
250.6753493845035
 30
0.0
  0
SPLINE
  5
2CE
330
1F
100
AcDbEntity
  8
1
100
AcDbSpline
210
0.0
220
0.0
230
1.0
 70
     8
 71
     3
 72
    16
 73
    12
 74
     0
 42
0.000000001
 43
0.0000000001
 40
0.0
 40
0.0
 40
0.0
 40
0.0
 40
0.1167786857108854
 40
0.3375840142831667
 40
0.3375840142831667
 40
0.4479866785693073
 40
0.4479866785693073
 40
0.5583893428554477
 40
0.5583893428554477
 40
0.7791946714277241
 40
1.0
 40
1.0
 40
1.0
 40
1.0
 10
248.4600474031622
 20
274.9720362196617
 30
0.0
 10
248.4626223848681
 20
275.0300323608637
 30
0.0
 10
248.4700314909257
 20
275.1969998023038
 30
0.0
 10
248.4773401719602
 20
275.3619738324774
 30
0.0
 10
248.4844459693725
 20
275.5225448457313
 30
0.0
 10
248.4868037367395
 20
275.5758535089176
 30
0.0
 10
248.4914972295495
 20
275.6820333086812
 30
0.0
 10
248.4938202749016
 20
275.7346176404327
 30
0.0
 10
248.5007010024758
 20
275.8904610007772
 30
0.0
 10
248.5096560440721
 20
276.0935323505021
 30
0.0
 10
248.5181738701972
 20
276.287192265558
 30
0.0
 10
248.5223195751647
 20
276.3815853226083
 30
0.0
  0
SPLINE
  5
2CF
330
1F
100
AcDbEntity
  8
1
100
AcDbSpline
210
0.0
220
0.0
230
1.0
 70
     8
 71
     3
 72
    18
 73
    14
 74
     0
 42
0.000000001
 43
0.0000000001
 40
0.0
 40
0.0
 40
0.0
 40
0.0
 40
0.1321090997166074
 40
0.1321090997166074
 40
0.1981636495749111
 40
0.1981636495749111
 40
0.2642181994332148
 40
0.2642181994332148
 40
0.5284363988664181
 40
0.5284363988664181
 40
0.7926545982996214
 40
0.7926545982996214
 40
1.0
 40
1.0
 40
1.0
 40
1.0
 10
248.5320329429316
 20
276.60274782331
 30
0.0
 10
248.5286454529995
 20
276.5268831996801
 30
0.0
 10
248.5252627397417
 20
276.4511668657424
 30
0.0
 10
248.5201959420841
 20
276.3378181279015
 30
0.0
 10
248.5185082221845
 20
276.3000728615492
 30
0.0
 10
248.5151352332301
 20
276.2246584142103
 30
0.0
 10
248.5134479837254
 20
276.186944981997
 30
0.0
 10
248.5050415453094
 20
275.9990978641613
 30
0.0
 10
248.498454314338
 20
275.8520737727514
 30
0.0
 10
248.4855462380972
 20
275.5643097748255
 30
0.0
 10
248.4792254197679
 20
275.4235705038422
 30
0.0
 10
248.4681813675829
 20
275.1779777236696
 30
0.0
 10
248.4634071016541
 20
275.0719203398688
 30
0.0
 10
248.4587164694662
 20
274.967835921911
 30
0.0
  0
SPLINE
  5
2D0
330
1F
100
AcDbEntity
  8
1
100
AcDbSpline
210
0.0
220
0.0
230
1.0
 70
    12
 71
     2
 72
     6
 73
     3
 74
     0
 42
0.000000001
 43
0.0000000001
 40
0.0
 40
0.0
 40
0.0
 40
1.0
 40
1.0
 40
1.0
 10
254.9442482849927
 20
261.6693374857986
 30
0.0
 41
0.5000000900817632
 10
254.6525495537869
 20
261.6817582385636
 30
0.0
 41
0.4999999099182368
 10
254.3608510914473
 20
261.6941780790594
 30
0.0
 41
0.5000000900817632
  0
SPLINE
  5
2D1
330
1F
100
AcDbEntity
  8
1
100
AcDbSpline
210
0.0
220
0.0
230
1.0
 70
    12
 71
     2
 72
     6
 73
     3
 74
     0
 42
0.000000001
 43
0.0000000001
 40
0.0
 40
0.0
 40
0.0
 40
1.0
 40
1.0
 40
1.0
 10
254.3608510914475
 20
261.6941780790591
 30
0.0
 41
0.5000018315895064
 10
254.3739265247082
 20
261.9865297985689
 30
0.0
 41
0.4999981684104937
 10
254.3869811400038
 20
262.2783671382393
 30
0.0
 41
0.5000018315895064
  0
SPLINE
  5
2D2
330
1F
100
AcDbEntity
  8
1
100
AcDbSpline
210
0.0
220
0.0
230
1.0
 70
    12
 71
     2
 72
     6
 73
     3
 74
     0
 42
0.000000001
 43
0.0000000001
 40
0.0
 40
0.0
 40
0.0
 40
1.0
 40
1.0
 40
1.0
 10
244.5276454785375
 20
231.1532897202534
 30
0.0
 41
0.50000038266261
 10
244.2359470150996
 20
231.140741157454
 30
0.0
 41
0.4999996173373899
 10
243.9442482849925
 20
231.1281932977871
 30
0.0
 41
0.50000038266261
  0
SPLINE
  5
2D3
330
1F
100
AcDbEntity
  8
1
100
AcDbSpline
210
0.0
220
0.0
230
1.0
 70
    12
 71
     2
 72
     6
 73
     3
 74
     0
 42
0.000000001
 43
0.0000000001
 40
0.0
 40
0.0
 40
0.0
 40
1.0
 40
1.0
 40
1.0
 10
244.5276454785374
 20
321.5995045483611
 30
0.0
 41
0.5000000858190225
 10
244.2359470150996
 20
321.5973448514945
 30
0.0
 41
0.4999999141809777
 10
243.9442482849924
 20
321.5951810734858
 30
0.0
 41
0.5000000858190225
  0
SPLINE
  5
2D4
330
1F
100
AcDbEntity
  8
1
100
AcDbSpline
210
0.0
220
0.0
230
1.0
 70
    12
 71
     2
 72
     6
 73
     3
 74
     0
 42
0.000000001
 43
0.0000000001
 40
0.0
 40
0.0
 40
0.0
 40
1.0
 40
1.0
 40
1.0
 10
254.9442482849927
 20
168.0544807623858
 30
0.0
 41
0.5000003797137105
 10
254.9318283596315
 20
168.0546000992618
 30
0.0
 41
0.5000003473788233
 10
254.9194084316853
 20
168.0547194434905
 30
0.0
 41
0.5000003177974446
  0
SPLINE
  5
2D5
330
1F
100
AcDbEntity
  8
1
100
AcDbSpline
210
0.0
220
0.0
230
1.0
 70
    24
 71
     3
 72
     8
 73
     4
 74
     0
 42
0.000000001
 43
0.0000000001
 40
0.0
 40
0.0
 40
0.0
 40
0.0
 40
1.0
 40
1.0
 40
1.0
 40
1.0
 10
243.9442482849924
 20
177.6560779586936
 30
0.0
 10
243.9442482849924
 20
177.7158846748544
 30
0.0
 10
243.9442482849924
 20
177.775753236237
 30
0.0
 10
243.9442482849924
 20
177.8356829586936
 30
0.0
  0
SPLINE
  5
2D6
330
1F
100
AcDbEntity
  8
1
100
AcDbSpline
210
0.0
220
0.0
230
1.0
 70
     8
 71
     3
 72
     8
 73
     4
 74
     0
 42
0.000000001
 43
0.0000000001
 40
0.0
 40
0.0
 40
0.0
 40
0.0
 40
1.0
 40
1.0
 40
1.0
 40
1.0
 10
248.3591648248833
 20
177.855803734828
 30
0.0
 10
248.3596207955247
 20
177.7890437382093
 30
0.0
 10
248.3601447020929
 20
177.7224680964894
 30
0.0
 10
248.3607369680107
 20
177.6560779586936
 30
0.0
  0
SPLINE
  5
2D7
330
1F
100
AcDbEntity
  8
1
100
AcDbSpline
210
0.0
220
0.0
230
1.0
 70
    12
 71
     2
 72
     6
 73
     3
 74
     0
 42
0.000000001
 43
0.0000000001
 40
0.0
 40
0.0
 40
0.0
 40
1.0
 40
1.0
 40
1.0
 10
254.9442482849927
 20
310.6297184619803
 30
0.0
 41
0.4999998001443648
 10
254.6525495537869
 20
310.6365193902272
 30
0.0
 41
0.5000001998556352
 10
254.3608510914473
 20
310.6433168170164
 30
0.0
 41
0.4999998001443648
  0
SPLINE
  5
2D8
330
1F
100
AcDbEntity
  8
1
100
AcDbSpline
210
0.0
220
0.0
230
1.0
 70
    24
 71
     3
 72
    16
 73
    12
 74
     0
 42
0.000000001
 43
0.0000000001
 40
0.0
 40
0.0
 40
0.0
 40
0.0
 40
0.4583475941945215
 40
0.4583475941945215
 40
0.5729344927431452
 40
0.5729344927431452
 40
0.6875213912917692
 40
0.6875213912917692
 40
0.9166951883890311
 40
0.9166951883890311
 40
1.0
 40
1.0
 40
1.0
 40
1.0
 10
254.9442482849925
 20
301.1040593329088
 30
0.0
 10
254.9442482849925
 20
300.8812530470221
 30
0.0
 10
254.9442482849925
 20
300.6552864115294
 30
0.0
 10
254.9442482849925
 20
300.3688874885866
 30
0.0
 10
254.9442482849925
 20
300.3114112752525
 30
0.0
 10
254.9442482849925
 20
300.1965521764706
 30
0.0
 10
254.9442482849925
 20
300.1391080696803
 30
0.0
 10
254.9442482849925
 20
299.9667322643942
 30
0.0
 10
254.9442482849925
 20
299.8517571449925
 30
0.0
 10
254.9442482849925
 20
299.6949091636727
 30
0.0
 10
254.9442482849925
 20
299.6530543530752
 30
0.0
 10
254.9442482849925
 20
299.6112553329162
 30
0.0
  0
SPLINE
  5
2D9
330
1F
100
AcDbEntity
  8
1
100
AcDbSpline
210
0.0
220
0.0
230
1.0
 70
    24
 71
     3
 72
     8
 73
     4
 74
     0
 42
0.000000001
 43
0.0000000001
 40
0.0
 40
0.0
 40
0.0
 40
0.0
 40
1.0
 40
1.0
 40
1.0
 40
1.0
 10
243.9442482849924
 20
300.6741863328829
 30
0.0
 10
243.9442482849925
 20
300.8184535640373
 30
0.0
 10
243.9442482849925
 20
300.9617507060947
 30
0.0
 10
243.9442482849926
 20
301.1040593329084
 30
0.0
  0
SPLINE
  5
2DA
330
1F
100
AcDbEntity
  8
1
100
AcDbSpline
210
0.0
220
0.0
230
1.0
 70
    12
 71
     2
 72
     6
 73
     3
 74
     0
 42
0.000000001
 43
0.0000000001
 40
0.0
 40
0.0
 40
0.0
 40
1.0
 40
1.0
 40
1.0
 10
244.5276454785374
 20
180.478886615438
 30
0.0
 41
0.5000006847241635
 10
244.2359470161005
 20
180.4715405779133
 30
0.0
 41
0.4999993152758367
 10
243.9442482849924
 20
180.4641979233311
 30
0.0
 41
0.5000006847241635
  0
SPLINE
  5
2DB
330
1F
100
AcDbEntity
  8
1
100
AcDbSpline
210
0.0
220
0.0
230
1.0
 70
    24
 71
     3
 72
    35
 73
    31
 74
     0
 42
0.000000001
 43
0.0000000001
 40
0.0
 40
0.0
 40
0.0
 40
0.0
 40
0.1056312848113341
 40
0.1056312848113341
 40
0.1695147644676604
 40
0.1695147644676604
 40
0.2014565042958241
 40
0.2014565042958241
 40
0.233398244123988
 40
0.233398244123988
 40
0.3611652034366479
 40
0.488932162749308
 40
0.488932162749308
 40
0.5049030326633924
 40
0.5049030326633924
 40
0.5208739025774767
 40
0.5528156424056454
 40
0.5528156424056454
 40
0.6166991220619828
 40
0.6166991220619828
 40
0.7444660813746575
 40
0.7444660813746575
 40
0.7764078212028283
 40
0.7764078212028283
 40
0.7923786911169124
 40
0.7923786911169124
 40
0.8083495610309965
 40
0.8722330406873316
 40
0.8722330406873316
 40
1.0
 40
1.0
 40
1.0
 40
1.0
 10
254.9442482849925
 20
198.6761710582387
 30
0.0
 10
254.9442482849925
 20
198.5184722135469
 30
0.0
 10
254.9442482849925
 20
198.3551418623258
 30
0.0
 10
254.9442482849925
 20
198.0841389609262
 30
0.0
 10
254.9442482849925
 20
197.9799726579289
 30
0.0
 10
254.9442482849925
 20
197.8206187646919
 30
0.0
 10
254.9442482849925
 20
197.7669828307041
 30
0.0
 10
254.9442482849925
 20
197.6586594913155
 30
0.0
 10
254.9442482849925
 20
197.6038785117433
 30
0.0
 10
254.9442482849925
 20
197.3295441255617
 30
0.0
 10
254.9442482849925
 20
196.8851595800572
 30
0.0
 10
254.9442482849925
 20
196.430241821514
 30
0.0
 10
254.9442482849925
 20
196.1712804531734
 30
0.0
 10
254.9442482849925
 20
196.1424332903029
 30
0.0
 10
254.9442482849925
 20
196.0848217595535
 30
0.0
 10
254.9442482849925
 20
195.9985573171038
 30
0.0
 10
254.9442482849925
 20
195.9127471512589
 30
0.0
 10
254.9442482849925
 20
195.7417238137892
 30
0.0
 10
254.9442482849925
 20
195.6285033851788
 30
0.0
 10
254.9442482849925
 20
195.2911905720428
 30
0.0
 10
254.9442482849925
 20
195.0694330410178
 30
0.0
 10
254.9442482849925
 20
194.7962154984928
 30
0.0
 10
254.9442482849925
 20
194.7417720425524
 30
0.0
 10
254.9442482849925
 20
194.6604118646432
 30
0.0
 10
254.9442482849925
 20
194.6333297239481
 30
0.0
 10
254.9442482849925
 20
194.5794705799588
 30
0.0
 10
254.9442482849925
 20
194.4454666833877
 30
0.0
 10
254.9442482849925
 20
194.3146545906337
 30
0.0
 10
254.9442482849925
 20
194.0067478797005
 30
0.0
 10
254.9442482849922
 20
193.8094974222745
 30
0.0
 10
254.9442482849922
 20
193.6204670581933
 30
0.0
  0
SPLINE
  5
2DC
330
1F
100
AcDbEntity
  8
1
100
AcDbSpline
210
0.0
220
0.0
230
1.0
 70
     8
 71
     3
 72
    40
 73
    36
 74
     0
 42
0.000000001
 43
0.0000000001
 40
0.0
 40
0.0
 40
0.0
 40
0.0
 40
0.0856054429398627
 40
0.0856054429398627
 40
0.1712108858797254
 40
0.1712108858797254
 40
0.256816328819588
 40
0.256816328819588
 40
0.2782176895545564
 40
0.2782176895545564
 40
0.2996190502895248
 40
0.2996190502895248
 40
0.3424217717594653
 40
0.3424217717594653
 40
0.4280272146993507
 40
0.513632657639236
 40
0.513632657639236
 40
0.5564353791091808
 40
0.5564353791091808
 40
0.577836739844153
 40
0.577836739844153
 40
0.5992381005791251
 40
0.5992381005791251
 40
0.6848435435190182
 40
0.7704489864589114
 40
0.7704489864589114
 40
0.8132517079288577
 40
0.8132517079288577
 40
0.8346530686638335
 40
0.8346530686638335
 40
0.8560544293988092
 40
0.8560544293988092
 40
0.9416598723387089
 40
0.9416598723387089
 40
1.0
 40
1.0
 40
1.0
 40
1.0
 10
250.5277596019741
 20
193.6204670581926
 30
0.0
 10
250.5291140521146
 20
193.7478795106533
 30
0.0
 10
250.5301059693279
 20
193.878776367814
 30
0.0
 10
250.5313906579799
 20
194.1472897664496
 30
0.0
 10
250.5316833529311
 20
194.2849070430662
 30
0.0
 10
250.5315725733243
 20
194.5668326749004
 30
0.0
 10
250.5311691405392
 20
194.7111406286266
 30
0.0
 10
250.5302178252538
 20
194.8958220455859
 30
0.0
 10
250.5300051539187
 20
194.9329737011647
 30
0.0
 10
250.5295344588078
 20
195.0077129072311
 30
0.0
 10
250.5292768997935
 20
195.0452193910768
 30
0.0
 10
250.5284406372131
 20
195.1577861740377
 30
0.0
 10
250.5277974802235
 20
195.2330410096064
 30
0.0
 10
250.5256158346096
 20
195.459424741315
 30
0.0
 10
250.5220357988232
 20
195.7629178141047
 30
0.0
 10
250.5171314232201
 20
196.0696628566776
 30
0.0
 10
250.5129474832849
 20
196.3009633027733
 30
0.0
 10
250.5114683965186
 20
196.3782707975919
 30
0.0
 10
250.5091204040781
 20
196.4945496941384
 30
0.0
 10
250.508316465779
 20
196.5333438978075
 30
0.0
 10
250.5066748521743
 20
196.6105866717133
 30
0.0
 10
250.5058360635051
 20
196.6490910938122
 30
0.0
 10
250.5015531666697
 20
196.8410345974268
 30
0.0
 10
250.4941326801187
 20
197.1444505555218
 30
0.0
 10
250.4856017054905
 20
197.4406432327159
 30
0.0
 10
250.478783267261
 20
197.6600544604204
 30
0.0
 10
250.4764402846783
 20
197.732735109574
 30
0.0
 10
250.4728188121574
 20
197.8410600998915
 30
0.0
 10
250.4715938123863
 20
197.8770523732032
 30
0.0
 10
250.469107723046
 20
197.9488021701213
 30
0.0
 10
250.4678456943181
 20
197.9845840385365
 30
0.0
 10
250.4614813981131
 20
198.1618780755042
 30
0.0
 10
250.4561905000184
 20
198.2993423366048
 30
0.0
 10
250.4469689323249
 20
198.523368230154
 30
0.0
 10
250.4431417349957
 20
198.6121973421226
 30
0.0
 10
250.4392247751161
 20
198.6990594077965
 30
0.0
  0
SPLINE
  5
2DD
330
1F
100
AcDbEntity
  8
1
100
AcDbSpline
210
0.0
220
0.0
230
1.0
 70
     8
 71
     3
 72
    18
 73
    14
 74
     0
 42
0.000000001
 43
0.0000000001
 40
0.0
 40
0.0
 40
0.0
 40
0.0
 40
0.2416261788638698
 40
0.4832523577277396
 40
0.4832523577277396
 40
0.5436589024436999
 40
0.5436589024436999
 40
0.60406544715966
 40
0.7248785365915943
 40
0.7248785365915943
 40
0.9665047154554587
 40
0.9665047154554587
 40
1.0
 40
1.0
 40
1.0
 40
1.0
 10
251.7878010261039
 20
275.9367419823757
 30
0.0
 10
251.7853935101591
 20
275.8555762410735
 30
0.0
 10
251.7798112605833
 20
275.6893994231517
 30
0.0
 10
251.7742401693317
 20
275.5155587563206
 30
0.0
 10
251.7708552369441
 20
275.4044714828181
 30
0.0
 10
251.7701808878325
 20
275.3821093506699
 30
0.0
 10
251.7688402843139
 20
275.3373205942935
 30
0.0
 10
251.7668396383574
 20
275.2699986812803
 30
0.0
 10
251.7648446136205
 20
275.2022659397444
 30
0.0
 10
251.7607443656817
 20
275.0662655652799
 30
0.0
 10
251.7578495841147
 20
274.9748871606248
 30
0.0
 10
251.7538905072764
 20
274.8700581568276
 30
0.0
 10
251.7534001188251
 20
274.8572821889501
 30
0.0
 10
251.7529024830919
 20
274.8444928274331
 30
0.0
  0
SPLINE
  5
2DE
330
1F
100
AcDbEntity
  8
1
100
AcDbSpline
210
0.0
220
0.0
230
1.0
 70
     8
 71
     3
 72
    25
 73
    21
 74
     0
 42
0.000000001
 43
0.0000000001
 40
0.0
 40
0.0
 40
0.0
 40
0.0
 40
0.1250000000000055
 40
0.2500000000000111
 40
0.2500000000000111
 40
0.281250000000015
 40
0.281250000000015
 40
0.3125000000000191
 40
0.375000000000013
 40
0.375000000000013
 40
0.5000000000000171
 40
0.5000000000000171
 40
0.6250000000000209
 40
0.6250000000000209
 40
0.6875000000000174
 40
0.6875000000000174
 40
0.7500000000000141
 40
0.7500000000000141
 40
0.8750000000000071
 40
1.0
 40
1.0
 40
1.0
 40
1.0
 10
251.7878010261039
 20
223.2203909093634
 30
0.0
 10
251.7853935101591
 20
223.1969303772213
 30
0.0
 10
251.7798112605835
 20
223.1416259552786
 30
0.0
 10
251.7742401693318
 20
223.0696837671307
 30
0.0
 10
251.7708552369442
 20
223.0194339024834
 30
0.0
 10
251.7701808878325
 20
223.0091081757938
 30
0.0
 10
251.7688402843139
 20
222.9880094513087
 30
0.0
 10
251.7668396383577
 20
222.9556725844624
 30
0.0
 10
251.7648446136207
 20
222.9212928807072
 30
0.0
 10
251.7607443656818
 20
222.8498555606685
 30
0.0
 10
251.7578495841149
 20
222.7986663686569
 30
0.0
 10
251.7508954439586
 20
222.6892632709224
 30
0.0
 10
251.7469822074067
 20
222.6310451526209
 30
0.0
 10
251.7410968691166
 20
222.5383463348741
 30
0.0
 10
251.7391281996689
 20
222.5065501432518
 30
0.0
 10
251.7352299236531
 20
222.44113173633
 30
0.0
 10
251.7332977610423
 20
222.407456541255
 30
0.0
 10
251.7276289017965
 20
222.304505930489
 30
0.0
 10
251.7204200530928
 20
222.1616606372123
 30
0.0
 10
251.7131684709824
 20
222.0077907119222
 30
0.0
 10
251.7090400979175
 20
221.9280667412662
 30
0.0
  0
SPLINE
  5
2DF
330
1F
100
AcDbEntity
  8
1
100
AcDbSpline
210
0.0
220
0.0
230
1.0
 70
    12
 71
     2
 72
     6
 73
     3
 74
     0
 42
0.000000001
 43
0.0000000001
 40
0.0
 40
0.0
 40
0.0
 40
1.0
 40
1.0
 40
1.0
 10
244.5276454785374
 20
289.607363598542
 30
0.0
 41
0.5000006847268508
 10
244.2359470161006
 20
289.5969632884284
 30
0.0
 41
0.4999993152731494
 10
243.9442482849924
 20
289.58656058963
 30
0.0
 41
0.5000006847268508
  0
SPLINE
  5
2E0
330
1F
100
AcDbEntity
  8
1
100
AcDbSpline
210
0.0
220
0.0
230
1.0
 70
    24
 71
     3
 72
    34
 73
    30
 74
     0
 42
0.000000001
 43
0.0000000001
 40
0.0
 40
0.0
 40
0.0
 40
0.0
 40
0.1250000000000081
 40
0.1250000000000081
 40
0.1562500000000091
 40
0.1562500000000091
 40
0.1875000000000101
 40
0.1875000000000101
 40
0.2500000000000101
 40
0.31250000000001
 40
0.31250000000001
 40
0.37500000000001
 40
0.37500000000001
 40
0.500000000000004
 40
0.500000000000004
 40
0.5312500000000037
 40
0.5312500000000037
 40
0.5625000000000035
 40
0.6250000000000023
 40
0.6250000000000023
 40
0.7500000000000049
 40
0.7500000000000049
 40
0.8125000000000062
 40
0.8125000000000062
 40
0.8437500000000046
 40
0.8437500000000046
 40
0.875000000000003
 40
0.875000000000003
 40
1.0
 40
1.0
 40
1.0
 40
1.0
 10
254.9442482849925
 20
279.9944908216011
 30
0.0
 10
254.9442482849925
 20
279.8487347591812
 30
0.0
 10
254.9442482849925
 20
279.6968780283791
 30
0.0
 10
254.9442482849925
 20
279.4994898914241
 30
0.0
 10
254.9442482849925
 20
279.4596325714465
 30
0.0
 10
254.9442482849925
 20
279.3791546663795
 30
0.0
 10
254.9442482849925
 20
279.3385159540553
 30
0.0
 10
254.9442482849925
 20
279.2158585886829
 30
0.0
 10
254.9442482849925
 20
279.0500923298819
 30
0.0
 10
254.9442482849925
 20
278.8799077978718
 30
0.0
 10
254.9442482849925
 20
278.7075032349056
 30
0.0
 10
254.9442482849925
 20
278.6201121390022
 30
0.0
 10
254.9442482849925
 20
278.3563382204981
 30
0.0
 10
254.9442482849925
 20
278.1778309598597
 30
0.0
 10
254.9442482849925
 20
277.9513580157982
 30
0.0
 10
254.9442482849925
 20
277.9059105588995
 30
0.0
 10
254.9442482849925
 20
277.8151489804893
 30
0.0
 10
254.9442482849925
 20
277.6790326409784
 30
0.0
 10
254.9442482849925
 20
277.542993361786
 30
0.0
 10
254.9442482849925
 20
277.2710159410148
 30
0.0
 10
254.9442482849925
 20
277.0898321460596
 30
0.0
 10
254.9442482849925
 20
276.8182585349875
 30
0.0
 10
254.9442482849925
 20
276.7277677691627
 30
0.0
 10
254.9442482849925
 20
276.5920831714112
 30
0.0
 10
254.9442482849925
 20
276.5468635700793
 30
0.0
 10
254.9442482849925
 20
276.4564417888732
 30
0.0
 10
254.9442482849925
 20
276.4112157383944
 30
0.0
 10
254.9442482849925
 20
276.186683734206
 30
0.0
 10
254.9442482849925
 20
276.0109286058374
 30
0.0
 10
254.9442482849925
 20
275.8389190038951
 30
0.0
  0
SPLINE
  5
2E1
330
1F
100
AcDbEntity
  8
1
100
AcDbSpline
210
0.0
220
0.0
230
1.0
 70
    24
 71
     3
 72
    45
 73
    41
 74
     0
 42
0.000000001
 43
0.0000000001
 40
0.0
 40
0.0
 40
0.0
 40
0.0
 40
0.0040107889971774
 40
0.0040107889971774
 40
0.0309294163215712
 40
0.0309294163215712
 40
0.1386039256191504
 40
0.1386039256191504
 40
0.1924411802679407
 40
0.1924411802679407
 40
0.2193598075923366
 40
0.2193598075923366
 40
0.2462784349167326
 40
0.2462784349167326
 40
0.3539529442143225
 40
0.3539529442143225
 40
0.4616274535119123
 40
0.4616274535119123
 40
0.4750867671741119
 40
0.4750867671741119
 40
0.4885460808363115
 40
0.515464708160714
 40
0.515464708160714
 40
0.5693019628095226
 40
0.5693019628095226
 40
0.6769764721071397
 40
0.6769764721071397
 40
0.7038950994315455
 40
0.7038950994315455
 40
0.7308137267559515
 40
0.7308137267559515
 40
0.7846509814047594
 40
0.7846509814047594
 40
0.8115696087291633
 40
0.8115696087291633
 40
0.8384882360535673
 40
0.8384882360535673
 40
0.8923254907023782
 40
0.8923254907023782
 40
1.0
 40
1.0
 40
1.0
 40
1.0
 10
243.9442482849925
 20
274.1441078216959
 30
0.0
 10
243.9442482849925
 20
274.1503003827231
 30
0.0
 10
243.9442482849925
 20
274.1565075229114
 30
0.0
 10
243.9442482849925
 20
274.2044766557067
 30
0.0
 10
243.9442482849925
 20
274.2468635503669
 30
0.0
 10
243.9442482849925
 20
274.4619405362556
 30
0.0
 10
243.9442482849925
 20
274.6440036986257
 30
0.0
 10
243.9442482849925
 20
274.9318487399555
 30
0.0
 10
243.9442482849925
 20
275.0302661529102
 30
0.0
 10
243.9442482849925
 20
275.1816618831311
 30
0.0
 10
243.9442482849925
 20
275.2327560824643
 30
0.0
 10
243.9442482849925
 20
275.3362220931239
 30
0.0
 10
243.9442482849925
 20
275.3886487840343
 30
0.0
 10
243.9442482849925
 20
275.6517455377425
 30
0.0
 10
243.9442482849925
 20
275.866954822603
 30
0.0
 10
243.9442482849925
 20
276.3065391736488
 30
0.0
 10
243.9442482849925
 20
276.5309139119423
 30
0.0
 10
243.9442482849925
 20
276.7886908862686
 30
0.0
 10
243.9442482849925
 20
276.8174332312219
 30
0.0
 10
243.9442482849925
 20
276.8748372699665
 30
0.0
 10
243.9442482849925
 20
276.9608861141782
 30
0.0
 10
243.9442482849925
 20
277.0467648807331
 30
0.0
 10
243.9442482849925
 20
277.2182987995913
 30
0.0
 10
243.9442482849925
 20
277.3323569167271
 30
0.0
 10
243.9442482849925
 20
277.6736507712993
 30
0.0
 10
243.9442482849925
 20
277.9000111611999
 30
0.0
 10
243.9442482849925
 20
278.1814666060013
 30
0.0
 10
243.9442482849925
 20
278.2376825331158
 30
0.0
 10
243.9442482849925
 20
278.3499615045717
 30
0.0
 10
243.9442482849925
 20
278.4058467378736
 30
0.0
 10
243.9442482849925
 20
278.5723226250099
 30
0.0
 10
243.9442482849925
 20
278.6819141003508
 30
0.0
 10
243.9442482849925
 20
278.8442176647152
 30
0.0
 10
243.9442482849925
 20
278.8979711950209
 30
0.0
 10
243.9442482849925
 20
279.0047791446676
 30
0.0
 10
243.9442482849925
 20
279.0578632816457
 30
0.0
 10
243.9442482849925
 20
279.2152261010951
 30
0.0
 10
243.9442482849925
 20
279.3178914267858
 30
0.0
 10
243.9442482849925
 20
279.6192596241114
 30
0.0
 10
243.9442482849925
 20
279.8113738778924
 30
0.0
 10
243.9442482849925
 20
279.9944908216007
 30
0.0
  0
SPLINE
  5
2E2
330
1F
100
AcDbEntity
  8
1
100
AcDbSpline
210
0.0
220
0.0
230
1.0
 70
     8
 71
     3
 72
    10
 73
     6
 74
     0
 42
0.000000001
 43
0.0000000001
 40
0.0
 40
0.0
 40
0.0
 40
0.0
 40
0.5
 40
0.5
 40
1.0
 40
1.0
 40
1.0
 40
1.0
 10
248.5320329429316
 20
276.60274782331
 30
0.0
 10
248.9029749105966
 20
276.519492211757
 30
0.0
 10
249.274445967429
 20
276.4391698324504
 30
0.0
 10
250.0182782147473
 20
276.2834599107175
 30
0.0
 10
250.3906400820027
 20
276.208076120252
 30
0.0
 10
250.7633866245855
 20
276.1348249421028
 30
0.0
  0
SPLINE
  5
2E3
330
1F
100
AcDbEntity
  8
1
100
AcDbSpline
210
0.0
220
0.0
230
1.0
 70
     8
 71
     3
 72
     8
 73
     4
 74
     0
 42
0.000000001
 43
0.0000000001
 40
0.0
 40
0.0
 40
0.0
 40
0.0
 40
1.0
 40
1.0
 40
1.0
 40
1.0
 10
250.7633866245855
 20
276.1348249421028
 30
0.0
 10
251.1047287148253
 20
276.0677452850015
 30
0.0
 10
251.4461972699621
 20
276.0017118299917
 30
0.0
 10
251.7878010261039
 20
275.9367419823757
 30
0.0
  0
SPLINE
  5
2E4
330
1F
100
AcDbEntity
  8
1
100
AcDbSpline
210
0.0
220
0.0
230
1.0
 70
     8
 71
     3
 72
     8
 73
     4
 74
     0
 42
0.000000001
 43
0.0000000001
 40
0.0
 40
0.0
 40
0.0
 40
0.0
 40
1.0
 40
1.0
 40
1.0
 40
1.0
 10
251.787801026104
 20
275.9367419823757
 30
0.0
 10
252.839945058633
 20
275.9038664732315
 30
0.0
 10
253.8920945366347
 20
275.87127132184
 30
0.0
 10
254.9442482849925
 20
275.8389190038951
 30
0.0
  0
LINE
  5
2EF
330
1F
100
AcDbEntity
  8
SK4
100
AcDbLine
 10
242.444248
 20
244.434018
 30
0.0
 11
255.844248
 21
244.434018
 31
0.0
  0
LINE
  5
2F0
330
1F
100
AcDbEntity
  8
4
100
AcDbLine
 10
243.044248
 20
244.434018
 30
0.0
 11
255.244248
 21
244.434018
 31
0.0
  0
MTEXT
  5
2F1
330
1F
100
AcDbEntity
  8
SK6
100
AcDbMText
 10
228.436319
 20
86.66629
 30
0.0
 40
3.5
 41
0.0
 71
     7
 72
     5
  1
\W0.7560;160H16N-S90SN12N12\P\P\P\P\P\P\P\P\P\P\P\P 
  7
cesky
 73
     1
 44
0.8433729999999998
  0
MTEXT
  5
3D3
330
1F
100
AcDbEntity
  8
2
100
AcDbMText
 10
235.091776
 20
299.591518
 30
0.0
 40
3.5
 41
0.0
 71
     7
 72
     5
  1
\W0.7259;46
  7
cesky
 11
0.0000000000000001
 21
1.0
 31
0.0
 73
     2
 44
0.8433729999999998
  0
LINE
  5
3D4
330
1F
100
AcDbEntity
  8
2
100
AcDbLine
 10
244.944248
 20
278.434018
 30
0.0
 11
233.622942
 21
278.434018
 31
0.0
  0
LINE
  5
3D5
330
1F
100
AcDbEntity
  8
2
100
AcDbLine
 10
255.444248
 20
324.434018
 30
0.0
 11
233.622942
 21
324.434018
 31
0.0
  0
LINE
  5
3D6
330
1F
100
AcDbEntity
  8
2
100
AcDbLine
 10
234.622942
 20
278.434018
 30
0.0
 11
234.622942
 21
324.434018
 31
0.0
  0
SOLID
  5
3D7
330
1F
100
AcDbEntity
  8
2
100
AcDbTrace
 10
234.622942
 20
278.434018
 30
0.0
 11
234.005798
 21
281.934016
 31
0.0
 12
235.240087
 22
281.934021
 32
0.0
 13
235.240087
 23
281.934021
 33
0.0
  0
SOLID
  5
3D8
330
1F
100
AcDbEntity
  8
2
100
AcDbTrace
 10
234.622942
 20
324.434018
 30
0.0
 11
235.240087
 21
320.934021
 31
0.0
 12
234.005798
 22
320.934016
 32
0.0
 13
234.005798
 23
320.934016
 33
0.0
  0
MTEXT
  5
3D9
330
1F
100
AcDbEntity
  8
2
100
AcDbMText
 10
247.63101
 20
330.733354
 30
0.0
 40
3.5
 41
0.0
 71
     7
 72
     5
  1
\W0.7984;12
  7
cesky
 73
     2
 44
0.8433729999999998
  0
LINE
  5
3DA
330
1F
100
AcDbEntity
  8
2
100
AcDbLine
 10
243.446773
 20
324.273475
 30
0.0
 11
243.446773
 21
331.859188
 31
0.0
  0
LINE
  5
3DB
330
1F
100
AcDbEntity
  8
2
100
AcDbLine
 10
255.444248
 20
326.434018
 30
0.0
 11
255.444248
 21
331.859188
 31
0.0
  0
LINE
  5
3DC
330
1F
100
AcDbEntity
  8
2
100
AcDbLine
 10
234.696773
 20
330.859188
 30
0.0
 11
264.194248
 21
330.859188
 31
0.0
  0
SOLID
  5
3DD
330
1F
100
AcDbEntity
  8
2
100
AcDbTrace
 10
243.446773
 20
330.859188
 30
0.0
 11
239.946775
 21
330.242043
 31
0.0
 12
239.94677
 22
331.4763319999999
 32
0.0
 13
239.94677
 23
331.4763319999999
 33
0.0
  0
SOLID
  5
3DE
330
1F
100
AcDbEntity
  8
2
100
AcDbTrace
 10
255.444248
 20
330.859188
 30
0.0
 11
258.944246
 21
331.4763319999999
 31
0.0
 12
258.944251
 22
330.242043
 32
0.0
 13
258.944251
 23
330.242043
 33
0.0
  0
MTEXT
  5
3DF
330
1F
100
AcDbEntity
  8
2
100
AcDbMText
 10
266.636127
 20
238.854462
 30
0.0
 40
3.5
 41
0.0
 71
     7
 72
     5
  1
\W0.7809;160
  7
cesky
 11
0.0000000000000001
 21
1.0
 31
0.0
 73
     2
 44
0.8433729999999998
  0
MTEXT
  5
3E0
330
1F
100
AcDbEntity
  8
2
100
AcDbMText
 10
266.636127
 20
232.116962
 30
0.0
 40
3.5
 41
0.0
 71
     7
 72
     5
  1
\W3.0115;\H2.63;%%c\H3.50;
  7
cesky
 11
0.0000000000000001
 21
1.0
 31
0.0
 73
     2
 44
0.8433729999999998
  0
LINE
  5
3E1
330
1F
100
AcDbEntity
  8
2
100
AcDbLine
 10
257.444248
 20
324.434018
 30
0.0
 11
267.823544
 21
324.434018
 31
0.0
  0
LINE
  5
3E2
330
1F
100
AcDbEntity
  8
2
100
AcDbLine
 10
266.823544
 20
324.434018
 30
0.0
 11
266.823544
 21
231.959462
 31
0.0
  0
SOLID
  5
3E3
330
1F
100
AcDbEntity
  8
2
100
AcDbTrace
 10
266.823544
 20
324.434018
 30
0.0
 11
267.440688
 21
320.934021
 31
0.0
 12
266.206399
 22
320.934016
 32
0.0
 13
266.206399
 23
320.934016
 33
0.0
  0
MTEXT
  5
3E4
330
1F
100
AcDbEntity
  8
SK2
100
AcDbMText
 10
237.125516
 20
245.960268
 30
0.0
 40
3.5
 41
0.0
 71
     7
 72
     5
  1
\W0.7045;40
  7
cesky
 11
0.0000000000000001
 21
1.0
 31
0.0
 73
     2
 44
0.8433729999999998
  0
MTEXT
  5
3E5
330
1F
100
AcDbEntity
  8
SK2
100
AcDbMText
 10
237.125516
 20
239.222768
 30
0.0
 40
3.5
 41
0.0
 71
     7
 72
     5
  1
\W3.0115;\H2.63;%%c\H3.50;
  7
cesky
 11
0.0000000000000001
 21
1.0
 31
0.0
 73
     2
 44
0.8433729999999998
  0
LINE
  5
3E6
330
1F
100
AcDbEntity
  8
SK2
100
AcDbLine
 10
243.444248
 20
264.434018
 30
0.0
 11
236.312933
 21
264.434018
 31
0.0
  0
LINE
  5
3E7
330
1F
100
AcDbEntity
  8
SK2
100
AcDbLine
 10
243.444248
 20
224.434018
 30
0.0
 11
236.312933
 21
224.434018
 31
0.0
  0
LINE
  5
3E8
330
1F
100
AcDbEntity
  8
SK2
100
AcDbLine
 10
237.312933
 20
264.434018
 30
0.0
 11
237.312933
 21
224.434018
 31
0.0
  0
SOLID
  5
3E9
330
1F
100
AcDbEntity
  8
SK2
100
AcDbTrace
 10
237.312933
 20
264.434018
 30
0.0
 11
237.930077
 21
260.934021
 31
0.0
 12
236.695788
 22
260.934016
 32
0.0
 13
236.695788
 23
260.934016
 33
0.0
  0
SOLID
  5
3EA
330
1F
100
AcDbEntity
  8
SK2
100
AcDbTrace
 10
237.312933
 20
224.434018
 30
0.0
 11
236.695788
 21
227.934016
 31
0.0
 12
237.930077
 22
227.934021
 32
0.0
 13
237.930077
 23
227.934021
 33
0.0
  0
MTEXT
  5
3EB
330
1F
100
AcDbEntity
  8
SK2
100
AcDbMText
 10
227.4298754279193
 20
246.2325845815651
 30
0.0
 40
3.5
 41
0.0
 71
     7
 72
     5
  1
\W0.7045;68
  7
cesky
 11
-0.0008774732413716
 21
0.9999996150202811
 31
0.0
 73
     2
 44
0.8433729999999998
  0
MTEXT
  5
3EC
330
1F
100
AcDbEntity
  8
SK2
100
AcDbMText
 10
227.435787165698
 20
239.4950872507807
 30
0.0
 40
3.5
 41
0.0
 71
     7
 72
     5
  1
\W3.0115;\H2.63;%%c\H3.50;
  7
cesky
 11
-0.0008774732413716
 21
0.9999996150202811
 31
0.0
 73
     2
 44
0.8433729999999998
  0
LINE
  5
3ED
330
1F
100
AcDbEntity
  8
SK2
100
AcDbLine
 10
244.944248
 20
278.434018
 30
0.0
 11
226.5914058045126
 21
278.4179140973632
 31
0.0
  0
LINE
  5
3EE
330
1F
100
AcDbEntity
  8
SK2
100
AcDbLine
 10
245.0034164487568
 20
211.0039707000026
 30
0.0
 11
226.6505742689767
 21
210.9878657974892
 31
0.0
  0
LINE
  5
3EF
330
1F
100
AcDbEntity
  8
SK2
100
AcDbLine
 10
227.5914053900804
 20
278.4187915164105
 30
0.0
 11
227.6505738388372
 21
210.988744216413
 31
0.0
  0
SOLID
  5
3F0
330
1F
100
AcDbEntity
  8
SK2
100
AcDbTrace
 10
227.5914053900804
 20
278.4187915164105
 30
0.0
 11
228.2116209514409
 21
274.9193367199807
 31
0.0
 12
226.9773327619269
 22
274.9182492295728
 32
0.0
 13
226.9773327619269
 23
274.9182492295728
 33
0.0
  0
SOLID
  5
3F1
330
1F
100
AcDbEntity
  8
SK2
100
AcDbTrace
 10
227.6505738388372
 20
210.988744216413
 30
0.0
 11
227.0303582774766
 21
214.4881990128427
 31
0.0
 12
228.2646474668672
 22
214.489286518958
 32
0.0
 13
228.2646474668672
 23
214.489286518958
 33
0.0
  0
LINE
  5
3F3
330
1F
100
AcDbEntity
  8
CUT
100
AcDbLine
 10
249.4442482849885
 20
324.3698991358122
 30
0.0
 11
255.3418167840308
 21
324.2750743596805
 31
0.0
  0
LINE
  5
3F4
330
1F
100
AcDbEntity
  8
CUT
100
AcDbLine
 10
255.2322088901448
 20
311.8841950892345
 30
0.0
 11
249.4442482849879
 21
311.9849349812234
 31
0.0
  0
LINE
  5
3FB
330
1F
100
AcDbEntity
  8
CUT
100
AcDbLine
 10
243.4476517835116
 20
324.1748871689015
 30
0.0
 11
243.5466797859542
 21
324.2750743596806
 31
0.0
  0
LINE
  5
3FC
330
1F
100
AcDbEntity
  8
CUT
100
AcDbLine
 10
255.4229549276009
 20
321.9181058606335
 30
0.0
 11
255.3758788311883
 21
316.6134934984821
 31
0.0
  0
LINE
  5
402
330
1F
100
AcDbEntity
  8
CUT
100
AcDbLine
 10
249.4442482849854
 20
311.9849349812234
 30
0.0
 11
243.6562876798401
 21
311.8841950892345
 31
0.0
  0
LINE
  5
404
330
1F
100
AcDbEntity
  8
CUT
100
AcDbLine
 10
243.5126177387965
 20
316.6134934984822
 30
0.0
 11
243.465541642384
 21
321.9181058606338
 31
0.0
  0
LINE
  5
405
330
1F
100
AcDbEntity
  8
CUT
100
AcDbLine
 10
255.3418167840308
 20
324.2750743596805
 30
0.0
 11
255.4408447864733
 21
324.1748871689014
 31
0.0
  0
LINE
  5
408
330
1F
100
AcDbEntity
  8
CUT
100
AcDbLine
 10
255.3758788311883
 20
316.6134934984821
 30
0.0
 11
255.3277464626248
 21
311.8624996751089
 31
0.0
  0
LINE
  5
409
330
1F
100
AcDbEntity
  8
CUT
100
AcDbLine
 10
255.4408447864733
 20
324.1748871689014
 30
0.0
 11
255.4399701573817
 21
324.0761210558834
 31
0.0
  0
LINE
  5
40A
330
1F
100
AcDbEntity
  8
CUT
100
AcDbLine
 10
243.5607501073601
 20
311.862499675109
 30
0.0
 11
243.5126177387965
 21
316.6134934984822
 31
0.0
  0
LINE
  5
40B
330
1F
100
AcDbEntity
  8
CUT
100
AcDbLine
 10
243.4485264126032
 20
324.0761210558835
 30
0.0
 11
243.4476517835116
 21
324.1748871689015
 31
0.0
  0
LINE
  5
40C
330
1F
100
AcDbEntity
  8
CUT
100
AcDbLine
 10
243.5466797859542
 20
324.2750743596806
 30
0.0
 11
249.4442482849894
 21
324.3698991358122
 31
0.0
  0
LINE
  5
412
330
1F
100
AcDbEntity
  8
CUT
100
AcDbLine
 10
255.3277464626248
 20
311.8624996751089
 30
0.0
 11
255.3277464626248
 21
311.8624996751089
 31
0.0
  0
ARC
  5
413
330
1F
100
AcDbEntity
  8
CUT
100
AcDbCircle
 10
269.3997519247727
 20
374.0509554174388
 30
0.0
 40
63.76068824395208
100
AcDbArc
 50
257.1617929582922
 51
257.2498294522012
  0
ARC
  5
414
330
1F
100
AcDbEntity
  8
CUT
100
AcDbCircle
 10
347.6077428635509
 20
322.2583438895465
 30
0.0
 40
92.18569650136906
100
AcDbArc
 50
178.8701315466813
 51
180.0438037043768
  0
ARC
  5
415
330
1F
100
AcDbEntity
  8
CUT
100
AcDbCircle
 10
330.3073884596347
 20
322.2977230897833
 30
0.0
 40
74.88539573678071
100
AcDbArc
 50
180.0840529555043
 51
180.2904512689647
  0
LINE
  5
418
330
1F
100
AcDbEntity
  8
CUT
100
AcDbLine
 10
243.6562876798401
 20
311.8841950892345
 30
0.0
 11
243.6562876798401
 21
311.8841950892345
 31
0.0
  0
ARC
  5
419
330
1F
100
AcDbEntity
  8
CUT
100
AcDbCircle
 10
229.4887446878548
 20
374.0509552296776
 30
0.0
 40
63.76068805140937
100
AcDbArc
 50
282.7501705476621
 51
282.8382070418371
  0
LINE
  5
41C
330
1F
100
AcDbEntity
  8
CUT
100
AcDbLine
 10
243.465541642384
 20
321.9181058606338
 30
0.0
 11
243.465541642384
 21
321.9181058606338
 31
0.0
  0
ARC
  5
41D
330
1F
100
AcDbEntity
  8
CUT
100
AcDbCircle
 10
156.2321381630739
 20
322.3093742574389
 30
0.0
 40
87.23428095389127
100
AcDbArc
 50
359.7430126927705
 51
1.160484793484522
  0
ENDSEC
  0
SECTION
  2
OBJECTS
  0
DICTIONARY
  5
C
330
0
100
AcDbDictionary
281
     1
  3
ACAD_CIP_PREVIOUS_PRODUCT_INFO
350
3D0
  3
ACAD_COLOR
350
3CA
  3
ACAD_DETAILVIEWSTYLE
350
3C6
  3
ACAD_GROUP
350
D
  3
ACAD_IMAGE_DICT
350
251
  3
ACAD_IMAGE_VARS
350
3CF
  3
ACAD_LAYOUT
350
1A
  3
ACAD_MATERIAL
350
43
  3
ACAD_MLEADERSTYLE
350
6B
  3
ACAD_MLINESTYLE
350
17
  3
ACAD_PLOTSETTINGS
350
19
  3
ACAD_PLOTSTYLENAME
350
E
  3
ACAD_SCALELIST
350
47
  3
ACAD_SECTIONVIEWSTYLE
350
3C7
  3
ACAD_TABLESTYLE
350
69
  3
ACAD_VISUALSTYLE
350
2A
  3
ACDB_RECOMPOSE_DATA
350
457
  3
AcDbVariableDictionary
350
383
  3
AcDsDecomposeData
350
45D
  0
DICTIONARY
  5
44C
330
2
100
AcDbDictionary
280
     1
281
     1
  3
ACAD_LAYERSTATES
360
44D
  0
DICTIONARY
  5
42D
330
10
100
AcDbDictionary
280
     1
281
     1
  3
ADSK_XREC_LAYER_RECONCILED
360
42E
  0
DICTIONARY
  5
42F
330
76
100
AcDbDictionary
280
     1
281
     1
  3
ADSK_XREC_LAYER_RECONCILED
360
430
  0
DICTIONARY
  5
431
330
41E
100
AcDbDictionary
280
     1
281
     1
  3
ADSK_XREC_LAYER_RECONCILED
360
432
  0
DICTIONARY
  5
433
330
41F
100
AcDbDictionary
280
     1
281
     1
  3
ADSK_XREC_LAYER_RECONCILED
360
434
  0
DICTIONARY
  5
435
330
420
100
AcDbDictionary
280
     1
281
     1
  3
ADSK_XREC_LAYER_RECONCILED
360
436
  0
DICTIONARY
  5
437
330
423
100
AcDbDictionary
280
     1
281
     1
  3
ADSK_XREC_LAYER_RECONCILED
360
438
  0
DICTIONARY
  5
439
330
424
100
AcDbDictionary
280
     1
281
     1
  3
ADSK_XREC_LAYER_RECONCILED
360
43A
  0
DICTIONARY
  5
43B
330
425
100
AcDbDictionary
280
     1
281
     1
  3
ADSK_XREC_LAYER_RECONCILED
360
43C
  0
DICTIONARY
  5
43D
330
426
100
AcDbDictionary
280
     1
281
     1
  3
ADSK_XREC_LAYER_RECONCILED
360
43E
  0
DICTIONARY
  5
43F
330
427
100
AcDbDictionary
280
     1
281
     1
  3
ADSK_XREC_LAYER_RECONCILED
360
440
  0
DICTIONARY
  5
441
330
428
100
AcDbDictionary
280
     1
281
     1
  3
ADSK_XREC_LAYER_RECONCILED
360
442
  0
DICTIONARY
  5
443
330
429
100
AcDbDictionary
280
     1
281
     1
  3
ADSK_XREC_LAYER_RECONCILED
360
444
  0
DICTIONARY
  5
445
330
42A
100
AcDbDictionary
280
     1
281
     1
  3
ADSK_XREC_LAYER_RECONCILED
360
446
  0
DICTIONARY
  5
447
330
42B
100
AcDbDictionary
280
     1
281
     1
  3
ADSK_XREC_LAYER_RECONCILED
360
448
  0
DICTIONARY
  5
3D1
330
1F
100
AcDbDictionary
280
     1
281
     1
  3
ACAD_SORTENTS
360
3D2
  0
XRECORD
  5
3D0
102
{ACAD_REACTORS
330
C
102
}
330
C
100
AcDbXrecord
280
     1
300
ACD
300
2019
300

  0
DICTIONARY
  5
3CA
102
{ACAD_REACTORS
330
C
102
}
330
C
100
AcDbDictionary
281
     1
  0
DICTIONARY
  5
3C6
102
{ACAD_REACTORS
330
C
102
}
330
C
100
AcDbDictionary
281
     1
  3
Metric50
350
3CC
  0
DICTIONARY
  5
D
102
{ACAD_REACTORS
330
C
102
}
330
C
100
AcDbDictionary
281
     1
  3
NULOVY_BOD
350
42C
  0
DICTIONARY
  5
251
102
{ACAD_REACTORS
330
C
102
}
330
C
100
AcDbDictionary
281
     1
  3
160H16N_S90SN12N12_2D_DormerPramet_jpg
350
252
  0
RASTERVARIABLES
  5
3CF
102
{ACAD_REACTORS
330
C
102
}
330
C
100
AcDbRasterVariables
 90
        0
 70
     1
 71
     1
 72
     1
  0
DICTIONARY
  5
1A
102
{ACAD_REACTORS
330
C
102
}
330
C
100
AcDbDictionary
281
     1
  3
Layout1
350
1E
  3
Layout2
350
26
  3
Model
350
22
  0
DICTIONARY
  5
43
102
{ACAD_REACTORS
330
C
102
}
330
C
100
AcDbDictionary
281
     1
  3
ByBlock
350
45
  3
ByLayer
350
44
  3
Global
350
46
  0
DICTIONARY
  5
6B
102
{ACAD_REACTORS
330
C
102
}
330
C
100
AcDbDictionary
281
     1
  3
Standard
350
6C
  0
DICTIONARY
  5
17
102
{ACAD_REACTORS
330
C
102
}
330
C
100
AcDbDictionary
281
     1
  3
Standard
350
18
  0
DICTIONARY
  5
19
102
{ACAD_REACTORS
330
C
102
}
330
C
100
AcDbDictionary
281
     1
  0
ACDBDICTIONARYWDFLT
  5
E
102
{ACAD_REACTORS
330
C
102
}
330
C
100
AcDbDictionary
281
     1
  3
Normal
350
F
100
AcDbDictionaryWithDefault
340
F
  0
DICTIONARY
  5
47
102
{ACAD_REACTORS
330
C
102
}
330
C
100
AcDbDictionary
281
     1
  3
A0
350
48
  3
A1
350
49
  3
A2
350
4A
  3
A3
350
4B
  3
A4
350
4C
  3
A5
350
4D
  3
A6
350
4E
  3
A7
350
4F
  3
A8
350
50
  3
A9
350
51
  3
B0
350
52
  3
B1
350
53
  3
B2
350
54
  3
B3
350
55
  3
B4
350
56
  3
B5
350
57
  3
B6
350
58
  3
B7
350
59
  3
B8
350
5A
  3
B9
350
5B
  3
C0
350
5C
  3
C1
350
5D
  3
C2
350
5E
  3
C3
350
5F
  3
C4
350
60
  3
C5
350
61
  3
C6
350
62
  3
C7
350
63
  3
C8
350
64
  3
C9
350
65
  3
D0
350
66
  3
D1
350
67
  3
D2
350
68
  0
DICTIONARY
  5
3C7
102
{ACAD_REACTORS
330
C
102
}
330
C
100
AcDbDictionary
281
     1
  3
Metric50
350
3CB
  0
DICTIONARY
  5
69
102
{ACAD_REACTORS
330
C
102
}
330
C
100
AcDbDictionary
281
     1
  3
Standard
350
6A
  0
DICTIONARY
  5
2A
102
{ACAD_REACTORS
330
C
102
}
330
C
100
AcDbDictionary
281
     1
  3
2dWireframe
350
2F
  3
Basic
350
32
  3
Brighten
350
36
  3
ColorChange
350
3A
  3
Conceptual
350
34
  3
Dim
350
35
  3
EdgeColorOff
350
3D
  3
Facepattern
350
39
  3
Flat
350
2B
  3
FlatWithEdges
350
2C
  3
Gouraud
350
2D
  3
GouraudWithEdges
350
2E
  3
Hidden
350
31
  3
JitterOff
350
3B
  3
Linepattern
350
38
  3
OverhangOff
350
3C
  3
Realistic
350
33
  3
Shaded
350
42
  3
Shaded with edges
350
41
  3
Shades of Gray
350
3E
  3
Sketchy
350
3F
  3
Thicken
350
37
  3
Wireframe
350
30
  3
X-Ray
350
40
  0
XRECORD
  5
457
102
{ACAD_REACTORS
330
C
102
}
330
C
100
AcDbXrecord
280
     1
 90
        1
330
6A
  0
DICTIONARY
  5
383
102
{ACAD_REACTORS
330
C
102
}
330
C
100
AcDbDictionary
281
     1
  3
CANNOSCALE
350
384
  3
CMLEADERSTYLE
350
3C5
  3
CTABLESTYLE
350
3C4
  3
CVIEWDETAILSTYLE
350
452
  3
CVIEWSECTIONSTYLE
350
453
  3
MSLTSCALE
350
385
  3
XCLIPFRAME
350
454
  0
DICTIONARY
  5
45D
102
{ACAD_REACTORS
330
C
102
}
330
C
100
AcDbDictionary
281
     1
  3
AcDsRecords
350
45F
  3
AcDsSchemas
350
45E
1001
ACAD
1070
     2
  0
DICTIONARY
  5
44D
102
{ACAD_REACTORS
330
44C
102
}
330
44C
100
AcDbDictionary
281
     1
  0
XRECORD
  5
42E
102
{ACAD_REACTORS
330
42D
102
}
330
42D
100
AcDbXrecord
280
     1
290
     1
  0
XRECORD
  5
430
102
{ACAD_REACTORS
330
42F
102
}
330
42F
100
AcDbXrecord
280
     1
290
     1
  0
XRECORD
  5
432
102
{ACAD_REACTORS
330
431
102
}
330
431
100
AcDbXrecord
280
     1
290
     1
  0
XRECORD
  5
434
102
{ACAD_REACTORS
330
433
102
}
330
433
100
AcDbXrecord
280
     1
290
     1
  0
XRECORD
  5
436
102
{ACAD_REACTORS
330
435
102
}
330
435
100
AcDbXrecord
280
     1
290
     1
  0
XRECORD
  5
438
102
{ACAD_REACTORS
330
437
102
}
330
437
100
AcDbXrecord
280
     1
290
     1
  0
XRECORD
  5
43A
102
{ACAD_REACTORS
330
439
102
}
330
439
100
AcDbXrecord
280
     1
290
     1
  0
XRECORD
  5
43C
102
{ACAD_REACTORS
330
43B
102
}
330
43B
100
AcDbXrecord
280
     1
290
     1
  0
XRECORD
  5
43E
102
{ACAD_REACTORS
330
43D
102
}
330
43D
100
AcDbXrecord
280
     1
290
     1
  0
XRECORD
  5
440
102
{ACAD_REACTORS
330
43F
102
}
330
43F
100
AcDbXrecord
280
     1
290
     1
  0
XRECORD
  5
442
102
{ACAD_REACTORS
330
441
102
}
330
441
100
AcDbXrecord
280
     1
290
     1
  0
XRECORD
  5
444
102
{ACAD_REACTORS
330
443
102
}
330
443
100
AcDbXrecord
280
     1
290
     1
  0
XRECORD
  5
446
102
{ACAD_REACTORS
330
445
102
}
330
445
100
AcDbXrecord
280
     1
290
     1
  0
XRECORD
  5
448
102
{ACAD_REACTORS
330
447
102
}
330
447
100
AcDbXrecord
280
     1
290
     1
  0
SORTENTSTABLE
  5
3D2
102
{ACAD_REACTORS
330
3D1
102
}
330
3D1
100
AcDbSortentsTable
330
1F
331
3D3
  5
3E1
331
3D4
  5
3E2
331
3D5
  5
3E3
331
3D6
  5
3E4
331
3D7
  5
3E5
331
3D8
  5
3E6
331
3D9
  5
3E7
331
3DA
  5
3E8
331
3DB
  5
3E9
331
3DC
  5
3EA
331
3DD
  5
3EB
331
3DE
  5
3EC
331
3DF
  5
3ED
331
3E0
  5
3EE
331
3E1
  5
3EF
331
3E2
  5
3F0
331
3E3
  5
3F1
331
3E4
  5
3D3
331
3E5
  5
3D4
331
3E6
  5
3D5
331
3E7
  5
3D6
331
3E8
  5
3D7
331
3E9
  5
3D8
331
3EA
  5
3D9
331
3EB
  5
3DA
331
3EC
  5
3DB
331
3ED
  5
3DC
331
3EE
  5
3DD
331
3EF
  5
3DE
331
3F0
  5
3DF
331
3F1
  5
3E0
331
3FB
  5
400
331
3FC
  5
402
331
402
  5
40E
331
404
  5
411
331
405
  5
412
331
408
  5
417
331
409
  5
418
331
40A
  5
419
331
40B
  5
41A
331
40C
  5
41B
331
412
  5
408
331
413
  5
409
331
414
  5
40B
331
415
  5
40C
331
418
  5
413
331
419
  5
414
  0
ACDBDETAILVIEWSTYLE
  5
3CC
102
{ACAD_XDICTIONARY
360
493
102
}
102
{ACAD_REACTORS
330
3C6
102
}
330
3C6
100
AcDbModelDocViewStyle
 70
     0
  3
Metric50
290
     0
100
AcDbDetailViewStyle
 70
     0
 71
     0
 90
        3
 71
     1
340
11
 62
   256
 40
5.0
340
0
 62
   256
 40
5.0
300

 40
0.0
280
     1
 71
     2
340
16
 90
       25
 62
   256
 71
     3
340
11
 62
   256
 40
5.0
 90
        0
 40
15.0
 90
        1
300
%<\AcVar ViewDetailId>% (%<\AcVar ViewScale \f "%sn">%)
 71
     4
340
16
 90
       25
 62
   256
340
16
 90
       25
 62
   256
280
     0
  0
GROUP
  5
42C
102
{ACAD_REACTORS
330
D
102
}
330
D
100
AcDbGroup
300

 70
     0
 71
     1
340
73
  0
IMAGEDEF
  5
252
102
{ACAD_REACTORS
330
251
330
255
102
}
330
251
100
AcDbRasterImageDef
 90
        0
  1
C:\Users\pp0701\Desktop\zakaznik data\160H16N_S90SN12N12_2D_DormerPramet.jpg
 10
2089.0
 20
531.0
 11
0.0004786979415989
 21
0.0004786979415989
280
     1
281
     0
  0
LAYOUT
  5
1E
102
{ACAD_REACTORS
330
1A
102
}
330
1A
100
AcDbPlotSettings
  1

  2
none_device
  4

  6

 40
0.0
 41
0.0
 42
0.0
 43
0.0
 44
0.0
 45
0.0
 46
0.0
 47
0.0
 48
0.0
 49
0.0
140
0.0
141
0.0
142
1.0
143
1.0
 70
   688
 72
     0
 73
     0
 74
     5
  7

 75
    16
147
1.0
 76
     0
 77
     2
 78
   300
148
0.0
149
0.0
100
AcDbLayout
  1
Layout1
 70
     1
 71
     1
 10
-0.5
 20
-0.5
 11
5.0
 21
5.0
 12
0.0
 22
0.0
 32
0.0
 14
-0.5
 24
-0.5
 34
-0.5
 15
5.0
 25
5.0
 35
5.0
146
0.0
 13
0.0
 23
0.0
 33
0.0
 16
1.0
 26
0.0
 36
0.0
 17
0.0
 27
1.0
 37
0.0
 76
     0
330
1B
  0
LAYOUT
  5
26
102
{ACAD_REACTORS
330
1A
102
}
330
1A
100
AcDbPlotSettings
  1

  2
none_device
  4

  6

 40
0.0
 41
0.0
 42
0.0
 43
0.0
 44
0.0
 45
0.0
 46
0.0
 47
0.0
 48
0.0
 49
0.0
140
0.0
141
0.0
142
1.0
143
1.0
 70
   688
 72
     0
 73
     0
 74
     5
  7

 75
    16
147
1.0
 76
     0
 77
     2
 78
   300
148
0.0
149
0.0
100
AcDbLayout
  1
Layout2
 70
     1
 71
     2
 10
0.0
 20
0.0
 11
0.0
 21
0.0
 12
0.0
 22
0.0
 32
0.0
 14
0.0
 24
0.0
 34
0.0
 15
0.0
 25
0.0
 35
0.0
146
0.0
 13
0.0
 23
0.0
 33
0.0
 16
1.0
 26
0.0
 36
0.0
 17
0.0
 27
1.0
 37
0.0
 76
     0
330
23
  0
LAYOUT
  5
22
102
{ACAD_REACTORS
330
1A
102
}
330
1A
100
AcDbPlotSettings
  1

  2
none_device
  4
Letter_(8.50_x_11.00_Inches)
  6

 40
6.349999999999999
 41
6.349999999999999
 42
6.350005
 43
6.350005
 44
215.9
 45
279.4
 46
0.0
 47
0.0
 48
0.0
 49
0.0
140
0.0
141
0.0
142
1.0
143
1.0
 70
  1712
 72
     0
 73
     0
 74
     0
  7

 75
     0
147
1.0
 76
     0
 77
     2
 78
   300
148
0.0
149
0.0
100
AcDbLayout
  1
Model
 70
     1
 71
     0
 10
-0.5
 20
-0.5
 11
5.0
 21
5.0
 12
0.0
 22
0.0
 32
0.0
 14
-0.5
 24
-0.5
 34
-0.5
 15
5.0
 25
5.0
 35
5.0
146
0.0
 13
0.0
 23
0.0
 33
0.0
 16
1.0
 26
0.0
 36
0.0
 17
0.0
 27
1.0
 37
0.0
 76
     0
330
1F
331
29
  0
MATERIAL
  5
45
102
{ACAD_XDICTIONARY
360
3B9
102
}
102
{ACAD_REACTORS
330
43
102
}
330
43
100
AcDbMaterial
  1
ByBlock
  0
MATERIAL
  5
44
102
{ACAD_XDICTIONARY
360
3B7
102
}
102
{ACAD_REACTORS
330
43
102
}
330
43
100
AcDbMaterial
  1
ByLayer
  0
MATERIAL
  5
46
102
{ACAD_XDICTIONARY
360
3BB
102
}
102
{ACAD_REACTORS
330
43
102
}
330
43
100
AcDbMaterial
  1
Global
  0
MLEADERSTYLE
  5
6C
102
{ACAD_REACTORS
330
6B
102
}
330
6B
100
AcDbMLeaderStyle
170
     2
171
     1
172
     0
 90
        2
 40
0.0
 41
0.0
173
     1
 91
-1056964608
340
14
 92
       -2
290
     1
 42
0.09
291
     1
 43
0.36
  3
Standard
 44
0.18
300

342
11
174
     1
178
     6
175
     1
176
     0
 93
-1056964608
 45
0.18
292
     0
297
     0
 46
0.18
 94
-1056964608
 47
1.0
 49
1.0
140
1.0
293
     1
141
0.0
294
     1
177
     0
142
1.0
295
     0
296
     0
143
0.125
1001
ACAD_MLEADERVER
1070
     2
  0
MLINESTYLE
  5
18
102
{ACAD_REACTORS
330
17
102
}
330
17
100
AcDbMlineStyle
  2
STANDARD
 70
     0
  3

 62
   256
 51
90.0
 52
90.0
 71
     2
 49
0.5
 62
   256
  6
BYLAYER
 49
-0.5
 62
   256
  6
BYLAYER
  0
ACDBPLACEHOLDER
  5
F
102
{ACAD_REACTORS
330
E
102
}
330
E
  0
SCALE
  5
48
102
{ACAD_REACTORS
330
47
102
}
330
47
100
AcDbScale
 70
     0
300
1:1
140
1.0
141
1.0
290
     1
  0
SCALE
  5
49
102
{ACAD_REACTORS
330
47
102
}
330
47
100
AcDbScale
 70
     0
300
1:2
140
1.0
141
2.0
290
     0
  0
SCALE
  5
4A
102
{ACAD_REACTORS
330
47
102
}
330
47
100
AcDbScale
 70
     0
300
1:4
140
1.0
141
4.0
290
     0
  0
SCALE
  5
4B
102
{ACAD_REACTORS
330
47
102
}
330
47
100
AcDbScale
 70
     0
300
1:5
140
1.0
141
5.0
290
     0
  0
SCALE
  5
4C
102
{ACAD_REACTORS
330
47
102
}
330
47
100
AcDbScale
 70
     0
300
1:8
140
1.0
141
8.0
290
     0
  0
SCALE
  5
4D
102
{ACAD_REACTORS
330
47
102
}
330
47
100
AcDbScale
 70
     0
300
1:10
140
1.0
141
10.0
290
     0
  0
SCALE
  5
4E
102
{ACAD_REACTORS
330
47
102
}
330
47
100
AcDbScale
 70
     0
300
1:16
140
1.0
141
16.0
290
     0
  0
SCALE
  5
4F
102
{ACAD_REACTORS
330
47
102
}
330
47
100
AcDbScale
 70
     0
300
1:20
140
1.0
141
20.0
290
     0
  0
SCALE
  5
50
102
{ACAD_REACTORS
330
47
102
}
330
47
100
AcDbScale
 70
     0
300
1:30
140
1.0
141
30.0
290
     0
  0
SCALE
  5
51
102
{ACAD_REACTORS
330
47
102
}
330
47
100
AcDbScale
 70
     0
300
1:40
140
1.0
141
40.0
290
     0
  0
SCALE
  5
52
102
{ACAD_REACTORS
330
47
102
}
330
47
100
AcDbScale
 70
     0
300
1:50
140
1.0
141
50.0
290
     0
  0
SCALE
  5
53
102
{ACAD_REACTORS
330
47
102
}
330
47
100
AcDbScale
 70
     0
300
1:100
140
1.0
141
100.0
290
     0
  0
SCALE
  5
54
102
{ACAD_REACTORS
330
47
102
}
330
47
100
AcDbScale
 70
     0
300
2:1
140
2.0
141
1.0
290
     0
  0
SCALE
  5
55
102
{ACAD_REACTORS
330
47
102
}
330
47
100
AcDbScale
 70
     0
300
4:1
140
4.0
141
1.0
290
     0
  0
SCALE
  5
56
102
{ACAD_REACTORS
330
47
102
}
330
47
100
AcDbScale
 70
     0
300
8:1
140
8.0
141
1.0
290
     0
  0
SCALE
  5
57
102
{ACAD_REACTORS
330
47
102
}
330
47
100
AcDbScale
 70
     0
300
10:1
140
10.0
141
1.0
290
     0
  0
SCALE
  5
58
102
{ACAD_REACTORS
330
47
102
}
330
47
100
AcDbScale
 70
     0
300
100:1
140
100.0
141
1.0
290
     0
  0
SCALE
  5
59
102
{ACAD_REACTORS
330
47
102
}
330
47
100
AcDbScale
 70
     0
300
1/128" = 1'-0"
140
0.007812
141
12.0
290
     0
  0
SCALE
  5
5A
102
{ACAD_REACTORS
330
47
102
}
330
47
100
AcDbScale
 70
     0
300
1/64" = 1'-0"
140
0.015625
141
12.0
290
     0
  0
SCALE
  5
5B
102
{ACAD_REACTORS
330
47
102
}
330
47
100
AcDbScale
 70
     0
300
1/32" = 1'-0"
140
0.03125
141
12.0
290
     0
  0
SCALE
  5
5C
102
{ACAD_REACTORS
330
47
102
}
330
47
100
AcDbScale
 70
     0
300
1/16" = 1'-0"
140
0.0625
141
12.0
290
     0
  0
SCALE
  5
5D
102
{ACAD_REACTORS
330
47
102
}
330
47
100
AcDbScale
 70
     0
300
3/32" = 1'-0"
140
0.09375
141
12.0
290
     0
  0
SCALE
  5
5E
102
{ACAD_REACTORS
330
47
102
}
330
47
100
AcDbScale
 70
     0
300
1/8" = 1'-0"
140
0.125
141
12.0
290
     0
  0
SCALE
  5
5F
102
{ACAD_REACTORS
330
47
102
}
330
47
100
AcDbScale
 70
     0
300
3/16" = 1'-0"
140
0.1875
141
12.0
290
     0
  0
SCALE
  5
60
102
{ACAD_REACTORS
330
47
102
}
330
47
100
AcDbScale
 70
     0
300
1/4" = 1'-0"
140
0.25
141
12.0
290
     0
  0
SCALE
  5
61
102
{ACAD_REACTORS
330
47
102
}
330
47
100
AcDbScale
 70
     0
300
3/8" = 1'-0"
140
0.375
141
12.0
290
     0
  0
SCALE
  5
62
102
{ACAD_REACTORS
330
47
102
}
330
47
100
AcDbScale
 70
     0
300
1/2" = 1'-0"
140
0.5
141
12.0
290
     0
  0
SCALE
  5
63
102
{ACAD_REACTORS
330
47
102
}
330
47
100
AcDbScale
 70
     0
300
3/4" = 1'-0"
140
0.75
141
12.0
290
     0
  0
SCALE
  5
64
102
{ACAD_REACTORS
330
47
102
}
330
47
100
AcDbScale
 70
     0
300
1" = 1'-0"
140
1.0
141
12.0
290
     0
  0
SCALE
  5
65
102
{ACAD_REACTORS
330
47
102
}
330
47
100
AcDbScale
 70
     0
300
1-1/2" = 1'-0"
140
1.5
141
12.0
290
     0
  0
SCALE
  5
66
102
{ACAD_REACTORS
330
47
102
}
330
47
100
AcDbScale
 70
     0
300
3" = 1'-0"
140
3.0
141
12.0
290
     0
  0
SCALE
  5
67
102
{ACAD_REACTORS
330
47
102
}
330
47
100
AcDbScale
 70
     0
300
6" = 1'-0"
140
6.0
141
12.0
290
     0
  0
SCALE
  5
68
102
{ACAD_REACTORS
330
47
102
}
330
47
100
AcDbScale
 70
     0
300
1'-0" = 1'-0"
140
12.0
141
12.0
290
     0
  0
ACDBSECTIONVIEWSTYLE
  5
3CB
102
{ACAD_XDICTIONARY
360
491
102
}
102
{ACAD_REACTORS
330
3C7
102
}
330
3C7
100
AcDbModelDocViewStyle
 70
     0
  3
Metric50
290
     0
100
AcDbSectionViewStyle
 70
     0
 71
     0
 90
      102
 71
     1
340
11
 62
   256
 40
5.0
340
0
340
0
 62
   256
 40
5.0
300
I, O, Q, S, X, Z
 40
10.0
 90
        0
 40
2.5
 90
        0
 71
     2
340
16
 90
       25
 62
   256
340
16
 90
       50
 62
   256
 40
5.0
 40
2.5
 40
5.0
 71
     3
340
11
 62
   256
 40
5.0
 90
        0
 40
15.0
 90
        1
300
%<\AcVar ViewSectionStartId>%-%<\AcVar ViewSectionEndId>% (%<\AcVar ViewScale \f "%sn">%)
 71
     4
 62
   256
 62
   257
300
ANSI31
 40
1.0
 90
        0
290
     0
290
     0
 90
        6
 40
0.0
 40
1.570796326794896
 40
0.2617993877991494
 40
1.308996938995747
 40
-0.2617993877991494
 40
1.832595714594046
  0
TABLESTYLE
  5
6A
102
{ACAD_XDICTIONARY
360
3BD
102
}
102
{ACAD_REACTORS
330
69
102
}
330
69
100
AcDbTableStyle
  3
Standard
 70
     0
 71
     0
 40
0.06
 41
0.06
280
     0
281
     0
  7
Standard
140
0.18
170
     2
 62
     0
 63
     7
283
     0
274
    -2
284
     1
 64
     0
275
    -2
285
     1
 65
     0
276
    -2
286
     1
 66
     0
277
    -2
287
     1
 67
     0
278
    -2
288
     1
 68
     0
279
    -2
289
     1
 69
     0
  7
Standard
140
0.25
170
     5
 62
     0
 63
     7
283
     0
274
    -2
284
     1
 64
     0
275
    -2
285
     1
 65
     0
276
    -2
286
     1
 66
     0
277
    -2
287
     1
 67
     0
278
    -2
288
     1
 68
     0
279
    -2
289
     1
 69
     0
  7
Standard
140
0.18
170
     5
 62
     0
 63
     7
283
     0
274
    -2
284
     1
 64
     0
275
    -2
285
     1
 65
     0
276
    -2
286
     1
 66
     0
277
    -2
287
     1
 67
     0
278
    -2
288
     1
 68
     0
279
    -2
289
     1
 69
     0
  0
VISUALSTYLE
  5
2F
102
{ACAD_XDICTIONARY
360
468
102
}
102
{ACAD_REACTORS
330
2A
102
}
330
2A
100
AcDbVisualStyle
  2

 70
     4
 71
     0
 72
     2
 73
     0
 90
        0
 40
-0.6
 41
-30.0
 62
     5
 63
     7
421
 16777215
 74
     1
 91
        4
 64
     7
 65
   257
 75
     1
175
     1
 42
1.0
 92
        0
 66
   257
 43
1.0
 76
     1
 77
     6
 78
     2
 67
     7
 79
     5
170
     0
171
     0
290
     0
174
     0
 93
        1
 44
0.0
173
     0
291
     0
 45
0.0
1001
ACAD
1000
AcDbSavedByObjectVersion
1070
     0
  0
VISUALSTYLE
  5
32
102
{ACAD_XDICTIONARY
360
46E
102
}
102
{ACAD_REACTORS
330
2A
102
}
330
2A
100
AcDbVisualStyle
  2

 70
     7
 71
     1
 72
     0
 73
     1
 90
        0
 40
-0.6
 41
-30.0
 62
     5
 63
     7
421
 16777215
 74
     0
 91
        4
 64
     7
 65
   257
 75
     1
175
     1
 42
1.0
 92
        8
 66
     7
 43
1.0
 76
     1
 77
     6
 78
     2
 67
     7
 79
     5
170
     0
171
     0
290
     0
174
     0
 93
        1
 44
0.0
173
     0
291
     1
 45
0.0
1001
ACAD
1000
AcDbSavedByObjectVersion
1070
     0
  0
VISUALSTYLE
  5
36
102
{ACAD_XDICTIONARY
360
476
102
}
102
{ACAD_REACTORS
330
2A
102
}
330
2A
100
AcDbVisualStyle
  2

 70
    12
 71
     2
 72
     2
 73
     0
 90
        0
 40
-0.6
 41
-30.0
 62
     5
 63
     7
421
 16777215
 74
     1
 91
        4
 64
     7
 65
   257
 75
     1
175
     1
 42
1.0
 92
        8
 66
     7
 43
1.0
 76
     1
 77
     6
 78
     2
 67
     7
 79
     5
170
     0
171
     0
290
     0
174
     0
 93
        1
 44
50.0
173
     0
291
     1
 45
0.0
1001
ACAD
1000
AcDbSavedByObjectVersion
1070
     0
  0
VISUALSTYLE
  5
3A
102
{ACAD_XDICTIONARY
360
47E
102
}
102
{ACAD_REACTORS
330
2A
102
}
330
2A
100
AcDbVisualStyle
  2

 70
    16
 71
     2
 72
     2
 73
     3
 90
        0
 40
-0.6
 41
-30.0
 62
     5
 63
     8
421
  8421504
 74
     1
 91
        4
 64
     7
 65
   257
 75
     1
175
     1
 42
1.0
 92
        8
 66
     8
424
  8421504
 43
1.0
 76
     1
 77
     6
 78
     2
 67
     7
 79
     5
170
     0
171
     0
290
     0
174
     0
 93
        1
 44
0.0
173
     0
291
     1
 45
0.0
1001
ACAD
1000
AcDbSavedByObjectVersion
1070
     0
  0
VISUALSTYLE
  5
34
102
{ACAD_XDICTIONARY
360
472
102
}
102
{ACAD_REACTORS
330
2A
102
}
330
2A
100
AcDbVisualStyle
  2

 70
     9
 71
     3
 72
     2
 73
     0
 90
        0
 40
-0.6
 41
-30.0
 62
     5
 63
     7
421
 16777215
 74
     2
 91
        2
 64
     7
 65
   257
 75
     1
175
     1
 42
179.0
 92
        8
 66
     7
 43
1.0
 76
     1
 77
     6
 78
     2
 67
     7
 79
     3
170
     0
171
     0
290
     0
174
     0
 93
        1
 44
0.0
173
     0
291
     0
 45
0.0
1001
ACAD
1000
AcDbSavedByObjectVersion
1070
     0
  0
VISUALSTYLE
  5
35
102
{ACAD_XDICTIONARY
360
474
102
}
102
{ACAD_REACTORS
330
2A
102
}
330
2A
100
AcDbVisualStyle
  2

 70
    11
 71
     2
 72
     2
 73
     0
 90
        0
 40
-0.6
 41
-30.0
 62
     5
 63
     7
421
 16777215
 74
     1
 91
        4
 64
     7
 65
   257
 75
     1
175
     1
 42
1.0
 92
        8
 66
     7
 43
1.0
 76
     1
 77
     6
 78
     2
 67
     7
 79
     5
170
     0
171
     0
290
     0
174
     0
 93
        1
 44
-50.0
173
     0
291
     1
 45
0.0
1001
ACAD
1000
AcDbSavedByObjectVersion
1070
     0
  0
VISUALSTYLE
  5
3D
102
{ACAD_XDICTIONARY
360
484
102
}
102
{ACAD_REACTORS
330
2A
102
}
330
2A
100
AcDbVisualStyle
  2

 70
    22
 71
     2
 72
     2
 73
     0
 90
        0
 40
-0.6
 41
-30.0
 62
     5
 63
     7
421
 16777215
 74
     1
 91
        4
 64
     7
 65
   257
 75
     1
175
     1
 42
1.0
 92
        8
 66
     7
 43
1.0
 76
     1
 77
     6
 78
     2
 67
     7
 79
     5
170
     0
171
     0
290
     0
174
     0
 93
        1
 44
0.0
173
     0
291
     1
 45
0.0
1001
ACAD
1000
AcDbSavedByObjectVersion
1070
     0
  0
VISUALSTYLE
  5
39
102
{ACAD_XDICTIONARY
360
47C
102
}
102
{ACAD_REACTORS
330
2A
102
}
330
2A
100
AcDbVisualStyle
  2

 70
    15
 71
     2
 72
     2
 73
     0
 90
        0
 40
-0.6
 41
-30.0
 62
     5
 63
     7
421
 16777215
 74
     1
 91
        4
 64
     7
 65
   257
 75
     1
175
     1
 42
1.0
 92
        8
 66
     7
 43
1.0
 76
     1
 77
     6
 78
     2
 67
     7
 79
     5
170
     0
171
     0
290
     0
174
     0
 93
        1
 44
0.0
173
     0
291
     1
 45
0.0
1001
ACAD
1000
AcDbSavedByObjectVersion
1070
     0
  0
VISUALSTYLE
  5
2B
102
{ACAD_XDICTIONARY
360
460
102
}
102
{ACAD_REACTORS
330
2A
102
}
330
2A
100
AcDbVisualStyle
  2

 70
     0
 71
     2
 72
     1
 73
     1
 90
        2
 40
-0.6
 41
30.0
 62
     5
 63
     7
421
 16777215
 74
     0
 91
        0
 64
     7
 65
   257
 75
     1
175
     1
 42
1.0
 92
        8
 66
     7
 43
1.0
 76
     1
 77
     6
 78
     2
 67
     7
 79
     5
170
     0
171
     0
290
     0
174
     0
 93
       13
 44
0.0
173
     0
291
     1
 45
0.0
1001
ACAD
1000
AcDbSavedByObjectVersion
1070
     0
  0
VISUALSTYLE
  5
2C
102
{ACAD_XDICTIONARY
360
462
102
}
102
{ACAD_REACTORS
330
2A
102
}
330
2A
100
AcDbVisualStyle
  2

 70
     1
 71
     2
 72
     1
 73
     1
 90
        2
 40
-0.6
 41
30.0
 62
     5
 63
     7
421
 16777215
 74
     1
 91
        0
 64
     7
 65
   257
 75
     1
175
     1
 42
1.0
 92
        0
 66
   257
 43
1.0
 76
     1
 77
     6
 78
     2
 67
     7
 79
     5
170
     0
171
     0
290
     0
174
     0
 93
       13
 44
0.0
173
     0
291
     1
 45
0.0
1001
ACAD
1000
AcDbSavedByObjectVersion
1070
     0
  0
VISUALSTYLE
  5
2D
102
{ACAD_XDICTIONARY
360
464
102
}
102
{ACAD_REACTORS
330
2A
102
}
330
2A
100
AcDbVisualStyle
  2

 70
     2
 71
     2
 72
     2
 73
     1
 90
        2
 40
-0.6
 41
30.0
 62
     5
 63
     7
421
 16777215
 74
     0
 91
        0
 64
     7
 65
   257
 75
     1
175
     1
 42
1.0
 92
        0
 66
     7
 43
1.0
 76
     1
 77
     6
 78
     2
 67
     7
 79
     5
170
     0
171
     0
290
     0
174
     0
 93
       13
 44
0.0
173
     0
291
     1
 45
0.0
1001
ACAD
1000
AcDbSavedByObjectVersion
1070
     0
  0
VISUALSTYLE
  5
2E
102
{ACAD_XDICTIONARY
360
466
102
}
102
{ACAD_REACTORS
330
2A
102
}
330
2A
100
AcDbVisualStyle
  2

 70
     3
 71
     2
 72
     2
 73
     1
 90
        2
 40
-0.6
 41
30.0
 62
     5
 63
     7
421
 16777215
 74
     1
 91
        0
 64
     7
 65
   257
 75
     1
175
     1
 42
1.0
 92
        0
 66
   257
 43
1.0
 76
     1
 77
     6
 78
     2
 67
     7
 79
     5
170
     0
171
     0
290
     0
174
     0
 93
       13
 44
0.0
173
     0
291
     1
 45
0.0
1001
ACAD
1000
AcDbSavedByObjectVersion
1070
     0
  0
VISUALSTYLE
  5
31
102
{ACAD_XDICTIONARY
360
46C
102
}
102
{ACAD_REACTORS
330
2A
102
}
330
2A
100
AcDbVisualStyle
  2

 70
     6
 71
     1
 72
     2
 73
     2
 90
        0
 40
-0.6
 41
-30.0
 62
     5
 63
     7
421
 16777215
 74
     2
 91
        2
 64
     7
 65
   257
 75
     2
175
     1
 42
40.0
 92
        0
 66
   257
 43
1.0
 76
     1
 77
     6
 78
     2
 67
     7
 79
     3
170
     0
171
     0
290
     0
174
     0
 93
        1
 44
0.0
173
     0
291
     0
 45
0.0
1001
ACAD
1000
AcDbSavedByObjectVersion
1070
     0
  0
VISUALSTYLE
  5
3B
102
{ACAD_XDICTIONARY
360
480
102
}
102
{ACAD_REACTORS
330
2A
102
}
330
2A
100
AcDbVisualStyle
  2

 70
    20
 71
     2
 72
     2
 73
     0
 90
        0
 40
-0.6
 41
-30.0
 62
     5
 63
     7
421
 16777215
 74
     1
 91
        4
 64
     7
 65
   257
 75
     1
175
     1
 42
1.0
 92
       10
 66
     7
 43
1.0
 76
     1
 77
     6
 78
     2
 67
     7
 79
     5
170
     0
171
     0
290
     0
174
     0
 93
        1
 44
0.0
173
     0
291
     1
 45
0.0
1001
ACAD
1000
AcDbSavedByObjectVersion
1070
     0
  0
VISUALSTYLE
  5
38
102
{ACAD_XDICTIONARY
360
47A
102
}
102
{ACAD_REACTORS
330
2A
102
}
330
2A
100
AcDbVisualStyle
  2

 70
    14
 71
     2
 72
     2
 73
     0
 90
        0
 40
-0.6
 41
-30.0
 62
     5
 63
     7
421
 16777215
 74
     1
 91
        4
 64
     7
 65
   257
 75
     7
175
     7
 42
1.0
 92
        8
 66
     7
 43
1.0
 76
     1
 77
     6
 78
     2
 67
     7
 79
     5
170
     0
171
     0
290
     0
174
     0
 93
        1
 44
0.0
173
     0
291
     1
 45
0.0
1001
ACAD
1000
AcDbSavedByObjectVersion
1070
     0
  0
VISUALSTYLE
  5
3C
102
{ACAD_XDICTIONARY
360
482
102
}
102
{ACAD_REACTORS
330
2A
102
}
330
2A
100
AcDbVisualStyle
  2

 70
    21
 71
     2
 72
     2
 73
     0
 90
        0
 40
-0.6
 41
-30.0
 62
     5
 63
     7
421
 16777215
 74
     1
 91
        4
 64
     7
 65
   257
 75
     1
175
     1
 42
1.0
 92
        9
 66
     7
 43
1.0
 76
     1
 77
     6
 78
     2
 67
     7
 79
     5
170
     0
171
     0
290
     0
174
     0
 93
        1
 44
0.0
173
     0
291
     1
 45
0.0
1001
ACAD
1000
AcDbSavedByObjectVersion
1070
     0
  0
VISUALSTYLE
  5
33
102
{ACAD_XDICTIONARY
360
470
102
}
102
{ACAD_REACTORS
330
2A
102
}
330
2A
100
AcDbVisualStyle
  2

 70
     8
 71
     2
 72
     3
 73
     0
 90
        2
 40
-0.6
 41
30.0
 62
     5
 63
     7
421
 16777215
 74
     0
 91
        0
 64
     7
 65
   257
 75
     1
175
     1
 42
1.0
 92
        8
 66
   257
 43
1.0
 76
     1
 77
     6
 78
     2
 67
     7
 79
     3
170
     0
171
     0
290
     0
174
     0
 93
       13
 44
0.0
173
     0
291
     0
 45
0.0
1001
ACAD
1000
AcDbSavedByObjectVersion
1070
     0
  0
VISUALSTYLE
  5
42
102
{ACAD_XDICTIONARY
360
48E
102
}
102
{ACAD_REACTORS
330
2A
102
}
330
2A
100
AcDbVisualStyle
  2

 70
    27
 71
     2
 72
     2
 73
     1
 90
        2
 40
-0.6
 41
30.0
 62
     5
 63
     7
421
 16777215
 74
     0
 91
        4
 64
     7
 65
   257
 75
     1
175
     1
 42
1.0
 92
        8
 66
   257
 43
1.0
 76
     1
 77
     6
 78
     2
 67
     8
425
  7895160
 79
     3
170
     0
171
     0
290
     0
174
     0
 93
        5
 44
0.0
173
     0
291
     0
 45
0.0
1001
ACAD
1000
AcDbSavedByObjectVersion
1070
     0
  0
VISUALSTYLE
  5
41
102
{ACAD_XDICTIONARY
360
48C
102
}
102
{ACAD_REACTORS
330
2A
102
}
330
2A
100
AcDbVisualStyle
  2

 70
    26
 71
     2
 72
     2
 73
     1
 90
        2
 40
-0.6
 41
30.0
 62
     5
 63
     7
421
 16777215
 74
     1
 91
       10
 64
     7
 65
   257
 75
     2
175
     1
 42
1.0
 92
        8
 66
   257
 43
1.0
 76
     1
 77
     6
 78
     2
 67
     7
 79
     3
170
     0
171
     0
290
     0
174
     0
 93
        5
 44
0.0
173
     0
291
     0
 45
0.0
1001
ACAD
1000
AcDbSavedByObjectVersion
1070
     0
  0
VISUALSTYLE
  5
3E
102
{ACAD_XDICTIONARY
360
486
102
}
102
{ACAD_REACTORS
330
2A
102
}
330
2A
100
AcDbVisualStyle
  2

 70
    23
 71
     2
 72
     2
 73
     3
 90
        0
 40
-0.6
 41
-30.0
 62
     5
 63
     7
421
 16777215
 74
     2
 91
        2
 64
     7
 65
     7
 75
     1
175
     1
 42
40.0
 92
        8
 66
     7
 43
1.0
 76
     1
 77
     6
 78
     2
 67
     7
 79
     3
170
     0
171
     0
290
     0
174
     0
 93
        1
 44
0.0
173
     0
291
     0
 45
0.0
1001
ACAD
1000
AcDbSavedByObjectVersion
1070
     0
  0
VISUALSTYLE
  5
3F
102
{ACAD_XDICTIONARY
360
488
102
}
102
{ACAD_REACTORS
330
2A
102
}
330
2A
100
AcDbVisualStyle
  2

 70
    24
 71
     1
 72
     2
 73
     2
 90
        0
 40
-0.6
 41
-30.0
 62
     5
 63
     7
421
 16777215
 74
     2
 91
        2
 64
     7
 65
     7
 75
     1
175
     1
 42
40.0
 92
       11
 66
     7
 43
1.0
 76
     1
 77
     6
 78
     2
 67
     7
 79
     6
170
     0
171
     0
290
     0
174
     0
 93
        1
 44
0.0
173
     0
291
     0
 45
0.0
1001
ACAD
1000
AcDbSavedByObjectVersion
1070
     0
  0
VISUALSTYLE
  5
37
102
{ACAD_XDICTIONARY
360
478
102
}
102
{ACAD_REACTORS
330
2A
102
}
330
2A
100
AcDbVisualStyle
  2

 70
    13
 71
     2
 72
     2
 73
     0
 90
        0
 40
-0.6
 41
-30.0
 62
     5
 63
     7
421
 16777215
 74
     1
 91
        4
 64
     7
 65
   257
 75
     1
175
     1
 42
1.0
 92
       12
 66
     7
 43
1.0
 76
     1
 77
     6
 78
     2
 67
     7
 79
     5
170
     0
171
     0
290
     0
174
     0
 93
        1
 44
0.0
173
     0
291
     1
 45
0.0
1001
ACAD
1000
AcDbSavedByObjectVersion
1070
     0
  0
VISUALSTYLE
  5
30
102
{ACAD_XDICTIONARY
360
46A
102
}
102
{ACAD_REACTORS
330
2A
102
}
330
2A
100
AcDbVisualStyle
  2

 70
     5
 71
     0
 72
     2
 73
     0
 90
        0
 40
-0.6
 41
-30.0
 62
     5
 63
     7
421
 16777215
 74
     1
 91
        4
 64
     7
 65
   257
 75
     1
175
     1
 42
1.0
 92
        0
 66
   257
 43
1.0
 76
     1
 77
     6
 78
     2
 67
     7
 79
     3
170
     0
171
     0
290
     0
174
     0
 93
        1
 44
0.0
173
     0
291
     0
 45
0.0
1001
ACAD
1000
AcDbSavedByObjectVersion
1070
     0
  0
VISUALSTYLE
  5
40
102
{ACAD_XDICTIONARY
360
48A
102
}
102
{ACAD_REACTORS
330
2A
102
}
330
2A
100
AcDbVisualStyle
  2

 70
    25
 71
     2
 72
     2
 73
     1
 90
        1
 40
0.5
 41
-30.0
 62
     5
 63
     7
421
 16777215
 74
     1
 91
        0
 64
     7
 65
   257
 75
     1
175
     1
 42
1.0
 92
        8
 66
     7
 43
1.0
 76
     1
 77
     6
 78
     2
 67
     7
 79
     3
170
     0
171
     0
290
     0
174
     0
 93
       13
 44
0.0
173
     0
291
     0
 45
0.0
1001
ACAD
1000
AcDbSavedByObjectVersion
1070
     0
  0
DICTIONARYVAR
  5
384
102
{ACAD_REACTORS
330
383
102
}
330
383
100
DictionaryVariables
280
     0
  1
1:1
  0
DICTIONARYVAR
  5
3C5
102
{ACAD_REACTORS
330
383
102
}
330
383
100
DictionaryVariables
280
     0
  1
STANDARD
  0
DICTIONARYVAR
  5
3C4
102
{ACAD_REACTORS
330
383
102
}
330
383
100
DictionaryVariables
280
     0
  1
STANDARD
  0
DICTIONARYVAR
  5
452
102
{ACAD_REACTORS
330
383
102
}
330
383
100
DictionaryVariables
280
     0
  1
Metric50
  0
DICTIONARYVAR
  5
453
102
{ACAD_REACTORS
330
383
102
}
330
383
100
DictionaryVariables
280
     0
  1
Metric50
  0
DICTIONARYVAR
  5
385
102
{ACAD_REACTORS
330
383
102
}
330
383
100
DictionaryVariables
280
     0
  1
1
  0
DICTIONARYVAR
  5
454
102
{ACAD_REACTORS
330
383
102
}
330
383
100
DictionaryVariables
280
     0
  1
2
  0
DICTIONARY
  5
45F
102
{ACAD_REACTORS
330
45D
102
}
330
45D
100
AcDbDictionary
281
     1
  0
DICTIONARY
  5
45E
102
{ACAD_REACTORS
330
45D
102
}
330
45D
100
AcDbDictionary
281
     1
  3
1935553296896
350
458
  3
1935553296912
350
459
  3
1935553296928
350
45A
  3
1935553296944
350
45B
  3
1935553296960
350
45C
  0
DICTIONARY
  5
493
330
3CC
100
AcDbDictionary
280
     1
281
     1
  3
ACAD_XREC_ROUNDTRIP
360
494
  0
DICTIONARY
  5
3B9
330
45
100
AcDbDictionary
280
     1
281
     1
  3
ACAD_XREC_ROUNDTRIP
360
3BA
  0
DICTIONARY
  5
3B7
330
44
100
AcDbDictionary
280
     1
281
     1
  3
ACAD_XREC_ROUNDTRIP
360
3B8
  0
DICTIONARY
  5
3BB
330
46
100
AcDbDictionary
280
     1
281
     1
  3
ACAD_XREC_ROUNDTRIP
360
3BC
  0
DICTIONARY
  5
491
330
3CB
100
AcDbDictionary
280
     1
281
     1
  3
ACAD_XREC_ROUNDTRIP
360
492
  0
DICTIONARY
  5
3BD
330
6A
100
AcDbDictionary
280
     1
281
     1
  3
ACAD_ROUNDTRIP_2008_TABLESTYLE_CELLSTYLEMAP
360
456
  3
ACAD_XREC_ROUNDTRIP
360
490
  0
DICTIONARY
  5
468
330
2F
100
AcDbDictionary
280
     1
281
     1
  3
ACAD_XREC_ROUNDTRIP
360
469
  0
DICTIONARY
  5
46E
330
32
100
AcDbDictionary
280
     1
281
     1
  3
ACAD_XREC_ROUNDTRIP
360
46F
  0
DICTIONARY
  5
476
330
36
100
AcDbDictionary
280
     1
281
     1
  3
ACAD_XREC_ROUNDTRIP
360
477
  0
DICTIONARY
  5
47E
330
3A
100
AcDbDictionary
280
     1
281
     1
  3
ACAD_XREC_ROUNDTRIP
360
47F
  0
DICTIONARY
  5
472
330
34
100
AcDbDictionary
280
     1
281
     1
  3
ACAD_XREC_ROUNDTRIP
360
473
  0
DICTIONARY
  5
474
330
35
100
AcDbDictionary
280
     1
281
     1
  3
ACAD_XREC_ROUNDTRIP
360
475
  0
DICTIONARY
  5
484
330
3D
100
AcDbDictionary
280
     1
281
     1
  3
ACAD_XREC_ROUNDTRIP
360
485
  0
DICTIONARY
  5
47C
330
39
100
AcDbDictionary
280
     1
281
     1
  3
ACAD_XREC_ROUNDTRIP
360
47D
  0
DICTIONARY
  5
460
330
2B
100
AcDbDictionary
280
     1
281
     1
  3
ACAD_XREC_ROUNDTRIP
360
461
  0
DICTIONARY
  5
462
330
2C
100
AcDbDictionary
280
     1
281
     1
  3
ACAD_XREC_ROUNDTRIP
360
463
  0
DICTIONARY
  5
464
330
2D
100
AcDbDictionary
280
     1
281
     1
  3
ACAD_XREC_ROUNDTRIP
360
465
  0
DICTIONARY
  5
466
330
2E
100
AcDbDictionary
280
     1
281
     1
  3
ACAD_XREC_ROUNDTRIP
360
467
  0
DICTIONARY
  5
46C
330
31
100
AcDbDictionary
280
     1
281
     1
  3
ACAD_XREC_ROUNDTRIP
360
46D
  0
DICTIONARY
  5
480
330
3B
100
AcDbDictionary
280
     1
281
     1
  3
ACAD_XREC_ROUNDTRIP
360
481
  0
DICTIONARY
  5
47A
330
38
100
AcDbDictionary
280
     1
281
     1
  3
ACAD_XREC_ROUNDTRIP
360
47B
  0
DICTIONARY
  5
482
330
3C
100
AcDbDictionary
280
     1
281
     1
  3
ACAD_XREC_ROUNDTRIP
360
483
  0
DICTIONARY
  5
470
330
33
100
AcDbDictionary
280
     1
281
     1
  3
ACAD_XREC_ROUNDTRIP
360
471
  0
DICTIONARY
  5
48E
330
42
100
AcDbDictionary
280
     1
281
     1
  3
ACAD_XREC_ROUNDTRIP
360
48F
  0
DICTIONARY
  5
48C
330
41
100
AcDbDictionary
280
     1
281
     1
  3
ACAD_XREC_ROUNDTRIP
360
48D
  0
DICTIONARY
  5
486
330
3E
100
AcDbDictionary
280
     1
281
     1
  3
ACAD_XREC_ROUNDTRIP
360
487
  0
DICTIONARY
  5
488
330
3F
100
AcDbDictionary
280
     1
281
     1
  3
ACAD_XREC_ROUNDTRIP
360
489
  0
DICTIONARY
  5
478
330
37
100
AcDbDictionary
280
     1
281
     1
  3
ACAD_XREC_ROUNDTRIP
360
479
  0
DICTIONARY
  5
46A
330
30
100
AcDbDictionary
280
     1
281
     1
  3
ACAD_XREC_ROUNDTRIP
360
46B
  0
DICTIONARY
  5
48A
330
40
100
AcDbDictionary
280
     1
281
     1
  3
ACAD_XREC_ROUNDTRIP
360
48B
  0
XRECORD
  5
458
102
{ACAD_REACTORS
330
45E
102
}
330
45E
100
AcDbXrecord
280
     1
  1
AcDb_Thumbnail_Schema
102
{ATTRRECORD
341
459
  2
AcDbDs::TreatedAsObjectData
280
     1
291
     1
102
ATTRRECORD}
102
{ATTRRECORD
341
45A
  2
AcDbDs::Legacy
280
     1
291
     1
102
ATTRRECORD}
  2
AcDbDs::ID
280
    10
 91
        8
102
{ATTRRECORD
341
45B
  2
AcDs:Indexable
280
     1
291
     1
102
ATTRRECORD}
102
{ATTRRECORD
341
45C
  2
AcDbDs::HandleAttribute
280
     7
282
     1
102
ATTRRECORD}
  2
Thumbnail_Data
280
    15
 91
        0
  0
XRECORD
  5
459
102
{ACAD_REACTORS
330
45E
102
}
330
45E
100
AcDbXrecord
280
     1
  1
AcDbDs::TreatedAsObjectDataSchema
  2
AcDbDs::TreatedAsObjectData
280
     1
 91
        0
  0
XRECORD
  5
45A
102
{ACAD_REACTORS
330
45E
102
}
330
45E
100
AcDbXrecord
280
     1
  1
AcDbDs::LegacySchema
  2
AcDbDs::Legacy
280
     1
 91
        0
  0
XRECORD
  5
45B
102
{ACAD_REACTORS
330
45E
102
}
330
45E
100
AcDbXrecord
280
     1
  1
AcDbDs::IndexedPropertySchema
  2
AcDs:Indexable
280
     1
 91
        0
  0
XRECORD
  5
45C
102
{ACAD_REACTORS
330
45E
102
}
330
45E
100
AcDbXrecord
280
     1
  1
AcDbDs::HandleAttributeSchema
  2
AcDbDs::HandleAttribute
280
     7
 91
        1
284
     1
  0
XRECORD
  5
494
102
{ACAD_REACTORS
330
493
102
}
330
493
100
AcDbXrecord
280
     1
102
DISPLAYNAME
  1
Metric50
102
FLAGS
 90
        0
  0
XRECORD
  5
3BA
102
{ACAD_REACTORS
330
3B9
102
}
330
3B9
100
AcDbXrecord
280
     1
102
MATERIAL
148
0.0
149
0.0
149
0.0
 93
        0
 94
      127
282
     0
 72
     1
 77
     1
171
     1
175
     1
179
     1
273
     0
  0
XRECORD
  5
3B8
102
{ACAD_REACTORS
330
3B7
102
}
330
3B7
100
AcDbXrecord
280
     1
102
MATERIAL
148
0.0
149
0.0
149
0.0
 93
        0
 94
      127
282
     0
 72
     1
 77
     1
171
     1
175
     1
179
     1
273
     0
  0
XRECORD
  5
3BC
102
{ACAD_REACTORS
330
3BB
102
}
330
3BB
100
AcDbXrecord
280
     1
102
MATERIAL
148
0.0
149
0.0
149
0.0
 93
        0
 94
      127
282
     0
 72
     1
 77
     1
171
     1
175
     1
179
     1
273
     0
  0
XRECORD
  5
492
102
{ACAD_REACTORS
330
491
102
}
330
491
100
AcDbXrecord
280
     1
102
DISPLAYNAME
  1
Metric50
102
FLAGS
 90
        0
  0
CELLSTYLEMAP
  5
456
102
{ACAD_REACTORS
330
3BD
102
}
330
3BD
100
AcDbCellStyleMap
 90
        3
300
CELLSTYLE
  1
TABLEFORMAT_BEGIN
 90
        5
170
     1
 91
        0
 92
    32768
 62
   257
 93
        1
300
CONTENTFORMAT
  1
CONTENTFORMAT_BEGIN
 90
        0
 91
        0
 92
        4
 93
        0
300

 40
0.0
140
1.0
 94
        5
 62
     0
340
11
144
0.25
309
CONTENTFORMAT_END
171
     1
301
MARGIN
  1
CELLMARGIN_BEGIN
 40
0.06
 40
0.06
 40
0.06
 40
0.06
 40
0.18
 40
0.18
309
CELLMARGIN_END
 94
        6
 95
        1
302
GRIDFORMAT
  1
GRIDFORMAT_BEGIN
 90
        0
 91
        1
 62
     0
 92
       -2
340
14
 93
        0
 40
0.045
309
GRIDFORMAT_END
 95
        2
302
GRIDFORMAT
  1
GRIDFORMAT_BEGIN
 90
        0
 91
        1
 62
     0
 92
       -2
340
14
 93
        0
 40
0.045
309
GRIDFORMAT_END
 95
        4
302
GRIDFORMAT
  1
GRIDFORMAT_BEGIN
 90
        0
 91
        1
 62
     0
 92
       -2
340
14
 93
        0
 40
0.045
309
GRIDFORMAT_END
 95
        8
302
GRIDFORMAT
  1
GRIDFORMAT_BEGIN
 90
        0
 91
        1
 62
     0
 92
       -2
340
14
 93
        0
 40
0.045
309
GRIDFORMAT_END
 95
       16
302
GRIDFORMAT
  1
GRIDFORMAT_BEGIN
 90
        0
 91
        1
 62
     0
 92
       -2
340
14
 93
        0
 40
0.045
309
GRIDFORMAT_END
 95
       32
302
GRIDFORMAT
  1
GRIDFORMAT_BEGIN
 90
        0
 91
        1
 62
     0
 92
       -2
340
14
 93
        0
 40
0.045
309
GRIDFORMAT_END
309
TABLEFORMAT_END
  1
CELLSTYLE_BEGIN
 90
        1
 91
        1
300
_TITLE
309
CELLSTYLE_END
300
CELLSTYLE
  1
TABLEFORMAT_BEGIN
 90
        5
170
     1
 91
        0
 92
        0
 62
   257
 93
        1
300
CONTENTFORMAT
  1
CONTENTFORMAT_BEGIN
 90
        0
 91
        0
 92
        4
 93
        0
300

 40
0.0
140
1.0
 94
        5
 62
     0
340
11
144
0.18
309
CONTENTFORMAT_END
171
     1
301
MARGIN
  1
CELLMARGIN_BEGIN
 40
0.06
 40
0.06
 40
0.06
 40
0.06
 40
0.18
 40
0.18
309
CELLMARGIN_END
 94
        6
 95
        1
302
GRIDFORMAT
  1
GRIDFORMAT_BEGIN
 90
        0
 91
        1
 62
     0
 92
       -2
340
14
 93
        0
 40
0.045
309
GRIDFORMAT_END
 95
        2
302
GRIDFORMAT
  1
GRIDFORMAT_BEGIN
 90
        0
 91
        1
 62
     0
 92
       -2
340
14
 93
        0
 40
0.045
309
GRIDFORMAT_END
 95
        4
302
GRIDFORMAT
  1
GRIDFORMAT_BEGIN
 90
        0
 91
        1
 62
     0
 92
       -2
340
14
 93
        0
 40
0.045
309
GRIDFORMAT_END
 95
        8
302
GRIDFORMAT
  1
GRIDFORMAT_BEGIN
 90
        0
 91
        1
 62
     0
 92
       -2
340
14
 93
        0
 40
0.045
309
GRIDFORMAT_END
 95
       16
302
GRIDFORMAT
  1
GRIDFORMAT_BEGIN
 90
        0
 91
        1
 62
     0
 92
       -2
340
14
 93
        0
 40
0.045
309
GRIDFORMAT_END
 95
       32
302
GRIDFORMAT
  1
GRIDFORMAT_BEGIN
 90
        0
 91
        1
 62
     0
 92
       -2
340
14
 93
        0
 40
0.045
309
GRIDFORMAT_END
309
TABLEFORMAT_END
  1
CELLSTYLE_BEGIN
 90
        2
 91
        1
300
_HEADER
309
CELLSTYLE_END
300
CELLSTYLE
  1
TABLEFORMAT_BEGIN
 90
        5
170
     1
 91
        0
 92
        0
 62
   257
 93
        1
300
CONTENTFORMAT
  1
CONTENTFORMAT_BEGIN
 90
        0
 91
        0
 92
        4
 93
        0
300

 40
0.0
140
1.0
 94
        2
 62
     0
340
11
144
0.18
309
CONTENTFORMAT_END
171
     1
301
MARGIN
  1
CELLMARGIN_BEGIN
 40
0.06
 40
0.06
 40
0.06
 40
0.06
 40
0.18
 40
0.18
309
CELLMARGIN_END
 94
        6
 95
        1
302
GRIDFORMAT
  1
GRIDFORMAT_BEGIN
 90
        0
 91
        1
 62
     0
 92
       -2
340
14
 93
        0
 40
0.045
309
GRIDFORMAT_END
 95
        2
302
GRIDFORMAT
  1
GRIDFORMAT_BEGIN
 90
        0
 91
        1
 62
     0
 92
       -2
340
14
 93
        0
 40
0.045
309
GRIDFORMAT_END
 95
        4
302
GRIDFORMAT
  1
GRIDFORMAT_BEGIN
 90
        0
 91
        1
 62
     0
 92
       -2
340
14
 93
        0
 40
0.045
309
GRIDFORMAT_END
 95
        8
302
GRIDFORMAT
  1
GRIDFORMAT_BEGIN
 90
        0
 91
        1
 62
     0
 92
       -2
340
14
 93
        0
 40
0.045
309
GRIDFORMAT_END
 95
       16
302
GRIDFORMAT
  1
GRIDFORMAT_BEGIN
 90
        0
 91
        1
 62
     0
 92
       -2
340
14
 93
        0
 40
0.045
309
GRIDFORMAT_END
 95
       32
302
GRIDFORMAT
  1
GRIDFORMAT_BEGIN
 90
        0
 91
        1
 62
     0
 92
       -2
340
14
 93
        0
 40
0.045
309
GRIDFORMAT_END
309
TABLEFORMAT_END
  1
CELLSTYLE_BEGIN
 90
        3
 91
        2
300
_DATA
309
CELLSTYLE_END
  0
XRECORD
  5
490
102
{ACAD_REACTORS
330
3BD
102
}
330
3BD
100
AcDbXrecord
280
     1
102
ACAD_ROUNDTRIP_PRE2007_TABLESTYLE
 90
        4
 91
        0
  1

 92
        4
 93
        0
  2

 94
        4
 95
        0
  3

  0
XRECORD
  5
469
102
{ACAD_REACTORS
330
468
102
}
330
468
100
AcDbXrecord
280
     1
102
RTVSPost2010Prop28
280
     1
102
RTVSPost2010PropOp28
 70
     1
102
RTVSPost2010Prop29
280
     1
102
RTVSPost2010PropOp29
 70
     1
102
RTVSPost2010Prop30
280
     0
102
RTVSPost2010PropOp30
 70
     1
102
RTVSPost2010Prop31
280
     0
102
RTVSPost2010PropOp31
 70
     1
102
RTVSPost2010Prop32
280
     0
102
RTVSPost2010PropOp32
 70
     1
102
RTVSPost2010Prop33
280
     0
102
RTVSPost2010PropOp33
 70
     1
102
RTVSPost2010Prop34
280
     0
102
RTVSPost2010PropOp34
 70
     1
102
RTVSPost2010Prop35
280
     0
102
RTVSPost2010PropOp35
 70
     1
102
RTVSPost2010Prop36
280
     0
102
RTVSPost2010PropOp36
 70
     1
102
RTVSPost2010Prop37
 90
       50
102
RTVSPost2010PropOp37
 70
     1
102
RTVSPost2010Prop38
140
0.0
102
RTVSPost2010PropOp38
 70
     1
102
RTVSPost2010Prop39
140
1.0
102
RTVSPost2010PropOp39
 70
     1
102
RTVSPost2010Prop40
 90
        0
102
RTVSPost2010PropOp40
 70
     1
102
RTVSPost2010Prop41ColorIndex
 90
       18
102
RTVSPost2010Prop41ColorRGB
 90
        0
102
RTVSPost2010PropOp41
 70
     1
102
RTVSPost2010Prop42
 90
       50
102
RTVSPost2010PropOp42
 70
     1
102
RTVSPost2010Prop43
 90
        3
102
RTVSPost2010PropOp43
 70
     1
102
RTVSPost2010Prop44ColorIndex
 90
        5
102
RTVSPost2010Prop44ColorRGB
 90
      255
102
RTVSPost2010PropOp44
 70
     1
102
RTVSPost2010Prop45
280
     0
102
RTVSPost2010PropOp45
 70
     1
102
RTVSPost2010Prop46
 90
       50
102
RTVSPost2010PropOp46
 70
     1
102
RTVSPost2010Prop47
 90
       50
102
RTVSPost2010PropOp47
 70
     1
102
RTVSPost2010Prop48
 90
       50
102
RTVSPost2010PropOp48
 70
     1
102
RTVSPost2010Prop49
280
     0
102
RTVSPost2010PropOp49
 70
     1
102
RTVSPost2010Prop50
 90
       50
102
RTVSPost2010PropOp50
 70
     1
102
RTVSPost2010Prop51ColorIndex
 90
      256
102
RTVSPost2010Prop51ColorRGB
 90
-16777216
102
RTVSPost2010PropOp51
 70
     0
102
RTVSPost2010Prop52
140
1.0
102
RTVSPost2010PropOp52
 70
     0
102
RTVSPost2010Prop53
 90
        2
102
RTVSPost2010PropOp53
 70
     1
102
RTVSPost2010Prop54
  1
strokes_ogs.tif
102
RTVSPost2010PropOp54
 70
     1
102
RTVSPost2010Prop55
280
     0
102
RTVSPost2010PropOp55
 70
     1
102
RTVSPost2010Prop56
140
1.0
102
RTVSPost2010PropOp56
 70
     1
102
RTVSPost2010Prop57
140
1.0
102
RTVSPost2010PropOp57
 70
     1
102
RTVSPropertyOp0
 70
     1
102
RTVSPropertyOp1
 70
     1
102
RTVSPropertyOp2
 70
     1
102
RTVSPropertyOp3
 70
     1
102
RTVSPropertyOp4
 70
     1
102
RTVSPropertyOp5
 70
     1
102
RTVSPropertyOp6
 70
     1
102
RTVSPropertyOp7
 70
     1
102
RTVSPropertyOp8
 70
     1
102
RTVSPropertyOp9
 70
     1
102
RTVSPropertyOp10
 70
     1
102
RTVSPropertyOp11
 70
     1
102
RTVSPropertyOp12
 70
     1
102
RTVSPropertyOp13
 70
     1
102
RTVSPropertyOp14
 70
     1
102
RTVSPropertyOp15
 70
     1
102
RTVSPropertyOp16
 70
     1
102
RTVSPropertyOp17
 70
     1
102
RTVSPropertyOp18
 70
     1
102
RTVSPropertyOp19
 70
     1
102
RTVSPropertyOp20
 70
     1
102
RTVSPropertyOp21
 70
     1
102
RTVSPropertyOp22
 70
     1
102
RTVSPropertyOp23
 70
     1
102
RTVSPropertyOp24
 70
     1
102
RTVSPropertyOp25
 70
     1
102
RTVSPropertyOp26
 70
     1
102
RTVSPropertyOp27
 70
     1
102
RTVSPropertyOp28
 70
     1
102
RTVSPropertyOp29
 70
     1
102
RTVSPropertyOp30
 70
     1
102
RTVSPropertyOp31
 70
     1
102
RTVSPropertyOp32
 70
     1
102
RTVSPropertyOp33
 70
     1
102
RTVSPropertyOp34
 70
     1
102
RTVSPropertyOp35
 70
     1
102
RTVSPropertyOp36
 70
     1
102
RTVSPropertyOp37
 70
     1
102
RTVSPropertyOp38
 70
     1
102
RTVSPropertyOp39
 70
     1
102
RTVSPropertyOp40
 70
     1
102
RTVSPropertyOp41
 70
     1
102
RTVSPropertyOp42
 70
     1
102
RTVSPropertyOp43
 70
     1
102
RTVSPropertyOp44
 70
     1
102
RTVSPropertyOp45
 70
     1
102
RTVSPropertyOp46
 70
     1
102
RTVSPropertyOp47
 70
     1
102
RTVSPropertyOp48
 70
     1
102
RTVSPropertyOp49
 70
     1
102
RTVSPropertyOp50
 70
     1
102
RTVSPropertyOp51
 70
     0
102
RTVSPropertyOp52
 70
     0
102
RTVSPropertyOp53
 70
     1
102
RTVSPropertyOp54
 70
     1
102
RTVSPropertyOp55
 70
     1
102
RTVSPropertyOp56
 70
     1
102
RTVSPropertyOp57
 70
     1
102
RTVSPropertyOp58
 70
     1
102
RTVSPropertyOp59
 70
     1
102
RTVSPropertyOp60
 70
     1
102
RTVSPropertyOp61
 70
     1
102
RTVSPropertyOp62
 70
     1
  0
XRECORD
  5
46F
102
{ACAD_REACTORS
330
46E
102
}
330
46E
100
AcDbXrecord
280
     1
102
RTVSPost2010Prop28
280
     0
102
RTVSPost2010PropOp28
 70
     1
102
RTVSPost2010Prop29
280
     1
102
RTVSPost2010PropOp29
 70
     1
102
RTVSPost2010Prop30
280
     1
102
RTVSPost2010PropOp30
 70
     1
102
RTVSPost2010Prop31
280
     0
102
RTVSPost2010PropOp31
 70
     1
102
RTVSPost2010Prop32
280
     0
102
RTVSPost2010PropOp32
 70
     1
102
RTVSPost2010Prop33
280
     0
102
RTVSPost2010PropOp33
 70
     1
102
RTVSPost2010Prop34
280
     0
102
RTVSPost2010PropOp34
 70
     1
102
RTVSPost2010Prop35
280
     0
102
RTVSPost2010PropOp35
 70
     1
102
RTVSPost2010Prop36
280
     0
102
RTVSPost2010PropOp36
 70
     1
102
RTVSPost2010Prop37
 90
       50
102
RTVSPost2010PropOp37
 70
     1
102
RTVSPost2010Prop38
140
0.0
102
RTVSPost2010PropOp38
 70
     1
102
RTVSPost2010Prop39
140
1.0
102
RTVSPost2010PropOp39
 70
     1
102
RTVSPost2010Prop40
 90
        0
102
RTVSPost2010PropOp40
 70
     1
102
RTVSPost2010Prop41ColorIndex
 90
       18
102
RTVSPost2010Prop41ColorRGB
 90
        0
102
RTVSPost2010PropOp41
 70
     1
102
RTVSPost2010Prop42
 90
       50
102
RTVSPost2010PropOp42
 70
     1
102
RTVSPost2010Prop43
 90
        3
102
RTVSPost2010PropOp43
 70
     1
102
RTVSPost2010Prop44ColorIndex
 90
        5
102
RTVSPost2010Prop44ColorRGB
 90
      255
102
RTVSPost2010PropOp44
 70
     1
102
RTVSPost2010Prop45
280
     0
102
RTVSPost2010PropOp45
 70
     1
102
RTVSPost2010Prop46
 90
       50
102
RTVSPost2010PropOp46
 70
     1
102
RTVSPost2010Prop47
 90
       50
102
RTVSPost2010PropOp47
 70
     1
102
RTVSPost2010Prop48
 90
       50
102
RTVSPost2010PropOp48
 70
     1
102
RTVSPost2010Prop49
280
     0
102
RTVSPost2010PropOp49
 70
     1
102
RTVSPost2010Prop50
 90
       50
102
RTVSPost2010PropOp50
 70
     1
102
RTVSPost2010Prop51ColorIndex
 90
      256
102
RTVSPost2010Prop51ColorRGB
 90
-16777216
102
RTVSPost2010PropOp51
 70
     0
102
RTVSPost2010Prop52
140
1.0
102
RTVSPost2010PropOp52
 70
     0
102
RTVSPost2010Prop53
 90
        2
102
RTVSPost2010PropOp53
 70
     1
102
RTVSPost2010Prop54
  1
strokes_ogs.tif
102
RTVSPost2010PropOp54
 70
     1
102
RTVSPost2010Prop55
280
     0
102
RTVSPost2010PropOp55
 70
     1
102
RTVSPost2010Prop56
140
1.0
102
RTVSPost2010PropOp56
 70
     1
102
RTVSPost2010Prop57
140
1.0
102
RTVSPost2010PropOp57
 70
     1
102
RTVSPropertyOp0
 70
     1
102
RTVSPropertyOp1
 70
     1
102
RTVSPropertyOp2
 70
     1
102
RTVSPropertyOp3
 70
     1
102
RTVSPropertyOp4
 70
     1
102
RTVSPropertyOp5
 70
     1
102
RTVSPropertyOp6
 70
     1
102
RTVSPropertyOp7
 70
     1
102
RTVSPropertyOp8
 70
     1
102
RTVSPropertyOp9
 70
     1
102
RTVSPropertyOp10
 70
     1
102
RTVSPropertyOp11
 70
     1
102
RTVSPropertyOp12
 70
     1
102
RTVSPropertyOp13
 70
     1
102
RTVSPropertyOp14
 70
     1
102
RTVSPropertyOp15
 70
     1
102
RTVSPropertyOp16
 70
     1
102
RTVSPropertyOp17
 70
     1
102
RTVSPropertyOp18
 70
     1
102
RTVSPropertyOp19
 70
     1
102
RTVSPropertyOp20
 70
     1
102
RTVSPropertyOp21
 70
     1
102
RTVSPropertyOp22
 70
     1
102
RTVSPropertyOp23
 70
     1
102
RTVSPropertyOp24
 70
     1
102
RTVSPropertyOp25
 70
     1
102
RTVSPropertyOp26
 70
     1
102
RTVSPropertyOp27
 70
     1
102
RTVSPropertyOp28
 70
     1
102
RTVSPropertyOp29
 70
     1
102
RTVSPropertyOp30
 70
     1
102
RTVSPropertyOp31
 70
     1
102
RTVSPropertyOp32
 70
     1
102
RTVSPropertyOp33
 70
     1
102
RTVSPropertyOp34
 70
     1
102
RTVSPropertyOp35
 70
     1
102
RTVSPropertyOp36
 70
     1
102
RTVSPropertyOp37
 70
     1
102
RTVSPropertyOp38
 70
     1
102
RTVSPropertyOp39
 70
     1
102
RTVSPropertyOp40
 70
     1
102
RTVSPropertyOp41
 70
     1
102
RTVSPropertyOp42
 70
     1
102
RTVSPropertyOp43
 70
     1
102
RTVSPropertyOp44
 70
     1
102
RTVSPropertyOp45
 70
     1
102
RTVSPropertyOp46
 70
     1
102
RTVSPropertyOp47
 70
     1
102
RTVSPropertyOp48
 70
     1
102
RTVSPropertyOp49
 70
     1
102
RTVSPropertyOp50
 70
     1
102
RTVSPropertyOp51
 70
     0
102
RTVSPropertyOp52
 70
     0
102
RTVSPropertyOp53
 70
     1
102
RTVSPropertyOp54
 70
     1
102
RTVSPropertyOp55
 70
     1
102
RTVSPropertyOp56
 70
     1
102
RTVSPropertyOp57
 70
     1
102
RTVSPropertyOp58
 70
     1
102
RTVSPropertyOp59
 70
     1
102
RTVSPropertyOp60
 70
     1
102
RTVSPropertyOp61
 70
     1
102
RTVSPropertyOp62
 70
     1
  0
XRECORD
  5
477
102
{ACAD_REACTORS
330
476
102
}
330
476
100
AcDbXrecord
280
     1
102
RTVSPost2010Prop28
280
     0
102
RTVSPost2010PropOp28
 70
     1
102
RTVSPost2010Prop29
280
     1
102
RTVSPost2010PropOp29
 70
     1
102
RTVSPost2010Prop30
280
     1
102
RTVSPost2010PropOp30
 70
     1
102
RTVSPost2010Prop31
280
     0
102
RTVSPost2010PropOp31
 70
     1
102
RTVSPost2010Prop32
280
     0
102
RTVSPost2010PropOp32
 70
     1
102
RTVSPost2010Prop33
280
     0
102
RTVSPost2010PropOp33
 70
     1
102
RTVSPost2010Prop34
280
     0
102
RTVSPost2010PropOp34
 70
     1
102
RTVSPost2010Prop35
280
     0
102
RTVSPost2010PropOp35
 70
     1
102
RTVSPost2010Prop36
280
     0
102
RTVSPost2010PropOp36
 70
     1
102
RTVSPost2010Prop37
 90
       50
102
RTVSPost2010PropOp37
 70
     1
102
RTVSPost2010Prop38
140
0.0
102
RTVSPost2010PropOp38
 70
     1
102
RTVSPost2010Prop39
140
1.0
102
RTVSPost2010PropOp39
 70
     1
102
RTVSPost2010Prop40
 90
        0
102
RTVSPost2010PropOp40
 70
     1
102
RTVSPost2010Prop41ColorIndex
 90
       18
102
RTVSPost2010Prop41ColorRGB
 90
        0
102
RTVSPost2010PropOp41
 70
     1
102
RTVSPost2010Prop42
 90
       50
102
RTVSPost2010PropOp42
 70
     1
102
RTVSPost2010Prop43
 90
        3
102
RTVSPost2010PropOp43
 70
     1
102
RTVSPost2010Prop44ColorIndex
 90
        5
102
RTVSPost2010Prop44ColorRGB
 90
      255
102
RTVSPost2010PropOp44
 70
     1
102
RTVSPost2010Prop45
280
     0
102
RTVSPost2010PropOp45
 70
     1
102
RTVSPost2010Prop46
 90
       50
102
RTVSPost2010PropOp46
 70
     1
102
RTVSPost2010Prop47
 90
       50
102
RTVSPost2010PropOp47
 70
     1
102
RTVSPost2010Prop48
 90
       50
102
RTVSPost2010PropOp48
 70
     1
102
RTVSPost2010Prop49
280
     0
102
RTVSPost2010PropOp49
 70
     1
102
RTVSPost2010Prop50
 90
       50
102
RTVSPost2010PropOp50
 70
     1
102
RTVSPost2010Prop51ColorIndex
 90
      256
102
RTVSPost2010Prop51ColorRGB
 90
-16777216
102
RTVSPost2010PropOp51
 70
     0
102
RTVSPost2010Prop52
140
1.0
102
RTVSPost2010PropOp52
 70
     0
102
RTVSPost2010Prop53
 90
        2
102
RTVSPost2010PropOp53
 70
     1
102
RTVSPost2010Prop54
  1
strokes_ogs.tif
102
RTVSPost2010PropOp54
 70
     1
102
RTVSPost2010Prop55
280
     0
102
RTVSPost2010PropOp55
 70
     1
102
RTVSPost2010Prop56
140
1.0
102
RTVSPost2010PropOp56
 70
     1
102
RTVSPost2010Prop57
140
1.0
102
RTVSPost2010PropOp57
 70
     1
102
RTVSPropertyOp0
 70
     1
102
RTVSPropertyOp1
 70
     1
102
RTVSPropertyOp2
 70
     1
102
RTVSPropertyOp3
 70
     1
102
RTVSPropertyOp4
 70
     1
102
RTVSPropertyOp5
 70
     1
102
RTVSPropertyOp6
 70
     1
102
RTVSPropertyOp7
 70
     1
102
RTVSPropertyOp8
 70
     1
102
RTVSPropertyOp9
 70
     1
102
RTVSPropertyOp10
 70
     1
102
RTVSPropertyOp11
 70
     1
102
RTVSPropertyOp12
 70
     1
102
RTVSPropertyOp13
 70
     1
102
RTVSPropertyOp14
 70
     1
102
RTVSPropertyOp15
 70
     1
102
RTVSPropertyOp16
 70
     1
102
RTVSPropertyOp17
 70
     1
102
RTVSPropertyOp18
 70
     1
102
RTVSPropertyOp19
 70
     1
102
RTVSPropertyOp20
 70
     1
102
RTVSPropertyOp21
 70
     1
102
RTVSPropertyOp22
 70
     1
102
RTVSPropertyOp23
 70
     1
102
RTVSPropertyOp24
 70
     1
102
RTVSPropertyOp25
 70
     1
102
RTVSPropertyOp26
 70
     1
102
RTVSPropertyOp27
 70
     1
102
RTVSPropertyOp28
 70
     1
102
RTVSPropertyOp29
 70
     1
102
RTVSPropertyOp30
 70
     1
102
RTVSPropertyOp31
 70
     1
102
RTVSPropertyOp32
 70
     1
102
RTVSPropertyOp33
 70
     1
102
RTVSPropertyOp34
 70
     1
102
RTVSPropertyOp35
 70
     1
102
RTVSPropertyOp36
 70
     1
102
RTVSPropertyOp37
 70
     1
102
RTVSPropertyOp38
 70
     1
102
RTVSPropertyOp39
 70
     1
102
RTVSPropertyOp40
 70
     1
102
RTVSPropertyOp41
 70
     1
102
RTVSPropertyOp42
 70
     1
102
RTVSPropertyOp43
 70
     1
102
RTVSPropertyOp44
 70
     1
102
RTVSPropertyOp45
 70
     1
102
RTVSPropertyOp46
 70
     1
102
RTVSPropertyOp47
 70
     1
102
RTVSPropertyOp48
 70
     1
102
RTVSPropertyOp49
 70
     1
102
RTVSPropertyOp50
 70
     1
102
RTVSPropertyOp51
 70
     0
102
RTVSPropertyOp52
 70
     0
102
RTVSPropertyOp53
 70
     1
102
RTVSPropertyOp54
 70
     1
102
RTVSPropertyOp55
 70
     1
102
RTVSPropertyOp56
 70
     1
102
RTVSPropertyOp57
 70
     1
102
RTVSPropertyOp58
 70
     1
102
RTVSPropertyOp59
 70
     1
102
RTVSPropertyOp60
 70
     1
102
RTVSPropertyOp61
 70
     1
102
RTVSPropertyOp62
 70
     1
  0
XRECORD
  5
47F
102
{ACAD_REACTORS
330
47E
102
}
330
47E
100
AcDbXrecord
280
     1
102
RTVSPost2010Prop28
280
     0
102
RTVSPost2010PropOp28
 70
     1
102
RTVSPost2010Prop29
280
     1
102
RTVSPost2010PropOp29
 70
     1
102
RTVSPost2010Prop30
280
     1
102
RTVSPost2010PropOp30
 70
     1
102
RTVSPost2010Prop31
280
     0
102
RTVSPost2010PropOp31
 70
     1
102
RTVSPost2010Prop32
280
     0
102
RTVSPost2010PropOp32
 70
     1
102
RTVSPost2010Prop33
280
     0
102
RTVSPost2010PropOp33
 70
     1
102
RTVSPost2010Prop34
280
     0
102
RTVSPost2010PropOp34
 70
     1
102
RTVSPost2010Prop35
280
     0
102
RTVSPost2010PropOp35
 70
     1
102
RTVSPost2010Prop36
280
     0
102
RTVSPost2010PropOp36
 70
     1
102
RTVSPost2010Prop37
 90
       50
102
RTVSPost2010PropOp37
 70
     1
102
RTVSPost2010Prop38
140
0.0
102
RTVSPost2010PropOp38
 70
     1
102
RTVSPost2010Prop39
140
1.0
102
RTVSPost2010PropOp39
 70
     1
102
RTVSPost2010Prop40
 90
        0
102
RTVSPost2010PropOp40
 70
     1
102
RTVSPost2010Prop41ColorIndex
 90
       18
102
RTVSPost2010Prop41ColorRGB
 90
        0
102
RTVSPost2010PropOp41
 70
     1
102
RTVSPost2010Prop42
 90
       50
102
RTVSPost2010PropOp42
 70
     1
102
RTVSPost2010Prop43
 90
        3
102
RTVSPost2010PropOp43
 70
     1
102
RTVSPost2010Prop44ColorIndex
 90
        5
102
RTVSPost2010Prop44ColorRGB
 90
      255
102
RTVSPost2010PropOp44
 70
     1
102
RTVSPost2010Prop45
280
     0
102
RTVSPost2010PropOp45
 70
     1
102
RTVSPost2010Prop46
 90
       50
102
RTVSPost2010PropOp46
 70
     1
102
RTVSPost2010Prop47
 90
       50
102
RTVSPost2010PropOp47
 70
     1
102
RTVSPost2010Prop48
 90
       50
102
RTVSPost2010PropOp48
 70
     1
102
RTVSPost2010Prop49
280
     0
102
RTVSPost2010PropOp49
 70
     1
102
RTVSPost2010Prop50
 90
       50
102
RTVSPost2010PropOp50
 70
     1
102
RTVSPost2010Prop51ColorIndex
 90
      256
102
RTVSPost2010Prop51ColorRGB
 90
-16777216
102
RTVSPost2010PropOp51
 70
     0
102
RTVSPost2010Prop52
140
1.0
102
RTVSPost2010PropOp52
 70
     0
102
RTVSPost2010Prop53
 90
        2
102
RTVSPost2010PropOp53
 70
     1
102
RTVSPost2010Prop54
  1
strokes_ogs.tif
102
RTVSPost2010PropOp54
 70
     1
102
RTVSPost2010Prop55
280
     0
102
RTVSPost2010PropOp55
 70
     1
102
RTVSPost2010Prop56
140
1.0
102
RTVSPost2010PropOp56
 70
     1
102
RTVSPost2010Prop57
140
1.0
102
RTVSPost2010PropOp57
 70
     1
102
RTVSPropertyOp0
 70
     1
102
RTVSPropertyOp1
 70
     1
102
RTVSPropertyOp2
 70
     1
102
RTVSPropertyOp3
 70
     1
102
RTVSPropertyOp4
 70
     1
102
RTVSPropertyOp5
 70
     1
102
RTVSPropertyOp6
 70
     1
102
RTVSPropertyOp7
 70
     1
102
RTVSPropertyOp8
 70
     1
102
RTVSPropertyOp9
 70
     1
102
RTVSPropertyOp10
 70
     1
102
RTVSPropertyOp11
 70
     1
102
RTVSPropertyOp12
 70
     1
102
RTVSPropertyOp13
 70
     1
102
RTVSPropertyOp14
 70
     1
102
RTVSPropertyOp15
 70
     1
102
RTVSPropertyOp16
 70
     1
102
RTVSPropertyOp17
 70
     1
102
RTVSPropertyOp18
 70
     1
102
RTVSPropertyOp19
 70
     1
102
RTVSPropertyOp20
 70
     1
102
RTVSPropertyOp21
 70
     1
102
RTVSPropertyOp22
 70
     1
102
RTVSPropertyOp23
 70
     1
102
RTVSPropertyOp24
 70
     1
102
RTVSPropertyOp25
 70
     1
102
RTVSPropertyOp26
 70
     1
102
RTVSPropertyOp27
 70
     1
102
RTVSPropertyOp28
 70
     1
102
RTVSPropertyOp29
 70
     1
102
RTVSPropertyOp30
 70
     1
102
RTVSPropertyOp31
 70
     1
102
RTVSPropertyOp32
 70
     1
102
RTVSPropertyOp33
 70
     1
102
RTVSPropertyOp34
 70
     1
102
RTVSPropertyOp35
 70
     1
102
RTVSPropertyOp36
 70
     1
102
RTVSPropertyOp37
 70
     1
102
RTVSPropertyOp38
 70
     1
102
RTVSPropertyOp39
 70
     1
102
RTVSPropertyOp40
 70
     1
102
RTVSPropertyOp41
 70
     1
102
RTVSPropertyOp42
 70
     1
102
RTVSPropertyOp43
 70
     1
102
RTVSPropertyOp44
 70
     1
102
RTVSPropertyOp45
 70
     1
102
RTVSPropertyOp46
 70
     1
102
RTVSPropertyOp47
 70
     1
102
RTVSPropertyOp48
 70
     1
102
RTVSPropertyOp49
 70
     1
102
RTVSPropertyOp50
 70
     1
102
RTVSPropertyOp51
 70
     0
102
RTVSPropertyOp52
 70
     0
102
RTVSPropertyOp53
 70
     1
102
RTVSPropertyOp54
 70
     1
102
RTVSPropertyOp55
 70
     1
102
RTVSPropertyOp56
 70
     1
102
RTVSPropertyOp57
 70
     1
102
RTVSPropertyOp58
 70
     1
102
RTVSPropertyOp59
 70
     1
102
RTVSPropertyOp60
 70
     1
102
RTVSPropertyOp61
 70
     1
102
RTVSPropertyOp62
 70
     1
  0
XRECORD
  5
473
102
{ACAD_REACTORS
330
472
102
}
330
472
100
AcDbXrecord
280
     1
102
RTVSPost2010Prop28
280
     0
102
RTVSPost2010PropOp28
 70
     1
102
RTVSPost2010Prop29
280
     1
102
RTVSPost2010PropOp29
 70
     1
102
RTVSPost2010Prop30
280
     1
102
RTVSPost2010PropOp30
 70
     1
102
RTVSPost2010Prop31
280
     0
102
RTVSPost2010PropOp31
 70
     1
102
RTVSPost2010Prop32
280
     0
102
RTVSPost2010PropOp32
 70
     1
102
RTVSPost2010Prop33
280
     0
102
RTVSPost2010PropOp33
 70
     1
102
RTVSPost2010Prop34
280
     0
102
RTVSPost2010PropOp34
 70
     1
102
RTVSPost2010Prop35
280
     0
102
RTVSPost2010PropOp35
 70
     1
102
RTVSPost2010Prop36
280
     0
102
RTVSPost2010PropOp36
 70
     1
102
RTVSPost2010Prop37
 90
       50
102
RTVSPost2010PropOp37
 70
     1
102
RTVSPost2010Prop38
140
0.0
102
RTVSPost2010PropOp38
 70
     1
102
RTVSPost2010Prop39
140
1.0
102
RTVSPost2010PropOp39
 70
     1
102
RTVSPost2010Prop40
 90
        0
102
RTVSPost2010PropOp40
 70
     1
102
RTVSPost2010Prop41ColorIndex
 90
       18
102
RTVSPost2010Prop41ColorRGB
 90
        0
102
RTVSPost2010PropOp41
 70
     1
102
RTVSPost2010Prop42
 90
       50
102
RTVSPost2010PropOp42
 70
     1
102
RTVSPost2010Prop43
 90
        3
102
RTVSPost2010PropOp43
 70
     1
102
RTVSPost2010Prop44ColorIndex
 90
        5
102
RTVSPost2010Prop44ColorRGB
 90
      255
102
RTVSPost2010PropOp44
 70
     1
102
RTVSPost2010Prop45
280
     0
102
RTVSPost2010PropOp45
 70
     1
102
RTVSPost2010Prop46
 90
       50
102
RTVSPost2010PropOp46
 70
     1
102
RTVSPost2010Prop47
 90
       50
102
RTVSPost2010PropOp47
 70
     1
102
RTVSPost2010Prop48
 90
       50
102
RTVSPost2010PropOp48
 70
     1
102
RTVSPost2010Prop49
280
     0
102
RTVSPost2010PropOp49
 70
     1
102
RTVSPost2010Prop50
 90
       50
102
RTVSPost2010PropOp50
 70
     1
102
RTVSPost2010Prop51ColorIndex
 90
      256
102
RTVSPost2010Prop51ColorRGB
 90
-16777216
102
RTVSPost2010PropOp51
 70
     0
102
RTVSPost2010Prop52
140
1.0
102
RTVSPost2010PropOp52
 70
     0
102
RTVSPost2010Prop53
 90
        2
102
RTVSPost2010PropOp53
 70
     1
102
RTVSPost2010Prop54
  1
strokes_ogs.tif
102
RTVSPost2010PropOp54
 70
     1
102
RTVSPost2010Prop55
280
     0
102
RTVSPost2010PropOp55
 70
     1
102
RTVSPost2010Prop56
140
1.0
102
RTVSPost2010PropOp56
 70
     1
102
RTVSPost2010Prop57
140
1.0
102
RTVSPost2010PropOp57
 70
     1
102
RTVSPropertyOp0
 70
     1
102
RTVSPropertyOp1
 70
     1
102
RTVSPropertyOp2
 70
     1
102
RTVSPropertyOp3
 70
     1
102
RTVSPropertyOp4
 70
     1
102
RTVSPropertyOp5
 70
     1
102
RTVSPropertyOp6
 70
     1
102
RTVSPropertyOp7
 70
     1
102
RTVSPropertyOp8
 70
     1
102
RTVSPropertyOp9
 70
     1
102
RTVSPropertyOp10
 70
     1
102
RTVSPropertyOp11
 70
     1
102
RTVSPropertyOp12
 70
     1
102
RTVSPropertyOp13
 70
     1
102
RTVSPropertyOp14
 70
     1
102
RTVSPropertyOp15
 70
     1
102
RTVSPropertyOp16
 70
     1
102
RTVSPropertyOp17
 70
     1
102
RTVSPropertyOp18
 70
     1
102
RTVSPropertyOp19
 70
     1
102
RTVSPropertyOp20
 70
     1
102
RTVSPropertyOp21
 70
     1
102
RTVSPropertyOp22
 70
     1
102
RTVSPropertyOp23
 70
     1
102
RTVSPropertyOp24
 70
     1
102
RTVSPropertyOp25
 70
     1
102
RTVSPropertyOp26
 70
     1
102
RTVSPropertyOp27
 70
     1
102
RTVSPropertyOp28
 70
     1
102
RTVSPropertyOp29
 70
     1
102
RTVSPropertyOp30
 70
     1
102
RTVSPropertyOp31
 70
     1
102
RTVSPropertyOp32
 70
     1
102
RTVSPropertyOp33
 70
     1
102
RTVSPropertyOp34
 70
     1
102
RTVSPropertyOp35
 70
     1
102
RTVSPropertyOp36
 70
     1
102
RTVSPropertyOp37
 70
     1
102
RTVSPropertyOp38
 70
     1
102
RTVSPropertyOp39
 70
     1
102
RTVSPropertyOp40
 70
     1
102
RTVSPropertyOp41
 70
     1
102
RTVSPropertyOp42
 70
     1
102
RTVSPropertyOp43
 70
     1
102
RTVSPropertyOp44
 70
     1
102
RTVSPropertyOp45
 70
     1
102
RTVSPropertyOp46
 70
     1
102
RTVSPropertyOp47
 70
     1
102
RTVSPropertyOp48
 70
     1
102
RTVSPropertyOp49
 70
     1
102
RTVSPropertyOp50
 70
     1
102
RTVSPropertyOp51
 70
     0
102
RTVSPropertyOp52
 70
     0
102
RTVSPropertyOp53
 70
     1
102
RTVSPropertyOp54
 70
     1
102
RTVSPropertyOp55
 70
     1
102
RTVSPropertyOp56
 70
     1
102
RTVSPropertyOp57
 70
     1
102
RTVSPropertyOp58
 70
     1
102
RTVSPropertyOp59
 70
     1
102
RTVSPropertyOp60
 70
     1
102
RTVSPropertyOp61
 70
     1
102
RTVSPropertyOp62
 70
     1
  0
XRECORD
  5
475
102
{ACAD_REACTORS
330
474
102
}
330
474
100
AcDbXrecord
280
     1
102
RTVSPost2010Prop28
280
     0
102
RTVSPost2010PropOp28
 70
     1
102
RTVSPost2010Prop29
280
     1
102
RTVSPost2010PropOp29
 70
     1
102
RTVSPost2010Prop30
280
     1
102
RTVSPost2010PropOp30
 70
     1
102
RTVSPost2010Prop31
280
     0
102
RTVSPost2010PropOp31
 70
     1
102
RTVSPost2010Prop32
280
     0
102
RTVSPost2010PropOp32
 70
     1
102
RTVSPost2010Prop33
280
     0
102
RTVSPost2010PropOp33
 70
     1
102
RTVSPost2010Prop34
280
     0
102
RTVSPost2010PropOp34
 70
     1
102
RTVSPost2010Prop35
280
     0
102
RTVSPost2010PropOp35
 70
     1
102
RTVSPost2010Prop36
280
     0
102
RTVSPost2010PropOp36
 70
     1
102
RTVSPost2010Prop37
 90
       50
102
RTVSPost2010PropOp37
 70
     1
102
RTVSPost2010Prop38
140
0.0
102
RTVSPost2010PropOp38
 70
     1
102
RTVSPost2010Prop39
140
1.0
102
RTVSPost2010PropOp39
 70
     1
102
RTVSPost2010Prop40
 90
        0
102
RTVSPost2010PropOp40
 70
     1
102
RTVSPost2010Prop41ColorIndex
 90
       18
102
RTVSPost2010Prop41ColorRGB
 90
        0
102
RTVSPost2010PropOp41
 70
     1
102
RTVSPost2010Prop42
 90
       50
102
RTVSPost2010PropOp42
 70
     1
102
RTVSPost2010Prop43
 90
        3
102
RTVSPost2010PropOp43
 70
     1
102
RTVSPost2010Prop44ColorIndex
 90
        5
102
RTVSPost2010Prop44ColorRGB
 90
      255
102
RTVSPost2010PropOp44
 70
     1
102
RTVSPost2010Prop45
280
     0
102
RTVSPost2010PropOp45
 70
     1
102
RTVSPost2010Prop46
 90
       50
102
RTVSPost2010PropOp46
 70
     1
102
RTVSPost2010Prop47
 90
       50
102
RTVSPost2010PropOp47
 70
     1
102
RTVSPost2010Prop48
 90
       50
102
RTVSPost2010PropOp48
 70
     1
102
RTVSPost2010Prop49
280
     0
102
RTVSPost2010PropOp49
 70
     1
102
RTVSPost2010Prop50
 90
       50
102
RTVSPost2010PropOp50
 70
     1
102
RTVSPost2010Prop51ColorIndex
 90
      256
102
RTVSPost2010Prop51ColorRGB
 90
-16777216
102
RTVSPost2010PropOp51
 70
     0
102
RTVSPost2010Prop52
140
1.0
102
RTVSPost2010PropOp52
 70
     0
102
RTVSPost2010Prop53
 90
        2
102
RTVSPost2010PropOp53
 70
     1
102
RTVSPost2010Prop54
  1
strokes_ogs.tif
102
RTVSPost2010PropOp54
 70
     1
102
RTVSPost2010Prop55
280
     0
102
RTVSPost2010PropOp55
 70
     1
102
RTVSPost2010Prop56
140
1.0
102
RTVSPost2010PropOp56
 70
     1
102
RTVSPost2010Prop57
140
1.0
102
RTVSPost2010PropOp57
 70
     1
102
RTVSPropertyOp0
 70
     1
102
RTVSPropertyOp1
 70
     1
102
RTVSPropertyOp2
 70
     1
102
RTVSPropertyOp3
 70
     1
102
RTVSPropertyOp4
 70
     1
102
RTVSPropertyOp5
 70
     1
102
RTVSPropertyOp6
 70
     1
102
RTVSPropertyOp7
 70
     1
102
RTVSPropertyOp8
 70
     1
102
RTVSPropertyOp9
 70
     1
102
RTVSPropertyOp10
 70
     1
102
RTVSPropertyOp11
 70
     1
102
RTVSPropertyOp12
 70
     1
102
RTVSPropertyOp13
 70
     1
102
RTVSPropertyOp14
 70
     1
102
RTVSPropertyOp15
 70
     1
102
RTVSPropertyOp16
 70
     1
102
RTVSPropertyOp17
 70
     1
102
RTVSPropertyOp18
 70
     1
102
RTVSPropertyOp19
 70
     1
102
RTVSPropertyOp20
 70
     1
102
RTVSPropertyOp21
 70
     1
102
RTVSPropertyOp22
 70
     1
102
RTVSPropertyOp23
 70
     1
102
RTVSPropertyOp24
 70
     1
102
RTVSPropertyOp25
 70
     1
102
RTVSPropertyOp26
 70
     1
102
RTVSPropertyOp27
 70
     1
102
RTVSPropertyOp28
 70
     1
102
RTVSPropertyOp29
 70
     1
102
RTVSPropertyOp30
 70
     1
102
RTVSPropertyOp31
 70
     1
102
RTVSPropertyOp32
 70
     1
102
RTVSPropertyOp33
 70
     1
102
RTVSPropertyOp34
 70
     1
102
RTVSPropertyOp35
 70
     1
102
RTVSPropertyOp36
 70
     1
102
RTVSPropertyOp37
 70
     1
102
RTVSPropertyOp38
 70
     1
102
RTVSPropertyOp39
 70
     1
102
RTVSPropertyOp40
 70
     1
102
RTVSPropertyOp41
 70
     1
102
RTVSPropertyOp42
 70
     1
102
RTVSPropertyOp43
 70
     1
102
RTVSPropertyOp44
 70
     1
102
RTVSPropertyOp45
 70
     1
102
RTVSPropertyOp46
 70
     1
102
RTVSPropertyOp47
 70
     1
102
RTVSPropertyOp48
 70
     1
102
RTVSPropertyOp49
 70
     1
102
RTVSPropertyOp50
 70
     1
102
RTVSPropertyOp51
 70
     0
102
RTVSPropertyOp52
 70
     0
102
RTVSPropertyOp53
 70
     1
102
RTVSPropertyOp54
 70
     1
102
RTVSPropertyOp55
 70
     1
102
RTVSPropertyOp56
 70
     1
102
RTVSPropertyOp57
 70
     1
102
RTVSPropertyOp58
 70
     1
102
RTVSPropertyOp59
 70
     1
102
RTVSPropertyOp60
 70
     1
102
RTVSPropertyOp61
 70
     1
102
RTVSPropertyOp62
 70
     1
  0
XRECORD
  5
485
102
{ACAD_REACTORS
330
484
102
}
330
484
100
AcDbXrecord
280
     1
102
RTVSPost2010Prop28
280
     0
102
RTVSPost2010PropOp28
 70
     0
102
RTVSPost2010Prop29
280
     1
102
RTVSPost2010PropOp29
 70
     0
102
RTVSPost2010Prop30
280
     1
102
RTVSPost2010PropOp30
 70
     0
102
RTVSPost2010Prop31
280
     0
102
RTVSPost2010PropOp31
 70
     0
102
RTVSPost2010Prop32
280
     0
102
RTVSPost2010PropOp32
 70
     0
102
RTVSPost2010Prop33
280
     0
102
RTVSPost2010PropOp33
 70
     0
102
RTVSPost2010Prop34
280
     0
102
RTVSPost2010PropOp34
 70
     0
102
RTVSPost2010Prop35
280
     0
102
RTVSPost2010PropOp35
 70
     0
102
RTVSPost2010Prop36
280
     0
102
RTVSPost2010PropOp36
 70
     0
102
RTVSPost2010Prop37
 90
       50
102
RTVSPost2010PropOp37
 70
     0
102
RTVSPost2010Prop38
140
0.0
102
RTVSPost2010PropOp38
 70
     0
102
RTVSPost2010Prop39
140
1.0
102
RTVSPost2010PropOp39
 70
     0
102
RTVSPost2010Prop40
 90
        0
102
RTVSPost2010PropOp40
 70
     0
102
RTVSPost2010Prop41ColorIndex
 90
       18
102
RTVSPost2010Prop41ColorRGB
 90
        0
102
RTVSPost2010PropOp41
 70
     0
102
RTVSPost2010Prop42
 90
       50
102
RTVSPost2010PropOp42
 70
     0
102
RTVSPost2010Prop43
 90
        3
102
RTVSPost2010PropOp43
 70
     0
102
RTVSPost2010Prop44ColorIndex
 90
        5
102
RTVSPost2010Prop44ColorRGB
 90
      255
102
RTVSPost2010PropOp44
 70
     0
102
RTVSPost2010Prop45
280
     0
102
RTVSPost2010PropOp45
 70
     0
102
RTVSPost2010Prop46
 90
       50
102
RTVSPost2010PropOp46
 70
     0
102
RTVSPost2010Prop47
 90
       50
102
RTVSPost2010PropOp47
 70
     0
102
RTVSPost2010Prop48
 90
       50
102
RTVSPost2010PropOp48
 70
     0
102
RTVSPost2010Prop49
280
     0
102
RTVSPost2010PropOp49
 70
     0
102
RTVSPost2010Prop50
 90
       50
102
RTVSPost2010PropOp50
 70
     0
102
RTVSPost2010Prop51ColorIndex
 90
      256
102
RTVSPost2010Prop51ColorRGB
 90
-16777216
102
RTVSPost2010PropOp51
 70
     0
102
RTVSPost2010Prop52
140
1.0
102
RTVSPost2010PropOp52
 70
     0
102
RTVSPost2010Prop53
 90
        2
102
RTVSPost2010PropOp53
 70
     0
102
RTVSPost2010Prop54
  1
strokes_ogs.tif
102
RTVSPost2010PropOp54
 70
     0
102
RTVSPost2010Prop55
280
     0
102
RTVSPost2010PropOp55
 70
     0
102
RTVSPost2010Prop56
140
1.0
102
RTVSPost2010PropOp56
 70
     0
102
RTVSPost2010Prop57
140
1.0
102
RTVSPost2010PropOp57
 70
     0
102
RTVSPropertyOp0
 70
     0
102
RTVSPropertyOp1
 70
     0
102
RTVSPropertyOp2
 70
     0
102
RTVSPropertyOp3
 70
     0
102
RTVSPropertyOp4
 70
     0
102
RTVSPropertyOp5
 70
     0
102
RTVSPropertyOp6
 70
     0
102
RTVSPropertyOp7
 70
     0
102
RTVSPropertyOp8
 70
     0
102
RTVSPropertyOp9
 70
     0
102
RTVSPropertyOp10
 70
     0
102
RTVSPropertyOp11
 70
     0
102
RTVSPropertyOp12
 70
     0
102
RTVSPropertyOp13
 70
     0
102
RTVSPropertyOp14
 70
     2
102
RTVSPropertyOp15
 70
     0
102
RTVSPropertyOp16
 70
     0
102
RTVSPropertyOp17
 70
     0
102
RTVSPropertyOp18
 70
     0
102
RTVSPropertyOp19
 70
     0
102
RTVSPropertyOp20
 70
     0
102
RTVSPropertyOp21
 70
     0
102
RTVSPropertyOp22
 70
     0
102
RTVSPropertyOp23
 70
     0
102
RTVSPropertyOp24
 70
     0
102
RTVSPropertyOp25
 70
     0
102
RTVSPropertyOp26
 70
     0
102
RTVSPropertyOp27
 70
     0
102
RTVSPropertyOp28
 70
     0
102
RTVSPropertyOp29
 70
     0
102
RTVSPropertyOp30
 70
     0
102
RTVSPropertyOp31
 70
     0
102
RTVSPropertyOp32
 70
     0
102
RTVSPropertyOp33
 70
     0
102
RTVSPropertyOp34
 70
     0
102
RTVSPropertyOp35
 70
     0
102
RTVSPropertyOp36
 70
     0
102
RTVSPropertyOp37
 70
     0
102
RTVSPropertyOp38
 70
     0
102
RTVSPropertyOp39
 70
     0
102
RTVSPropertyOp40
 70
     0
102
RTVSPropertyOp41
 70
     0
102
RTVSPropertyOp42
 70
     0
102
RTVSPropertyOp43
 70
     0
102
RTVSPropertyOp44
 70
     0
102
RTVSPropertyOp45
 70
     0
102
RTVSPropertyOp46
 70
     0
102
RTVSPropertyOp47
 70
     0
102
RTVSPropertyOp48
 70
     0
102
RTVSPropertyOp49
 70
     0
102
RTVSPropertyOp50
 70
     0
102
RTVSPropertyOp51
 70
     0
102
RTVSPropertyOp52
 70
     0
102
RTVSPropertyOp53
 70
     0
102
RTVSPropertyOp54
 70
     0
102
RTVSPropertyOp55
 70
     0
102
RTVSPropertyOp56
 70
     0
102
RTVSPropertyOp57
 70
     0
102
RTVSPropertyOp58
 70
     1
102
RTVSPropertyOp59
 70
     1
102
RTVSPropertyOp60
 70
     1
102
RTVSPropertyOp61
 70
     1
102
RTVSPropertyOp62
 70
     1
  0
XRECORD
  5
47D
102
{ACAD_REACTORS
330
47C
102
}
330
47C
100
AcDbXrecord
280
     1
102
RTVSPost2010Prop28
280
     0
102
RTVSPost2010PropOp28
 70
     1
102
RTVSPost2010Prop29
280
     1
102
RTVSPost2010PropOp29
 70
     1
102
RTVSPost2010Prop30
280
     1
102
RTVSPost2010PropOp30
 70
     1
102
RTVSPost2010Prop31
280
     0
102
RTVSPost2010PropOp31
 70
     1
102
RTVSPost2010Prop32
280
     0
102
RTVSPost2010PropOp32
 70
     1
102
RTVSPost2010Prop33
280
     0
102
RTVSPost2010PropOp33
 70
     1
102
RTVSPost2010Prop34
280
     0
102
RTVSPost2010PropOp34
 70
     1
102
RTVSPost2010Prop35
280
     0
102
RTVSPost2010PropOp35
 70
     1
102
RTVSPost2010Prop36
280
     0
102
RTVSPost2010PropOp36
 70
     1
102
RTVSPost2010Prop37
 90
       50
102
RTVSPost2010PropOp37
 70
     1
102
RTVSPost2010Prop38
140
0.0
102
RTVSPost2010PropOp38
 70
     1
102
RTVSPost2010Prop39
140
1.0
102
RTVSPost2010PropOp39
 70
     1
102
RTVSPost2010Prop40
 90
        0
102
RTVSPost2010PropOp40
 70
     1
102
RTVSPost2010Prop41ColorIndex
 90
       18
102
RTVSPost2010Prop41ColorRGB
 90
        0
102
RTVSPost2010PropOp41
 70
     1
102
RTVSPost2010Prop42
 90
       50
102
RTVSPost2010PropOp42
 70
     1
102
RTVSPost2010Prop43
 90
        3
102
RTVSPost2010PropOp43
 70
     1
102
RTVSPost2010Prop44ColorIndex
 90
        5
102
RTVSPost2010Prop44ColorRGB
 90
      255
102
RTVSPost2010PropOp44
 70
     1
102
RTVSPost2010Prop45
280
     0
102
RTVSPost2010PropOp45
 70
     1
102
RTVSPost2010Prop46
 90
       50
102
RTVSPost2010PropOp46
 70
     1
102
RTVSPost2010Prop47
 90
       50
102
RTVSPost2010PropOp47
 70
     1
102
RTVSPost2010Prop48
 90
       50
102
RTVSPost2010PropOp48
 70
     1
102
RTVSPost2010Prop49
280
     0
102
RTVSPost2010PropOp49
 70
     1
102
RTVSPost2010Prop50
 90
       50
102
RTVSPost2010PropOp50
 70
     1
102
RTVSPost2010Prop51ColorIndex
 90
      256
102
RTVSPost2010Prop51ColorRGB
 90
-16777216
102
RTVSPost2010PropOp51
 70
     0
102
RTVSPost2010Prop52
140
1.0
102
RTVSPost2010PropOp52
 70
     0
102
RTVSPost2010Prop53
 90
        2
102
RTVSPost2010PropOp53
 70
     1
102
RTVSPost2010Prop54
  1
strokes_ogs.tif
102
RTVSPost2010PropOp54
 70
     1
102
RTVSPost2010Prop55
280
     0
102
RTVSPost2010PropOp55
 70
     1
102
RTVSPost2010Prop56
140
1.0
102
RTVSPost2010PropOp56
 70
     1
102
RTVSPost2010Prop57
140
1.0
102
RTVSPost2010PropOp57
 70
     1
102
RTVSPropertyOp0
 70
     1
102
RTVSPropertyOp1
 70
     1
102
RTVSPropertyOp2
 70
     1
102
RTVSPropertyOp3
 70
     1
102
RTVSPropertyOp4
 70
     1
102
RTVSPropertyOp5
 70
     1
102
RTVSPropertyOp6
 70
     1
102
RTVSPropertyOp7
 70
     1
102
RTVSPropertyOp8
 70
     1
102
RTVSPropertyOp9
 70
     1
102
RTVSPropertyOp10
 70
     1
102
RTVSPropertyOp11
 70
     1
102
RTVSPropertyOp12
 70
     1
102
RTVSPropertyOp13
 70
     1
102
RTVSPropertyOp14
 70
     1
102
RTVSPropertyOp15
 70
     1
102
RTVSPropertyOp16
 70
     1
102
RTVSPropertyOp17
 70
     1
102
RTVSPropertyOp18
 70
     1
102
RTVSPropertyOp19
 70
     1
102
RTVSPropertyOp20
 70
     1
102
RTVSPropertyOp21
 70
     1
102
RTVSPropertyOp22
 70
     1
102
RTVSPropertyOp23
 70
     1
102
RTVSPropertyOp24
 70
     1
102
RTVSPropertyOp25
 70
     1
102
RTVSPropertyOp26
 70
     1
102
RTVSPropertyOp27
 70
     1
102
RTVSPropertyOp28
 70
     1
102
RTVSPropertyOp29
 70
     1
102
RTVSPropertyOp30
 70
     1
102
RTVSPropertyOp31
 70
     1
102
RTVSPropertyOp32
 70
     1
102
RTVSPropertyOp33
 70
     1
102
RTVSPropertyOp34
 70
     1
102
RTVSPropertyOp35
 70
     1
102
RTVSPropertyOp36
 70
     1
102
RTVSPropertyOp37
 70
     1
102
RTVSPropertyOp38
 70
     1
102
RTVSPropertyOp39
 70
     1
102
RTVSPropertyOp40
 70
     1
102
RTVSPropertyOp41
 70
     1
102
RTVSPropertyOp42
 70
     1
102
RTVSPropertyOp43
 70
     1
102
RTVSPropertyOp44
 70
     1
102
RTVSPropertyOp45
 70
     1
102
RTVSPropertyOp46
 70
     1
102
RTVSPropertyOp47
 70
     1
102
RTVSPropertyOp48
 70
     1
102
RTVSPropertyOp49
 70
     1
102
RTVSPropertyOp50
 70
     1
102
RTVSPropertyOp51
 70
     0
102
RTVSPropertyOp52
 70
     0
102
RTVSPropertyOp53
 70
     1
102
RTVSPropertyOp54
 70
     1
102
RTVSPropertyOp55
 70
     1
102
RTVSPropertyOp56
 70
     1
102
RTVSPropertyOp57
 70
     1
102
RTVSPropertyOp58
 70
     1
102
RTVSPropertyOp59
 70
     1
102
RTVSPropertyOp60
 70
     1
102
RTVSPropertyOp61
 70
     1
102
RTVSPropertyOp62
 70
     1
  0
XRECORD
  5
461
102
{ACAD_REACTORS
330
460
102
}
330
460
100
AcDbXrecord
280
     1
102
RTVSPost2010Prop28
280
     0
102
RTVSPost2010PropOp28
 70
     1
102
RTVSPost2010Prop29
280
     1
102
RTVSPost2010PropOp29
 70
     1
102
RTVSPost2010Prop30
280
     1
102
RTVSPost2010PropOp30
 70
     1
102
RTVSPost2010Prop31
280
     0
102
RTVSPost2010PropOp31
 70
     1
102
RTVSPost2010Prop32
280
     0
102
RTVSPost2010PropOp32
 70
     1
102
RTVSPost2010Prop33
280
     0
102
RTVSPost2010PropOp33
 70
     1
102
RTVSPost2010Prop34
280
     0
102
RTVSPost2010PropOp34
 70
     1
102
RTVSPost2010Prop35
280
     0
102
RTVSPost2010PropOp35
 70
     1
102
RTVSPost2010Prop36
280
     0
102
RTVSPost2010PropOp36
 70
     1
102
RTVSPost2010Prop37
 90
       50
102
RTVSPost2010PropOp37
 70
     1
102
RTVSPost2010Prop38
140
0.0
102
RTVSPost2010PropOp38
 70
     1
102
RTVSPost2010Prop39
140
1.0
102
RTVSPost2010PropOp39
 70
     1
102
RTVSPost2010Prop40
 90
        0
102
RTVSPost2010PropOp40
 70
     1
102
RTVSPost2010Prop41ColorIndex
 90
       18
102
RTVSPost2010Prop41ColorRGB
 90
        0
102
RTVSPost2010PropOp41
 70
     1
102
RTVSPost2010Prop42
 90
       50
102
RTVSPost2010PropOp42
 70
     1
102
RTVSPost2010Prop43
 90
        3
102
RTVSPost2010PropOp43
 70
     1
102
RTVSPost2010Prop44ColorIndex
 90
        5
102
RTVSPost2010Prop44ColorRGB
 90
      255
102
RTVSPost2010PropOp44
 70
     1
102
RTVSPost2010Prop45
280
     0
102
RTVSPost2010PropOp45
 70
     1
102
RTVSPost2010Prop46
 90
       50
102
RTVSPost2010PropOp46
 70
     1
102
RTVSPost2010Prop47
 90
       50
102
RTVSPost2010PropOp47
 70
     1
102
RTVSPost2010Prop48
 90
       50
102
RTVSPost2010PropOp48
 70
     1
102
RTVSPost2010Prop49
280
     0
102
RTVSPost2010PropOp49
 70
     1
102
RTVSPost2010Prop50
 90
       50
102
RTVSPost2010PropOp50
 70
     1
102
RTVSPost2010Prop51ColorIndex
 90
      256
102
RTVSPost2010Prop51ColorRGB
 90
-16777216
102
RTVSPost2010PropOp51
 70
     0
102
RTVSPost2010Prop52
140
1.0
102
RTVSPost2010PropOp52
 70
     0
102
RTVSPost2010Prop53
 90
        2
102
RTVSPost2010PropOp53
 70
     1
102
RTVSPost2010Prop54
  1
strokes_ogs.tif
102
RTVSPost2010PropOp54
 70
     1
102
RTVSPost2010Prop55
280
     0
102
RTVSPost2010PropOp55
 70
     1
102
RTVSPost2010Prop56
140
1.0
102
RTVSPost2010PropOp56
 70
     1
102
RTVSPost2010Prop57
140
1.0
102
RTVSPost2010PropOp57
 70
     1
102
RTVSPropertyOp0
 70
     1
102
RTVSPropertyOp1
 70
     1
102
RTVSPropertyOp2
 70
     1
102
RTVSPropertyOp3
 70
     1
102
RTVSPropertyOp4
 70
     1
102
RTVSPropertyOp5
 70
     1
102
RTVSPropertyOp6
 70
     1
102
RTVSPropertyOp7
 70
     1
102
RTVSPropertyOp8
 70
     1
102
RTVSPropertyOp9
 70
     1
102
RTVSPropertyOp10
 70
     1
102
RTVSPropertyOp11
 70
     1
102
RTVSPropertyOp12
 70
     1
102
RTVSPropertyOp13
 70
     1
102
RTVSPropertyOp14
 70
     1
102
RTVSPropertyOp15
 70
     1
102
RTVSPropertyOp16
 70
     1
102
RTVSPropertyOp17
 70
     1
102
RTVSPropertyOp18
 70
     1
102
RTVSPropertyOp19
 70
     1
102
RTVSPropertyOp20
 70
     1
102
RTVSPropertyOp21
 70
     1
102
RTVSPropertyOp22
 70
     1
102
RTVSPropertyOp23
 70
     1
102
RTVSPropertyOp24
 70
     1
102
RTVSPropertyOp25
 70
     1
102
RTVSPropertyOp26
 70
     1
102
RTVSPropertyOp27
 70
     1
102
RTVSPropertyOp28
 70
     1
102
RTVSPropertyOp29
 70
     1
102
RTVSPropertyOp30
 70
     1
102
RTVSPropertyOp31
 70
     1
102
RTVSPropertyOp32
 70
     1
102
RTVSPropertyOp33
 70
     1
102
RTVSPropertyOp34
 70
     1
102
RTVSPropertyOp35
 70
     1
102
RTVSPropertyOp36
 70
     1
102
RTVSPropertyOp37
 70
     1
102
RTVSPropertyOp38
 70
     1
102
RTVSPropertyOp39
 70
     1
102
RTVSPropertyOp40
 70
     1
102
RTVSPropertyOp41
 70
     1
102
RTVSPropertyOp42
 70
     1
102
RTVSPropertyOp43
 70
     1
102
RTVSPropertyOp44
 70
     1
102
RTVSPropertyOp45
 70
     1
102
RTVSPropertyOp46
 70
     1
102
RTVSPropertyOp47
 70
     1
102
RTVSPropertyOp48
 70
     1
102
RTVSPropertyOp49
 70
     1
102
RTVSPropertyOp50
 70
     1
102
RTVSPropertyOp51
 70
     0
102
RTVSPropertyOp52
 70
     0
102
RTVSPropertyOp53
 70
     1
102
RTVSPropertyOp54
 70
     1
102
RTVSPropertyOp55
 70
     1
102
RTVSPropertyOp56
 70
     1
102
RTVSPropertyOp57
 70
     1
102
RTVSPropertyOp58
 70
     1
102
RTVSPropertyOp59
 70
     1
102
RTVSPropertyOp60
 70
     1
102
RTVSPropertyOp61
 70
     1
102
RTVSPropertyOp62
 70
     1
  0
XRECORD
  5
463
102
{ACAD_REACTORS
330
462
102
}
330
462
100
AcDbXrecord
280
     1
102
RTVSPost2010Prop28
280
     0
102
RTVSPost2010PropOp28
 70
     1
102
RTVSPost2010Prop29
280
     1
102
RTVSPost2010PropOp29
 70
     1
102
RTVSPost2010Prop30
280
     1
102
RTVSPost2010PropOp30
 70
     1
102
RTVSPost2010Prop31
280
     0
102
RTVSPost2010PropOp31
 70
     1
102
RTVSPost2010Prop32
280
     0
102
RTVSPost2010PropOp32
 70
     1
102
RTVSPost2010Prop33
280
     0
102
RTVSPost2010PropOp33
 70
     1
102
RTVSPost2010Prop34
280
     0
102
RTVSPost2010PropOp34
 70
     1
102
RTVSPost2010Prop35
280
     0
102
RTVSPost2010PropOp35
 70
     1
102
RTVSPost2010Prop36
280
     0
102
RTVSPost2010PropOp36
 70
     1
102
RTVSPost2010Prop37
 90
       50
102
RTVSPost2010PropOp37
 70
     1
102
RTVSPost2010Prop38
140
0.0
102
RTVSPost2010PropOp38
 70
     1
102
RTVSPost2010Prop39
140
1.0
102
RTVSPost2010PropOp39
 70
     1
102
RTVSPost2010Prop40
 90
        0
102
RTVSPost2010PropOp40
 70
     1
102
RTVSPost2010Prop41ColorIndex
 90
       18
102
RTVSPost2010Prop41ColorRGB
 90
        0
102
RTVSPost2010PropOp41
 70
     1
102
RTVSPost2010Prop42
 90
       50
102
RTVSPost2010PropOp42
 70
     1
102
RTVSPost2010Prop43
 90
        3
102
RTVSPost2010PropOp43
 70
     1
102
RTVSPost2010Prop44ColorIndex
 90
        5
102
RTVSPost2010Prop44ColorRGB
 90
      255
102
RTVSPost2010PropOp44
 70
     1
102
RTVSPost2010Prop45
280
     0
102
RTVSPost2010PropOp45
 70
     1
102
RTVSPost2010Prop46
 90
       50
102
RTVSPost2010PropOp46
 70
     1
102
RTVSPost2010Prop47
 90
       50
102
RTVSPost2010PropOp47
 70
     1
102
RTVSPost2010Prop48
 90
       50
102
RTVSPost2010PropOp48
 70
     1
102
RTVSPost2010Prop49
280
     0
102
RTVSPost2010PropOp49
 70
     1
102
RTVSPost2010Prop50
 90
       50
102
RTVSPost2010PropOp50
 70
     1
102
RTVSPost2010Prop51ColorIndex
 90
      256
102
RTVSPost2010Prop51ColorRGB
 90
-16777216
102
RTVSPost2010PropOp51
 70
     0
102
RTVSPost2010Prop52
140
1.0
102
RTVSPost2010PropOp52
 70
     0
102
RTVSPost2010Prop53
 90
        2
102
RTVSPost2010PropOp53
 70
     1
102
RTVSPost2010Prop54
  1
strokes_ogs.tif
102
RTVSPost2010PropOp54
 70
     1
102
RTVSPost2010Prop55
280
     0
102
RTVSPost2010PropOp55
 70
     1
102
RTVSPost2010Prop56
140
1.0
102
RTVSPost2010PropOp56
 70
     1
102
RTVSPost2010Prop57
140
1.0
102
RTVSPost2010PropOp57
 70
     1
102
RTVSPropertyOp0
 70
     1
102
RTVSPropertyOp1
 70
     1
102
RTVSPropertyOp2
 70
     1
102
RTVSPropertyOp3
 70
     1
102
RTVSPropertyOp4
 70
     1
102
RTVSPropertyOp5
 70
     1
102
RTVSPropertyOp6
 70
     1
102
RTVSPropertyOp7
 70
     1
102
RTVSPropertyOp8
 70
     1
102
RTVSPropertyOp9
 70
     1
102
RTVSPropertyOp10
 70
     1
102
RTVSPropertyOp11
 70
     1
102
RTVSPropertyOp12
 70
     1
102
RTVSPropertyOp13
 70
     1
102
RTVSPropertyOp14
 70
     1
102
RTVSPropertyOp15
 70
     1
102
RTVSPropertyOp16
 70
     1
102
RTVSPropertyOp17
 70
     1
102
RTVSPropertyOp18
 70
     1
102
RTVSPropertyOp19
 70
     1
102
RTVSPropertyOp20
 70
     1
102
RTVSPropertyOp21
 70
     1
102
RTVSPropertyOp22
 70
     1
102
RTVSPropertyOp23
 70
     1
102
RTVSPropertyOp24
 70
     1
102
RTVSPropertyOp25
 70
     1
102
RTVSPropertyOp26
 70
     1
102
RTVSPropertyOp27
 70
     1
102
RTVSPropertyOp28
 70
     1
102
RTVSPropertyOp29
 70
     1
102
RTVSPropertyOp30
 70
     1
102
RTVSPropertyOp31
 70
     1
102
RTVSPropertyOp32
 70
     1
102
RTVSPropertyOp33
 70
     1
102
RTVSPropertyOp34
 70
     1
102
RTVSPropertyOp35
 70
     1
102
RTVSPropertyOp36
 70
     1
102
RTVSPropertyOp37
 70
     1
102
RTVSPropertyOp38
 70
     1
102
RTVSPropertyOp39
 70
     1
102
RTVSPropertyOp40
 70
     1
102
RTVSPropertyOp41
 70
     1
102
RTVSPropertyOp42
 70
     1
102
RTVSPropertyOp43
 70
     1
102
RTVSPropertyOp44
 70
     1
102
RTVSPropertyOp45
 70
     1
102
RTVSPropertyOp46
 70
     1
102
RTVSPropertyOp47
 70
     1
102
RTVSPropertyOp48
 70
     1
102
RTVSPropertyOp49
 70
     1
102
RTVSPropertyOp50
 70
     1
102
RTVSPropertyOp51
 70
     0
102
RTVSPropertyOp52
 70
     0
102
RTVSPropertyOp53
 70
     1
102
RTVSPropertyOp54
 70
     1
102
RTVSPropertyOp55
 70
     1
102
RTVSPropertyOp56
 70
     1
102
RTVSPropertyOp57
 70
     1
102
RTVSPropertyOp58
 70
     1
102
RTVSPropertyOp59
 70
     1
102
RTVSPropertyOp60
 70
     1
102
RTVSPropertyOp61
 70
     1
102
RTVSPropertyOp62
 70
     1
  0
XRECORD
  5
465
102
{ACAD_REACTORS
330
464
102
}
330
464
100
AcDbXrecord
280
     1
102
RTVSPost2010Prop28
280
     0
102
RTVSPost2010PropOp28
 70
     1
102
RTVSPost2010Prop29
280
     1
102
RTVSPost2010PropOp29
 70
     1
102
RTVSPost2010Prop30
280
     1
102
RTVSPost2010PropOp30
 70
     1
102
RTVSPost2010Prop31
280
     0
102
RTVSPost2010PropOp31
 70
     1
102
RTVSPost2010Prop32
280
     0
102
RTVSPost2010PropOp32
 70
     1
102
RTVSPost2010Prop33
280
     0
102
RTVSPost2010PropOp33
 70
     1
102
RTVSPost2010Prop34
280
     0
102
RTVSPost2010PropOp34
 70
     1
102
RTVSPost2010Prop35
280
     0
102
RTVSPost2010PropOp35
 70
     1
102
RTVSPost2010Prop36
280
     0
102
RTVSPost2010PropOp36
 70
     1
102
RTVSPost2010Prop37
 90
       50
102
RTVSPost2010PropOp37
 70
     1
102
RTVSPost2010Prop38
140
0.0
102
RTVSPost2010PropOp38
 70
     1
102
RTVSPost2010Prop39
140
1.0
102
RTVSPost2010PropOp39
 70
     1
102
RTVSPost2010Prop40
 90
        0
102
RTVSPost2010PropOp40
 70
     1
102
RTVSPost2010Prop41ColorIndex
 90
       18
102
RTVSPost2010Prop41ColorRGB
 90
        0
102
RTVSPost2010PropOp41
 70
     1
102
RTVSPost2010Prop42
 90
       50
102
RTVSPost2010PropOp42
 70
     1
102
RTVSPost2010Prop43
 90
        3
102
RTVSPost2010PropOp43
 70
     1
102
RTVSPost2010Prop44ColorIndex
 90
        5
102
RTVSPost2010Prop44ColorRGB
 90
      255
102
RTVSPost2010PropOp44
 70
     1
102
RTVSPost2010Prop45
280
     0
102
RTVSPost2010PropOp45
 70
     1
102
RTVSPost2010Prop46
 90
       50
102
RTVSPost2010PropOp46
 70
     1
102
RTVSPost2010Prop47
 90
       50
102
RTVSPost2010PropOp47
 70
     1
102
RTVSPost2010Prop48
 90
       50
102
RTVSPost2010PropOp48
 70
     1
102
RTVSPost2010Prop49
280
     0
102
RTVSPost2010PropOp49
 70
     1
102
RTVSPost2010Prop50
 90
       50
102
RTVSPost2010PropOp50
 70
     1
102
RTVSPost2010Prop51ColorIndex
 90
      256
102
RTVSPost2010Prop51ColorRGB
 90
-16777216
102
RTVSPost2010PropOp51
 70
     0
102
RTVSPost2010Prop52
140
1.0
102
RTVSPost2010PropOp52
 70
     0
102
RTVSPost2010Prop53
 90
        2
102
RTVSPost2010PropOp53
 70
     1
102
RTVSPost2010Prop54
  1
strokes_ogs.tif
102
RTVSPost2010PropOp54
 70
     1
102
RTVSPost2010Prop55
280
     0
102
RTVSPost2010PropOp55
 70
     1
102
RTVSPost2010Prop56
140
1.0
102
RTVSPost2010PropOp56
 70
     1
102
RTVSPost2010Prop57
140
1.0
102
RTVSPost2010PropOp57
 70
     1
102
RTVSPropertyOp0
 70
     1
102
RTVSPropertyOp1
 70
     1
102
RTVSPropertyOp2
 70
     1
102
RTVSPropertyOp3
 70
     1
102
RTVSPropertyOp4
 70
     1
102
RTVSPropertyOp5
 70
     1
102
RTVSPropertyOp6
 70
     1
102
RTVSPropertyOp7
 70
     1
102
RTVSPropertyOp8
 70
     1
102
RTVSPropertyOp9
 70
     1
102
RTVSPropertyOp10
 70
     1
102
RTVSPropertyOp11
 70
     1
102
RTVSPropertyOp12
 70
     1
102
RTVSPropertyOp13
 70
     1
102
RTVSPropertyOp14
 70
     1
102
RTVSPropertyOp15
 70
     1
102
RTVSPropertyOp16
 70
     1
102
RTVSPropertyOp17
 70
     1
102
RTVSPropertyOp18
 70
     1
102
RTVSPropertyOp19
 70
     1
102
RTVSPropertyOp20
 70
     1
102
RTVSPropertyOp21
 70
     1
102
RTVSPropertyOp22
 70
     1
102
RTVSPropertyOp23
 70
     1
102
RTVSPropertyOp24
 70
     1
102
RTVSPropertyOp25
 70
     1
102
RTVSPropertyOp26
 70
     1
102
RTVSPropertyOp27
 70
     1
102
RTVSPropertyOp28
 70
     1
102
RTVSPropertyOp29
 70
     1
102
RTVSPropertyOp30
 70
     1
102
RTVSPropertyOp31
 70
     1
102
RTVSPropertyOp32
 70
     1
102
RTVSPropertyOp33
 70
     1
102
RTVSPropertyOp34
 70
     1
102
RTVSPropertyOp35
 70
     1
102
RTVSPropertyOp36
 70
     1
102
RTVSPropertyOp37
 70
     1
102
RTVSPropertyOp38
 70
     1
102
RTVSPropertyOp39
 70
     1
102
RTVSPropertyOp40
 70
     1
102
RTVSPropertyOp41
 70
     1
102
RTVSPropertyOp42
 70
     1
102
RTVSPropertyOp43
 70
     1
102
RTVSPropertyOp44
 70
     1
102
RTVSPropertyOp45
 70
     1
102
RTVSPropertyOp46
 70
     1
102
RTVSPropertyOp47
 70
     1
102
RTVSPropertyOp48
 70
     1
102
RTVSPropertyOp49
 70
     1
102
RTVSPropertyOp50
 70
     1
102
RTVSPropertyOp51
 70
     0
102
RTVSPropertyOp52
 70
     0
102
RTVSPropertyOp53
 70
     1
102
RTVSPropertyOp54
 70
     1
102
RTVSPropertyOp55
 70
     1
102
RTVSPropertyOp56
 70
     1
102
RTVSPropertyOp57
 70
     1
102
RTVSPropertyOp58
 70
     1
102
RTVSPropertyOp59
 70
     1
102
RTVSPropertyOp60
 70
     1
102
RTVSPropertyOp61
 70
     1
102
RTVSPropertyOp62
 70
     1
  0
XRECORD
  5
467
102
{ACAD_REACTORS
330
466
102
}
330
466
100
AcDbXrecord
280
     1
102
RTVSPost2010Prop28
280
     0
102
RTVSPost2010PropOp28
 70
     1
102
RTVSPost2010Prop29
280
     1
102
RTVSPost2010PropOp29
 70
     1
102
RTVSPost2010Prop30
280
     1
102
RTVSPost2010PropOp30
 70
     1
102
RTVSPost2010Prop31
280
     0
102
RTVSPost2010PropOp31
 70
     1
102
RTVSPost2010Prop32
280
     0
102
RTVSPost2010PropOp32
 70
     1
102
RTVSPost2010Prop33
280
     0
102
RTVSPost2010PropOp33
 70
     1
102
RTVSPost2010Prop34
280
     0
102
RTVSPost2010PropOp34
 70
     1
102
RTVSPost2010Prop35
280
     0
102
RTVSPost2010PropOp35
 70
     1
102
RTVSPost2010Prop36
280
     0
102
RTVSPost2010PropOp36
 70
     1
102
RTVSPost2010Prop37
 90
       50
102
RTVSPost2010PropOp37
 70
     1
102
RTVSPost2010Prop38
140
0.0
102
RTVSPost2010PropOp38
 70
     1
102
RTVSPost2010Prop39
140
1.0
102
RTVSPost2010PropOp39
 70
     1
102
RTVSPost2010Prop40
 90
        0
102
RTVSPost2010PropOp40
 70
     1
102
RTVSPost2010Prop41ColorIndex
 90
       18
102
RTVSPost2010Prop41ColorRGB
 90
        0
102
RTVSPost2010PropOp41
 70
     1
102
RTVSPost2010Prop42
 90
       50
102
RTVSPost2010PropOp42
 70
     1
102
RTVSPost2010Prop43
 90
        3
102
RTVSPost2010PropOp43
 70
     1
102
RTVSPost2010Prop44ColorIndex
 90
        5
102
RTVSPost2010Prop44ColorRGB
 90
      255
102
RTVSPost2010PropOp44
 70
     1
102
RTVSPost2010Prop45
280
     0
102
RTVSPost2010PropOp45
 70
     1
102
RTVSPost2010Prop46
 90
       50
102
RTVSPost2010PropOp46
 70
     1
102
RTVSPost2010Prop47
 90
       50
102
RTVSPost2010PropOp47
 70
     1
102
RTVSPost2010Prop48
 90
       50
102
RTVSPost2010PropOp48
 70
     1
102
RTVSPost2010Prop49
280
     0
102
RTVSPost2010PropOp49
 70
     1
102
RTVSPost2010Prop50
 90
       50
102
RTVSPost2010PropOp50
 70
     1
102
RTVSPost2010Prop51ColorIndex
 90
      256
102
RTVSPost2010Prop51ColorRGB
 90
-16777216
102
RTVSPost2010PropOp51
 70
     0
102
RTVSPost2010Prop52
140
1.0
102
RTVSPost2010PropOp52
 70
     0
102
RTVSPost2010Prop53
 90
        2
102
RTVSPost2010PropOp53
 70
     1
102
RTVSPost2010Prop54
  1
strokes_ogs.tif
102
RTVSPost2010PropOp54
 70
     1
102
RTVSPost2010Prop55
280
     0
102
RTVSPost2010PropOp55
 70
     1
102
RTVSPost2010Prop56
140
1.0
102
RTVSPost2010PropOp56
 70
     1
102
RTVSPost2010Prop57
140
1.0
102
RTVSPost2010PropOp57
 70
     1
102
RTVSPropertyOp0
 70
     1
102
RTVSPropertyOp1
 70
     1
102
RTVSPropertyOp2
 70
     1
102
RTVSPropertyOp3
 70
     1
102
RTVSPropertyOp4
 70
     1
102
RTVSPropertyOp5
 70
     1
102
RTVSPropertyOp6
 70
     1
102
RTVSPropertyOp7
 70
     1
102
RTVSPropertyOp8
 70
     1
102
RTVSPropertyOp9
 70
     1
102
RTVSPropertyOp10
 70
     1
102
RTVSPropertyOp11
 70
     1
102
RTVSPropertyOp12
 70
     1
102
RTVSPropertyOp13
 70
     1
102
RTVSPropertyOp14
 70
     1
102
RTVSPropertyOp15
 70
     1
102
RTVSPropertyOp16
 70
     1
102
RTVSPropertyOp17
 70
     1
102
RTVSPropertyOp18
 70
     1
102
RTVSPropertyOp19
 70
     1
102
RTVSPropertyOp20
 70
     1
102
RTVSPropertyOp21
 70
     1
102
RTVSPropertyOp22
 70
     1
102
RTVSPropertyOp23
 70
     1
102
RTVSPropertyOp24
 70
     1
102
RTVSPropertyOp25
 70
     1
102
RTVSPropertyOp26
 70
     1
102
RTVSPropertyOp27
 70
     1
102
RTVSPropertyOp28
 70
     1
102
RTVSPropertyOp29
 70
     1
102
RTVSPropertyOp30
 70
     1
102
RTVSPropertyOp31
 70
     1
102
RTVSPropertyOp32
 70
     1
102
RTVSPropertyOp33
 70
     1
102
RTVSPropertyOp34
 70
     1
102
RTVSPropertyOp35
 70
     1
102
RTVSPropertyOp36
 70
     1
102
RTVSPropertyOp37
 70
     1
102
RTVSPropertyOp38
 70
     1
102
RTVSPropertyOp39
 70
     1
102
RTVSPropertyOp40
 70
     1
102
RTVSPropertyOp41
 70
     1
102
RTVSPropertyOp42
 70
     1
102
RTVSPropertyOp43
 70
     1
102
RTVSPropertyOp44
 70
     1
102
RTVSPropertyOp45
 70
     1
102
RTVSPropertyOp46
 70
     1
102
RTVSPropertyOp47
 70
     1
102
RTVSPropertyOp48
 70
     1
102
RTVSPropertyOp49
 70
     1
102
RTVSPropertyOp50
 70
     1
102
RTVSPropertyOp51
 70
     0
102
RTVSPropertyOp52
 70
     0
102
RTVSPropertyOp53
 70
     1
102
RTVSPropertyOp54
 70
     1
102
RTVSPropertyOp55
 70
     1
102
RTVSPropertyOp56
 70
     1
102
RTVSPropertyOp57
 70
     1
102
RTVSPropertyOp58
 70
     1
102
RTVSPropertyOp59
 70
     1
102
RTVSPropertyOp60
 70
     1
102
RTVSPropertyOp61
 70
     1
102
RTVSPropertyOp62
 70
     1
  0
XRECORD
  5
46D
102
{ACAD_REACTORS
330
46C
102
}
330
46C
100
AcDbXrecord
280
     1
102
RTVSPost2010Prop28
280
     0
102
RTVSPost2010PropOp28
 70
     1
102
RTVSPost2010Prop29
280
     1
102
RTVSPost2010PropOp29
 70
     1
102
RTVSPost2010Prop30
280
     1
102
RTVSPost2010PropOp30
 70
     1
102
RTVSPost2010Prop31
280
     0
102
RTVSPost2010PropOp31
 70
     1
102
RTVSPost2010Prop32
280
     0
102
RTVSPost2010PropOp32
 70
     1
102
RTVSPost2010Prop33
280
     0
102
RTVSPost2010PropOp33
 70
     1
102
RTVSPost2010Prop34
280
     0
102
RTVSPost2010PropOp34
 70
     1
102
RTVSPost2010Prop35
280
     0
102
RTVSPost2010PropOp35
 70
     1
102
RTVSPost2010Prop36
280
     0
102
RTVSPost2010PropOp36
 70
     1
102
RTVSPost2010Prop37
 90
       50
102
RTVSPost2010PropOp37
 70
     1
102
RTVSPost2010Prop38
140
0.0
102
RTVSPost2010PropOp38
 70
     1
102
RTVSPost2010Prop39
140
1.0
102
RTVSPost2010PropOp39
 70
     1
102
RTVSPost2010Prop40
 90
        0
102
RTVSPost2010PropOp40
 70
     1
102
RTVSPost2010Prop41ColorIndex
 90
       18
102
RTVSPost2010Prop41ColorRGB
 90
        0
102
RTVSPost2010PropOp41
 70
     1
102
RTVSPost2010Prop42
 90
       50
102
RTVSPost2010PropOp42
 70
     1
102
RTVSPost2010Prop43
 90
        3
102
RTVSPost2010PropOp43
 70
     1
102
RTVSPost2010Prop44ColorIndex
 90
        5
102
RTVSPost2010Prop44ColorRGB
 90
      255
102
RTVSPost2010PropOp44
 70
     1
102
RTVSPost2010Prop45
280
     0
102
RTVSPost2010PropOp45
 70
     1
102
RTVSPost2010Prop46
 90
       50
102
RTVSPost2010PropOp46
 70
     1
102
RTVSPost2010Prop47
 90
       50
102
RTVSPost2010PropOp47
 70
     1
102
RTVSPost2010Prop48
 90
       50
102
RTVSPost2010PropOp48
 70
     1
102
RTVSPost2010Prop49
280
     0
102
RTVSPost2010PropOp49
 70
     1
102
RTVSPost2010Prop50
 90
       50
102
RTVSPost2010PropOp50
 70
     1
102
RTVSPost2010Prop51ColorIndex
 90
      256
102
RTVSPost2010Prop51ColorRGB
 90
-16777216
102
RTVSPost2010PropOp51
 70
     0
102
RTVSPost2010Prop52
140
1.0
102
RTVSPost2010PropOp52
 70
     0
102
RTVSPost2010Prop53
 90
        2
102
RTVSPost2010PropOp53
 70
     1
102
RTVSPost2010Prop54
  1
strokes_ogs.tif
102
RTVSPost2010PropOp54
 70
     1
102
RTVSPost2010Prop55
280
     0
102
RTVSPost2010PropOp55
 70
     1
102
RTVSPost2010Prop56
140
1.0
102
RTVSPost2010PropOp56
 70
     1
102
RTVSPost2010Prop57
140
1.0
102
RTVSPost2010PropOp57
 70
     1
102
RTVSPropertyOp0
 70
     1
102
RTVSPropertyOp1
 70
     1
102
RTVSPropertyOp2
 70
     1
102
RTVSPropertyOp3
 70
     1
102
RTVSPropertyOp4
 70
     1
102
RTVSPropertyOp5
 70
     1
102
RTVSPropertyOp6
 70
     1
102
RTVSPropertyOp7
 70
     1
102
RTVSPropertyOp8
 70
     1
102
RTVSPropertyOp9
 70
     1
102
RTVSPropertyOp10
 70
     1
102
RTVSPropertyOp11
 70
     1
102
RTVSPropertyOp12
 70
     1
102
RTVSPropertyOp13
 70
     1
102
RTVSPropertyOp14
 70
     1
102
RTVSPropertyOp15
 70
     1
102
RTVSPropertyOp16
 70
     1
102
RTVSPropertyOp17
 70
     1
102
RTVSPropertyOp18
 70
     1
102
RTVSPropertyOp19
 70
     1
102
RTVSPropertyOp20
 70
     1
102
RTVSPropertyOp21
 70
     1
102
RTVSPropertyOp22
 70
     1
102
RTVSPropertyOp23
 70
     1
102
RTVSPropertyOp24
 70
     1
102
RTVSPropertyOp25
 70
     1
102
RTVSPropertyOp26
 70
     1
102
RTVSPropertyOp27
 70
     1
102
RTVSPropertyOp28
 70
     1
102
RTVSPropertyOp29
 70
     1
102
RTVSPropertyOp30
 70
     1
102
RTVSPropertyOp31
 70
     1
102
RTVSPropertyOp32
 70
     1
102
RTVSPropertyOp33
 70
     1
102
RTVSPropertyOp34
 70
     1
102
RTVSPropertyOp35
 70
     1
102
RTVSPropertyOp36
 70
     1
102
RTVSPropertyOp37
 70
     1
102
RTVSPropertyOp38
 70
     1
102
RTVSPropertyOp39
 70
     1
102
RTVSPropertyOp40
 70
     1
102
RTVSPropertyOp41
 70
     1
102
RTVSPropertyOp42
 70
     1
102
RTVSPropertyOp43
 70
     1
102
RTVSPropertyOp44
 70
     1
102
RTVSPropertyOp45
 70
     1
102
RTVSPropertyOp46
 70
     1
102
RTVSPropertyOp47
 70
     1
102
RTVSPropertyOp48
 70
     1
102
RTVSPropertyOp49
 70
     1
102
RTVSPropertyOp50
 70
     1
102
RTVSPropertyOp51
 70
     0
102
RTVSPropertyOp52
 70
     0
102
RTVSPropertyOp53
 70
     1
102
RTVSPropertyOp54
 70
     1
102
RTVSPropertyOp55
 70
     1
102
RTVSPropertyOp56
 70
     1
102
RTVSPropertyOp57
 70
     1
102
RTVSPropertyOp58
 70
     1
102
RTVSPropertyOp59
 70
     1
102
RTVSPropertyOp60
 70
     1
102
RTVSPropertyOp61
 70
     1
102
RTVSPropertyOp62
 70
     1
  0
XRECORD
  5
481
102
{ACAD_REACTORS
330
480
102
}
330
480
100
AcDbXrecord
280
     1
102
RTVSPost2010Prop28
280
     0
102
RTVSPost2010PropOp28
 70
     0
102
RTVSPost2010Prop29
280
     1
102
RTVSPost2010PropOp29
 70
     0
102
RTVSPost2010Prop30
280
     1
102
RTVSPost2010PropOp30
 70
     0
102
RTVSPost2010Prop31
280
     0
102
RTVSPost2010PropOp31
 70
     0
102
RTVSPost2010Prop32
280
     0
102
RTVSPost2010PropOp32
 70
     0
102
RTVSPost2010Prop33
280
     0
102
RTVSPost2010PropOp33
 70
     0
102
RTVSPost2010Prop34
280
     0
102
RTVSPost2010PropOp34
 70
     0
102
RTVSPost2010Prop35
280
     0
102
RTVSPost2010PropOp35
 70
     0
102
RTVSPost2010Prop36
280
     0
102
RTVSPost2010PropOp36
 70
     0
102
RTVSPost2010Prop37
 90
       50
102
RTVSPost2010PropOp37
 70
     0
102
RTVSPost2010Prop38
140
0.0
102
RTVSPost2010PropOp38
 70
     0
102
RTVSPost2010Prop39
140
1.0
102
RTVSPost2010PropOp39
 70
     0
102
RTVSPost2010Prop40
 90
        0
102
RTVSPost2010PropOp40
 70
     0
102
RTVSPost2010Prop41ColorIndex
 90
       18
102
RTVSPost2010Prop41ColorRGB
 90
        0
102
RTVSPost2010PropOp41
 70
     0
102
RTVSPost2010Prop42
 90
       50
102
RTVSPost2010PropOp42
 70
     0
102
RTVSPost2010Prop43
 90
        3
102
RTVSPost2010PropOp43
 70
     0
102
RTVSPost2010Prop44ColorIndex
 90
        5
102
RTVSPost2010Prop44ColorRGB
 90
      255
102
RTVSPost2010PropOp44
 70
     0
102
RTVSPost2010Prop45
280
     0
102
RTVSPost2010PropOp45
 70
     0
102
RTVSPost2010Prop46
 90
       50
102
RTVSPost2010PropOp46
 70
     0
102
RTVSPost2010Prop47
 90
       50
102
RTVSPost2010PropOp47
 70
     0
102
RTVSPost2010Prop48
 90
       50
102
RTVSPost2010PropOp48
 70
     0
102
RTVSPost2010Prop49
280
     0
102
RTVSPost2010PropOp49
 70
     0
102
RTVSPost2010Prop50
 90
       50
102
RTVSPost2010PropOp50
 70
     0
102
RTVSPost2010Prop51ColorIndex
 90
      256
102
RTVSPost2010Prop51ColorRGB
 90
-16777216
102
RTVSPost2010PropOp51
 70
     0
102
RTVSPost2010Prop52
140
1.0
102
RTVSPost2010PropOp52
 70
     0
102
RTVSPost2010Prop53
 90
        2
102
RTVSPost2010PropOp53
 70
     0
102
RTVSPost2010Prop54
  1
strokes_ogs.tif
102
RTVSPost2010PropOp54
 70
     0
102
RTVSPost2010Prop55
280
     0
102
RTVSPost2010PropOp55
 70
     0
102
RTVSPost2010Prop56
140
1.0
102
RTVSPost2010PropOp56
 70
     0
102
RTVSPost2010Prop57
140
1.0
102
RTVSPost2010PropOp57
 70
     0
102
RTVSPropertyOp0
 70
     0
102
RTVSPropertyOp1
 70
     0
102
RTVSPropertyOp2
 70
     0
102
RTVSPropertyOp3
 70
     0
102
RTVSPropertyOp4
 70
     0
102
RTVSPropertyOp5
 70
     0
102
RTVSPropertyOp6
 70
     0
102
RTVSPropertyOp7
 70
     0
102
RTVSPropertyOp8
 70
     0
102
RTVSPropertyOp9
 70
     0
102
RTVSPropertyOp10
 70
     0
102
RTVSPropertyOp11
 70
     0
102
RTVSPropertyOp12
 70
     0
102
RTVSPropertyOp13
 70
     0
102
RTVSPropertyOp14
 70
     2
102
RTVSPropertyOp15
 70
     0
102
RTVSPropertyOp16
 70
     0
102
RTVSPropertyOp17
 70
     0
102
RTVSPropertyOp18
 70
     0
102
RTVSPropertyOp19
 70
     0
102
RTVSPropertyOp20
 70
     0
102
RTVSPropertyOp21
 70
     0
102
RTVSPropertyOp22
 70
     0
102
RTVSPropertyOp23
 70
     0
102
RTVSPropertyOp24
 70
     0
102
RTVSPropertyOp25
 70
     0
102
RTVSPropertyOp26
 70
     0
102
RTVSPropertyOp27
 70
     0
102
RTVSPropertyOp28
 70
     0
102
RTVSPropertyOp29
 70
     0
102
RTVSPropertyOp30
 70
     0
102
RTVSPropertyOp31
 70
     0
102
RTVSPropertyOp32
 70
     0
102
RTVSPropertyOp33
 70
     0
102
RTVSPropertyOp34
 70
     0
102
RTVSPropertyOp35
 70
     0
102
RTVSPropertyOp36
 70
     0
102
RTVSPropertyOp37
 70
     0
102
RTVSPropertyOp38
 70
     0
102
RTVSPropertyOp39
 70
     0
102
RTVSPropertyOp40
 70
     0
102
RTVSPropertyOp41
 70
     0
102
RTVSPropertyOp42
 70
     0
102
RTVSPropertyOp43
 70
     0
102
RTVSPropertyOp44
 70
     0
102
RTVSPropertyOp45
 70
     0
102
RTVSPropertyOp46
 70
     0
102
RTVSPropertyOp47
 70
     0
102
RTVSPropertyOp48
 70
     0
102
RTVSPropertyOp49
 70
     0
102
RTVSPropertyOp50
 70
     0
102
RTVSPropertyOp51
 70
     0
102
RTVSPropertyOp52
 70
     0
102
RTVSPropertyOp53
 70
     0
102
RTVSPropertyOp54
 70
     0
102
RTVSPropertyOp55
 70
     0
102
RTVSPropertyOp56
 70
     0
102
RTVSPropertyOp57
 70
     0
102
RTVSPropertyOp58
 70
     1
102
RTVSPropertyOp59
 70
     1
102
RTVSPropertyOp60
 70
     1
102
RTVSPropertyOp61
 70
     1
102
RTVSPropertyOp62
 70
     1
  0
XRECORD
  5
47B
102
{ACAD_REACTORS
330
47A
102
}
330
47A
100
AcDbXrecord
280
     1
102
RTVSPost2010Prop28
280
     0
102
RTVSPost2010PropOp28
 70
     1
102
RTVSPost2010Prop29
280
     1
102
RTVSPost2010PropOp29
 70
     1
102
RTVSPost2010Prop30
280
     1
102
RTVSPost2010PropOp30
 70
     1
102
RTVSPost2010Prop31
280
     0
102
RTVSPost2010PropOp31
 70
     1
102
RTVSPost2010Prop32
280
     0
102
RTVSPost2010PropOp32
 70
     1
102
RTVSPost2010Prop33
280
     0
102
RTVSPost2010PropOp33
 70
     1
102
RTVSPost2010Prop34
280
     0
102
RTVSPost2010PropOp34
 70
     1
102
RTVSPost2010Prop35
280
     0
102
RTVSPost2010PropOp35
 70
     1
102
RTVSPost2010Prop36
280
     0
102
RTVSPost2010PropOp36
 70
     1
102
RTVSPost2010Prop37
 90
       50
102
RTVSPost2010PropOp37
 70
     1
102
RTVSPost2010Prop38
140
0.0
102
RTVSPost2010PropOp38
 70
     1
102
RTVSPost2010Prop39
140
1.0
102
RTVSPost2010PropOp39
 70
     1
102
RTVSPost2010Prop40
 90
        0
102
RTVSPost2010PropOp40
 70
     1
102
RTVSPost2010Prop41ColorIndex
 90
       18
102
RTVSPost2010Prop41ColorRGB
 90
        0
102
RTVSPost2010PropOp41
 70
     1
102
RTVSPost2010Prop42
 90
       50
102
RTVSPost2010PropOp42
 70
     1
102
RTVSPost2010Prop43
 90
        3
102
RTVSPost2010PropOp43
 70
     1
102
RTVSPost2010Prop44ColorIndex
 90
        5
102
RTVSPost2010Prop44ColorRGB
 90
      255
102
RTVSPost2010PropOp44
 70
     1
102
RTVSPost2010Prop45
280
     0
102
RTVSPost2010PropOp45
 70
     1
102
RTVSPost2010Prop46
 90
       50
102
RTVSPost2010PropOp46
 70
     1
102
RTVSPost2010Prop47
 90
       50
102
RTVSPost2010PropOp47
 70
     1
102
RTVSPost2010Prop48
 90
       50
102
RTVSPost2010PropOp48
 70
     1
102
RTVSPost2010Prop49
280
     0
102
RTVSPost2010PropOp49
 70
     1
102
RTVSPost2010Prop50
 90
       50
102
RTVSPost2010PropOp50
 70
     1
102
RTVSPost2010Prop51ColorIndex
 90
      256
102
RTVSPost2010Prop51ColorRGB
 90
-16777216
102
RTVSPost2010PropOp51
 70
     0
102
RTVSPost2010Prop52
140
1.0
102
RTVSPost2010PropOp52
 70
     0
102
RTVSPost2010Prop53
 90
        2
102
RTVSPost2010PropOp53
 70
     1
102
RTVSPost2010Prop54
  1
strokes_ogs.tif
102
RTVSPost2010PropOp54
 70
     1
102
RTVSPost2010Prop55
280
     0
102
RTVSPost2010PropOp55
 70
     1
102
RTVSPost2010Prop56
140
1.0
102
RTVSPost2010PropOp56
 70
     1
102
RTVSPost2010Prop57
140
1.0
102
RTVSPost2010PropOp57
 70
     1
102
RTVSPropertyOp0
 70
     1
102
RTVSPropertyOp1
 70
     1
102
RTVSPropertyOp2
 70
     1
102
RTVSPropertyOp3
 70
     1
102
RTVSPropertyOp4
 70
     1
102
RTVSPropertyOp5
 70
     1
102
RTVSPropertyOp6
 70
     1
102
RTVSPropertyOp7
 70
     1
102
RTVSPropertyOp8
 70
     1
102
RTVSPropertyOp9
 70
     1
102
RTVSPropertyOp10
 70
     1
102
RTVSPropertyOp11
 70
     1
102
RTVSPropertyOp12
 70
     1
102
RTVSPropertyOp13
 70
     1
102
RTVSPropertyOp14
 70
     1
102
RTVSPropertyOp15
 70
     1
102
RTVSPropertyOp16
 70
     1
102
RTVSPropertyOp17
 70
     1
102
RTVSPropertyOp18
 70
     1
102
RTVSPropertyOp19
 70
     1
102
RTVSPropertyOp20
 70
     1
102
RTVSPropertyOp21
 70
     1
102
RTVSPropertyOp22
 70
     1
102
RTVSPropertyOp23
 70
     1
102
RTVSPropertyOp24
 70
     1
102
RTVSPropertyOp25
 70
     1
102
RTVSPropertyOp26
 70
     1
102
RTVSPropertyOp27
 70
     1
102
RTVSPropertyOp28
 70
     1
102
RTVSPropertyOp29
 70
     1
102
RTVSPropertyOp30
 70
     1
102
RTVSPropertyOp31
 70
     1
102
RTVSPropertyOp32
 70
     1
102
RTVSPropertyOp33
 70
     1
102
RTVSPropertyOp34
 70
     1
102
RTVSPropertyOp35
 70
     1
102
RTVSPropertyOp36
 70
     1
102
RTVSPropertyOp37
 70
     1
102
RTVSPropertyOp38
 70
     1
102
RTVSPropertyOp39
 70
     1
102
RTVSPropertyOp40
 70
     1
102
RTVSPropertyOp41
 70
     1
102
RTVSPropertyOp42
 70
     1
102
RTVSPropertyOp43
 70
     1
102
RTVSPropertyOp44
 70
     1
102
RTVSPropertyOp45
 70
     1
102
RTVSPropertyOp46
 70
     1
102
RTVSPropertyOp47
 70
     1
102
RTVSPropertyOp48
 70
     1
102
RTVSPropertyOp49
 70
     1
102
RTVSPropertyOp50
 70
     1
102
RTVSPropertyOp51
 70
     0
102
RTVSPropertyOp52
 70
     0
102
RTVSPropertyOp53
 70
     1
102
RTVSPropertyOp54
 70
     1
102
RTVSPropertyOp55
 70
     1
102
RTVSPropertyOp56
 70
     1
102
RTVSPropertyOp57
 70
     1
102
RTVSPropertyOp58
 70
     1
102
RTVSPropertyOp59
 70
     1
102
RTVSPropertyOp60
 70
     1
102
RTVSPropertyOp61
 70
     1
102
RTVSPropertyOp62
 70
     1
  0
XRECORD
  5
483
102
{ACAD_REACTORS
330
482
102
}
330
482
100
AcDbXrecord
280
     1
102
RTVSPost2010Prop28
280
     0
102
RTVSPost2010PropOp28
 70
     0
102
RTVSPost2010Prop29
280
     1
102
RTVSPost2010PropOp29
 70
     0
102
RTVSPost2010Prop30
280
     1
102
RTVSPost2010PropOp30
 70
     0
102
RTVSPost2010Prop31
280
     0
102
RTVSPost2010PropOp31
 70
     0
102
RTVSPost2010Prop32
280
     0
102
RTVSPost2010PropOp32
 70
     0
102
RTVSPost2010Prop33
280
     0
102
RTVSPost2010PropOp33
 70
     0
102
RTVSPost2010Prop34
280
     0
102
RTVSPost2010PropOp34
 70
     0
102
RTVSPost2010Prop35
280
     0
102
RTVSPost2010PropOp35
 70
     0
102
RTVSPost2010Prop36
280
     0
102
RTVSPost2010PropOp36
 70
     0
102
RTVSPost2010Prop37
 90
       50
102
RTVSPost2010PropOp37
 70
     0
102
RTVSPost2010Prop38
140
0.0
102
RTVSPost2010PropOp38
 70
     0
102
RTVSPost2010Prop39
140
1.0
102
RTVSPost2010PropOp39
 70
     0
102
RTVSPost2010Prop40
 90
        0
102
RTVSPost2010PropOp40
 70
     0
102
RTVSPost2010Prop41ColorIndex
 90
       18
102
RTVSPost2010Prop41ColorRGB
 90
        0
102
RTVSPost2010PropOp41
 70
     0
102
RTVSPost2010Prop42
 90
       50
102
RTVSPost2010PropOp42
 70
     0
102
RTVSPost2010Prop43
 90
        3
102
RTVSPost2010PropOp43
 70
     0
102
RTVSPost2010Prop44ColorIndex
 90
        5
102
RTVSPost2010Prop44ColorRGB
 90
      255
102
RTVSPost2010PropOp44
 70
     0
102
RTVSPost2010Prop45
280
     0
102
RTVSPost2010PropOp45
 70
     0
102
RTVSPost2010Prop46
 90
       50
102
RTVSPost2010PropOp46
 70
     0
102
RTVSPost2010Prop47
 90
       50
102
RTVSPost2010PropOp47
 70
     0
102
RTVSPost2010Prop48
 90
       50
102
RTVSPost2010PropOp48
 70
     0
102
RTVSPost2010Prop49
280
     0
102
RTVSPost2010PropOp49
 70
     0
102
RTVSPost2010Prop50
 90
       50
102
RTVSPost2010PropOp50
 70
     0
102
RTVSPost2010Prop51ColorIndex
 90
      256
102
RTVSPost2010Prop51ColorRGB
 90
-16777216
102
RTVSPost2010PropOp51
 70
     0
102
RTVSPost2010Prop52
140
1.0
102
RTVSPost2010PropOp52
 70
     0
102
RTVSPost2010Prop53
 90
        2
102
RTVSPost2010PropOp53
 70
     0
102
RTVSPost2010Prop54
  1
strokes_ogs.tif
102
RTVSPost2010PropOp54
 70
     0
102
RTVSPost2010Prop55
280
     0
102
RTVSPost2010PropOp55
 70
     0
102
RTVSPost2010Prop56
140
1.0
102
RTVSPost2010PropOp56
 70
     0
102
RTVSPost2010Prop57
140
1.0
102
RTVSPost2010PropOp57
 70
     0
102
RTVSPropertyOp0
 70
     0
102
RTVSPropertyOp1
 70
     0
102
RTVSPropertyOp2
 70
     0
102
RTVSPropertyOp3
 70
     0
102
RTVSPropertyOp4
 70
     0
102
RTVSPropertyOp5
 70
     0
102
RTVSPropertyOp6
 70
     0
102
RTVSPropertyOp7
 70
     0
102
RTVSPropertyOp8
 70
     0
102
RTVSPropertyOp9
 70
     0
102
RTVSPropertyOp10
 70
     0
102
RTVSPropertyOp11
 70
     0
102
RTVSPropertyOp12
 70
     0
102
RTVSPropertyOp13
 70
     0
102
RTVSPropertyOp14
 70
     2
102
RTVSPropertyOp15
 70
     0
102
RTVSPropertyOp16
 70
     0
102
RTVSPropertyOp17
 70
     0
102
RTVSPropertyOp18
 70
     0
102
RTVSPropertyOp19
 70
     0
102
RTVSPropertyOp20
 70
     0
102
RTVSPropertyOp21
 70
     0
102
RTVSPropertyOp22
 70
     0
102
RTVSPropertyOp23
 70
     0
102
RTVSPropertyOp24
 70
     0
102
RTVSPropertyOp25
 70
     0
102
RTVSPropertyOp26
 70
     0
102
RTVSPropertyOp27
 70
     0
102
RTVSPropertyOp28
 70
     0
102
RTVSPropertyOp29
 70
     0
102
RTVSPropertyOp30
 70
     0
102
RTVSPropertyOp31
 70
     0
102
RTVSPropertyOp32
 70
     0
102
RTVSPropertyOp33
 70
     0
102
RTVSPropertyOp34
 70
     0
102
RTVSPropertyOp35
 70
     0
102
RTVSPropertyOp36
 70
     0
102
RTVSPropertyOp37
 70
     0
102
RTVSPropertyOp38
 70
     0
102
RTVSPropertyOp39
 70
     0
102
RTVSPropertyOp40
 70
     0
102
RTVSPropertyOp41
 70
     0
102
RTVSPropertyOp42
 70
     0
102
RTVSPropertyOp43
 70
     0
102
RTVSPropertyOp44
 70
     0
102
RTVSPropertyOp45
 70
     0
102
RTVSPropertyOp46
 70
     0
102
RTVSPropertyOp47
 70
     0
102
RTVSPropertyOp48
 70
     0
102
RTVSPropertyOp49
 70
     0
102
RTVSPropertyOp50
 70
     0
102
RTVSPropertyOp51
 70
     0
102
RTVSPropertyOp52
 70
     0
102
RTVSPropertyOp53
 70
     0
102
RTVSPropertyOp54
 70
     0
102
RTVSPropertyOp55
 70
     0
102
RTVSPropertyOp56
 70
     0
102
RTVSPropertyOp57
 70
     0
102
RTVSPropertyOp58
 70
     1
102
RTVSPropertyOp59
 70
     1
102
RTVSPropertyOp60
 70
     1
102
RTVSPropertyOp61
 70
     1
102
RTVSPropertyOp62
 70
     1
  0
XRECORD
  5
471
102
{ACAD_REACTORS
330
470
102
}
330
470
100
AcDbXrecord
280
     1
102
RTVSPost2010Prop28
280
     0
102
RTVSPost2010PropOp28
 70
     1
102
RTVSPost2010Prop29
280
     1
102
RTVSPost2010PropOp29
 70
     1
102
RTVSPost2010Prop30
280
     1
102
RTVSPost2010PropOp30
 70
     1
102
RTVSPost2010Prop31
280
     0
102
RTVSPost2010PropOp31
 70
     1
102
RTVSPost2010Prop32
280
     0
102
RTVSPost2010PropOp32
 70
     1
102
RTVSPost2010Prop33
280
     0
102
RTVSPost2010PropOp33
 70
     1
102
RTVSPost2010Prop34
280
     0
102
RTVSPost2010PropOp34
 70
     1
102
RTVSPost2010Prop35
280
     0
102
RTVSPost2010PropOp35
 70
     1
102
RTVSPost2010Prop36
280
     0
102
RTVSPost2010PropOp36
 70
     1
102
RTVSPost2010Prop37
 90
       50
102
RTVSPost2010PropOp37
 70
     1
102
RTVSPost2010Prop38
140
0.0
102
RTVSPost2010PropOp38
 70
     1
102
RTVSPost2010Prop39
140
1.0
102
RTVSPost2010PropOp39
 70
     1
102
RTVSPost2010Prop40
 90
        0
102
RTVSPost2010PropOp40
 70
     1
102
RTVSPost2010Prop41ColorIndex
 90
       18
102
RTVSPost2010Prop41ColorRGB
 90
        0
102
RTVSPost2010PropOp41
 70
     1
102
RTVSPost2010Prop42
 90
       50
102
RTVSPost2010PropOp42
 70
     1
102
RTVSPost2010Prop43
 90
        3
102
RTVSPost2010PropOp43
 70
     1
102
RTVSPost2010Prop44ColorIndex
 90
        5
102
RTVSPost2010Prop44ColorRGB
 90
      255
102
RTVSPost2010PropOp44
 70
     1
102
RTVSPost2010Prop45
280
     0
102
RTVSPost2010PropOp45
 70
     1
102
RTVSPost2010Prop46
 90
       50
102
RTVSPost2010PropOp46
 70
     1
102
RTVSPost2010Prop47
 90
       50
102
RTVSPost2010PropOp47
 70
     1
102
RTVSPost2010Prop48
 90
       50
102
RTVSPost2010PropOp48
 70
     1
102
RTVSPost2010Prop49
280
     0
102
RTVSPost2010PropOp49
 70
     1
102
RTVSPost2010Prop50
 90
       50
102
RTVSPost2010PropOp50
 70
     1
102
RTVSPost2010Prop51ColorIndex
 90
      256
102
RTVSPost2010Prop51ColorRGB
 90
-16777216
102
RTVSPost2010PropOp51
 70
     0
102
RTVSPost2010Prop52
140
1.0
102
RTVSPost2010PropOp52
 70
     0
102
RTVSPost2010Prop53
 90
        2
102
RTVSPost2010PropOp53
 70
     1
102
RTVSPost2010Prop54
  1
strokes_ogs.tif
102
RTVSPost2010PropOp54
 70
     1
102
RTVSPost2010Prop55
280
     0
102
RTVSPost2010PropOp55
 70
     1
102
RTVSPost2010Prop56
140
1.0
102
RTVSPost2010PropOp56
 70
     1
102
RTVSPost2010Prop57
140
1.0
102
RTVSPost2010PropOp57
 70
     1
102
RTVSPropertyOp0
 70
     1
102
RTVSPropertyOp1
 70
     1
102
RTVSPropertyOp2
 70
     1
102
RTVSPropertyOp3
 70
     1
102
RTVSPropertyOp4
 70
     1
102
RTVSPropertyOp5
 70
     1
102
RTVSPropertyOp6
 70
     1
102
RTVSPropertyOp7
 70
     1
102
RTVSPropertyOp8
 70
     1
102
RTVSPropertyOp9
 70
     1
102
RTVSPropertyOp10
 70
     1
102
RTVSPropertyOp11
 70
     1
102
RTVSPropertyOp12
 70
     1
102
RTVSPropertyOp13
 70
     1
102
RTVSPropertyOp14
 70
     1
102
RTVSPropertyOp15
 70
     1
102
RTVSPropertyOp16
 70
     1
102
RTVSPropertyOp17
 70
     1
102
RTVSPropertyOp18
 70
     1
102
RTVSPropertyOp19
 70
     1
102
RTVSPropertyOp20
 70
     1
102
RTVSPropertyOp21
 70
     1
102
RTVSPropertyOp22
 70
     1
102
RTVSPropertyOp23
 70
     1
102
RTVSPropertyOp24
 70
     1
102
RTVSPropertyOp25
 70
     1
102
RTVSPropertyOp26
 70
     1
102
RTVSPropertyOp27
 70
     1
102
RTVSPropertyOp28
 70
     1
102
RTVSPropertyOp29
 70
     1
102
RTVSPropertyOp30
 70
     1
102
RTVSPropertyOp31
 70
     1
102
RTVSPropertyOp32
 70
     1
102
RTVSPropertyOp33
 70
     1
102
RTVSPropertyOp34
 70
     1
102
RTVSPropertyOp35
 70
     1
102
RTVSPropertyOp36
 70
     1
102
RTVSPropertyOp37
 70
     1
102
RTVSPropertyOp38
 70
     1
102
RTVSPropertyOp39
 70
     1
102
RTVSPropertyOp40
 70
     1
102
RTVSPropertyOp41
 70
     1
102
RTVSPropertyOp42
 70
     1
102
RTVSPropertyOp43
 70
     1
102
RTVSPropertyOp44
 70
     1
102
RTVSPropertyOp45
 70
     1
102
RTVSPropertyOp46
 70
     1
102
RTVSPropertyOp47
 70
     1
102
RTVSPropertyOp48
 70
     1
102
RTVSPropertyOp49
 70
     1
102
RTVSPropertyOp50
 70
     1
102
RTVSPropertyOp51
 70
     0
102
RTVSPropertyOp52
 70
     0
102
RTVSPropertyOp53
 70
     1
102
RTVSPropertyOp54
 70
     1
102
RTVSPropertyOp55
 70
     1
102
RTVSPropertyOp56
 70
     1
102
RTVSPropertyOp57
 70
     1
102
RTVSPropertyOp58
 70
     1
102
RTVSPropertyOp59
 70
     1
102
RTVSPropertyOp60
 70
     1
102
RTVSPropertyOp61
 70
     1
102
RTVSPropertyOp62
 70
     1
  0
XRECORD
  5
48F
102
{ACAD_REACTORS
330
48E
102
}
330
48E
100
AcDbXrecord
280
     1
102
RTVSPost2010Prop28
280
     0
102
RTVSPost2010PropOp28
 70
     1
102
RTVSPost2010Prop29
280
     1
102
RTVSPost2010PropOp29
 70
     1
102
RTVSPost2010Prop30
280
     1
102
RTVSPost2010PropOp30
 70
     1
102
RTVSPost2010Prop31
280
     0
102
RTVSPost2010PropOp31
 70
     1
102
RTVSPost2010Prop32
280
     0
102
RTVSPost2010PropOp32
 70
     1
102
RTVSPost2010Prop33
280
     0
102
RTVSPost2010PropOp33
 70
     1
102
RTVSPost2010Prop34
280
     0
102
RTVSPost2010PropOp34
 70
     1
102
RTVSPost2010Prop35
280
     0
102
RTVSPost2010PropOp35
 70
     1
102
RTVSPost2010Prop36
280
     0
102
RTVSPost2010PropOp36
 70
     1
102
RTVSPost2010Prop37
 90
       50
102
RTVSPost2010PropOp37
 70
     1
102
RTVSPost2010Prop38
140
0.0
102
RTVSPost2010PropOp38
 70
     1
102
RTVSPost2010Prop39
140
1.0
102
RTVSPost2010PropOp39
 70
     1
102
RTVSPost2010Prop40
 90
        0
102
RTVSPost2010PropOp40
 70
     1
102
RTVSPost2010Prop41ColorIndex
 90
       18
102
RTVSPost2010Prop41ColorRGB
 90
        0
102
RTVSPost2010PropOp41
 70
     1
102
RTVSPost2010Prop42
 90
       50
102
RTVSPost2010PropOp42
 70
     1
102
RTVSPost2010Prop43
 90
        3
102
RTVSPost2010PropOp43
 70
     1
102
RTVSPost2010Prop44ColorIndex
 90
        5
102
RTVSPost2010Prop44ColorRGB
 90
      255
102
RTVSPost2010PropOp44
 70
     1
102
RTVSPost2010Prop45
280
     0
102
RTVSPost2010PropOp45
 70
     1
102
RTVSPost2010Prop46
 90
       50
102
RTVSPost2010PropOp46
 70
     1
102
RTVSPost2010Prop47
 90
       50
102
RTVSPost2010PropOp47
 70
     1
102
RTVSPost2010Prop48
 90
       50
102
RTVSPost2010PropOp48
 70
     1
102
RTVSPost2010Prop49
280
     0
102
RTVSPost2010PropOp49
 70
     1
102
RTVSPost2010Prop50
 90
       50
102
RTVSPost2010PropOp50
 70
     1
102
RTVSPost2010Prop51ColorIndex
 90
      256
102
RTVSPost2010Prop51ColorRGB
 90
-16777216
102
RTVSPost2010PropOp51
 70
     0
102
RTVSPost2010Prop52
140
1.0
102
RTVSPost2010PropOp52
 70
     0
102
RTVSPost2010Prop53
 90
        2
102
RTVSPost2010PropOp53
 70
     1
102
RTVSPost2010Prop54
  1
strokes_ogs.tif
102
RTVSPost2010PropOp54
 70
     1
102
RTVSPost2010Prop55
280
     0
102
RTVSPost2010PropOp55
 70
     1
102
RTVSPost2010Prop56
140
1.0
102
RTVSPost2010PropOp56
 70
     1
102
RTVSPost2010Prop57
140
1.0
102
RTVSPost2010PropOp57
 70
     1
102
RTVSPropertyOp0
 70
     1
102
RTVSPropertyOp1
 70
     1
102
RTVSPropertyOp2
 70
     1
102
RTVSPropertyOp3
 70
     1
102
RTVSPropertyOp4
 70
     1
102
RTVSPropertyOp5
 70
     1
102
RTVSPropertyOp6
 70
     1
102
RTVSPropertyOp7
 70
     1
102
RTVSPropertyOp8
 70
     1
102
RTVSPropertyOp9
 70
     1
102
RTVSPropertyOp10
 70
     1
102
RTVSPropertyOp11
 70
     1
102
RTVSPropertyOp12
 70
     1
102
RTVSPropertyOp13
 70
     1
102
RTVSPropertyOp14
 70
     1
102
RTVSPropertyOp15
 70
     1
102
RTVSPropertyOp16
 70
     1
102
RTVSPropertyOp17
 70
     1
102
RTVSPropertyOp18
 70
     1
102
RTVSPropertyOp19
 70
     1
102
RTVSPropertyOp20
 70
     1
102
RTVSPropertyOp21
 70
     1
102
RTVSPropertyOp22
 70
     1
102
RTVSPropertyOp23
 70
     1
102
RTVSPropertyOp24
 70
     1
102
RTVSPropertyOp25
 70
     1
102
RTVSPropertyOp26
 70
     1
102
RTVSPropertyOp27
 70
     1
102
RTVSPropertyOp28
 70
     1
102
RTVSPropertyOp29
 70
     1
102
RTVSPropertyOp30
 70
     1
102
RTVSPropertyOp31
 70
     1
102
RTVSPropertyOp32
 70
     1
102
RTVSPropertyOp33
 70
     1
102
RTVSPropertyOp34
 70
     1
102
RTVSPropertyOp35
 70
     1
102
RTVSPropertyOp36
 70
     1
102
RTVSPropertyOp37
 70
     1
102
RTVSPropertyOp38
 70
     1
102
RTVSPropertyOp39
 70
     1
102
RTVSPropertyOp40
 70
     1
102
RTVSPropertyOp41
 70
     1
102
RTVSPropertyOp42
 70
     1
102
RTVSPropertyOp43
 70
     1
102
RTVSPropertyOp44
 70
     1
102
RTVSPropertyOp45
 70
     1
102
RTVSPropertyOp46
 70
     1
102
RTVSPropertyOp47
 70
     1
102
RTVSPropertyOp48
 70
     1
102
RTVSPropertyOp49
 70
     1
102
RTVSPropertyOp50
 70
     1
102
RTVSPropertyOp51
 70
     0
102
RTVSPropertyOp52
 70
     0
102
RTVSPropertyOp53
 70
     1
102
RTVSPropertyOp54
 70
     1
102
RTVSPropertyOp55
 70
     1
102
RTVSPropertyOp56
 70
     1
102
RTVSPropertyOp57
 70
     1
102
RTVSPropertyOp58
 70
     1
102
RTVSPropertyOp59
 70
     1
102
RTVSPropertyOp60
 70
     1
102
RTVSPropertyOp61
 70
     1
102
RTVSPropertyOp62
 70
     1
  0
XRECORD
  5
48D
102
{ACAD_REACTORS
330
48C
102
}
330
48C
100
AcDbXrecord
280
     1
102
RTVSPost2010Prop28
280
     0
102
RTVSPost2010PropOp28
 70
     1
102
RTVSPost2010Prop29
280
     1
102
RTVSPost2010PropOp29
 70
     1
102
RTVSPost2010Prop30
280
     1
102
RTVSPost2010PropOp30
 70
     1
102
RTVSPost2010Prop31
280
     0
102
RTVSPost2010PropOp31
 70
     1
102
RTVSPost2010Prop32
280
     0
102
RTVSPost2010PropOp32
 70
     1
102
RTVSPost2010Prop33
280
     0
102
RTVSPost2010PropOp33
 70
     1
102
RTVSPost2010Prop34
280
     0
102
RTVSPost2010PropOp34
 70
     1
102
RTVSPost2010Prop35
280
     0
102
RTVSPost2010PropOp35
 70
     1
102
RTVSPost2010Prop36
280
     0
102
RTVSPost2010PropOp36
 70
     1
102
RTVSPost2010Prop37
 90
       50
102
RTVSPost2010PropOp37
 70
     1
102
RTVSPost2010Prop38
140
0.0
102
RTVSPost2010PropOp38
 70
     1
102
RTVSPost2010Prop39
140
1.0
102
RTVSPost2010PropOp39
 70
     1
102
RTVSPost2010Prop40
 90
        0
102
RTVSPost2010PropOp40
 70
     1
102
RTVSPost2010Prop41ColorIndex
 90
       18
102
RTVSPost2010Prop41ColorRGB
 90
        0
102
RTVSPost2010PropOp41
 70
     1
102
RTVSPost2010Prop42
 90
       50
102
RTVSPost2010PropOp42
 70
     1
102
RTVSPost2010Prop43
 90
        3
102
RTVSPost2010PropOp43
 70
     1
102
RTVSPost2010Prop44ColorIndex
 90
        5
102
RTVSPost2010Prop44ColorRGB
 90
      255
102
RTVSPost2010PropOp44
 70
     1
102
RTVSPost2010Prop45
280
     0
102
RTVSPost2010PropOp45
 70
     1
102
RTVSPost2010Prop46
 90
       50
102
RTVSPost2010PropOp46
 70
     1
102
RTVSPost2010Prop47
 90
       50
102
RTVSPost2010PropOp47
 70
     1
102
RTVSPost2010Prop48
 90
       50
102
RTVSPost2010PropOp48
 70
     1
102
RTVSPost2010Prop49
280
     0
102
RTVSPost2010PropOp49
 70
     1
102
RTVSPost2010Prop50
 90
       50
102
RTVSPost2010PropOp50
 70
     1
102
RTVSPost2010Prop51ColorIndex
 90
      256
102
RTVSPost2010Prop51ColorRGB
 90
-16777216
102
RTVSPost2010PropOp51
 70
     0
102
RTVSPost2010Prop52
140
1.0
102
RTVSPost2010PropOp52
 70
     0
102
RTVSPost2010Prop53
 90
        2
102
RTVSPost2010PropOp53
 70
     1
102
RTVSPost2010Prop54
  1
strokes_ogs.tif
102
RTVSPost2010PropOp54
 70
     1
102
RTVSPost2010Prop55
280
     0
102
RTVSPost2010PropOp55
 70
     1
102
RTVSPost2010Prop56
140
1.0
102
RTVSPost2010PropOp56
 70
     1
102
RTVSPost2010Prop57
140
1.0
102
RTVSPost2010PropOp57
 70
     1
102
RTVSPropertyOp0
 70
     1
102
RTVSPropertyOp1
 70
     1
102
RTVSPropertyOp2
 70
     1
102
RTVSPropertyOp3
 70
     1
102
RTVSPropertyOp4
 70
     1
102
RTVSPropertyOp5
 70
     1
102
RTVSPropertyOp6
 70
     1
102
RTVSPropertyOp7
 70
     1
102
RTVSPropertyOp8
 70
     1
102
RTVSPropertyOp9
 70
     1
102
RTVSPropertyOp10
 70
     1
102
RTVSPropertyOp11
 70
     1
102
RTVSPropertyOp12
 70
     1
102
RTVSPropertyOp13
 70
     1
102
RTVSPropertyOp14
 70
     1
102
RTVSPropertyOp15
 70
     1
102
RTVSPropertyOp16
 70
     1
102
RTVSPropertyOp17
 70
     1
102
RTVSPropertyOp18
 70
     1
102
RTVSPropertyOp19
 70
     1
102
RTVSPropertyOp20
 70
     1
102
RTVSPropertyOp21
 70
     1
102
RTVSPropertyOp22
 70
     1
102
RTVSPropertyOp23
 70
     1
102
RTVSPropertyOp24
 70
     1
102
RTVSPropertyOp25
 70
     1
102
RTVSPropertyOp26
 70
     1
102
RTVSPropertyOp27
 70
     1
102
RTVSPropertyOp28
 70
     1
102
RTVSPropertyOp29
 70
     1
102
RTVSPropertyOp30
 70
     1
102
RTVSPropertyOp31
 70
     1
102
RTVSPropertyOp32
 70
     1
102
RTVSPropertyOp33
 70
     1
102
RTVSPropertyOp34
 70
     1
102
RTVSPropertyOp35
 70
     1
102
RTVSPropertyOp36
 70
     1
102
RTVSPropertyOp37
 70
     1
102
RTVSPropertyOp38
 70
     1
102
RTVSPropertyOp39
 70
     1
102
RTVSPropertyOp40
 70
     1
102
RTVSPropertyOp41
 70
     1
102
RTVSPropertyOp42
 70
     1
102
RTVSPropertyOp43
 70
     1
102
RTVSPropertyOp44
 70
     1
102
RTVSPropertyOp45
 70
     1
102
RTVSPropertyOp46
 70
     1
102
RTVSPropertyOp47
 70
     1
102
RTVSPropertyOp48
 70
     1
102
RTVSPropertyOp49
 70
     1
102
RTVSPropertyOp50
 70
     1
102
RTVSPropertyOp51
 70
     0
102
RTVSPropertyOp52
 70
     0
102
RTVSPropertyOp53
 70
     1
102
RTVSPropertyOp54
 70
     1
102
RTVSPropertyOp55
 70
     1
102
RTVSPropertyOp56
 70
     1
102
RTVSPropertyOp57
 70
     1
102
RTVSPropertyOp58
 70
     1
102
RTVSPropertyOp59
 70
     1
102
RTVSPropertyOp60
 70
     1
102
RTVSPropertyOp61
 70
     1
102
RTVSPropertyOp62
 70
     1
  0
XRECORD
  5
487
102
{ACAD_REACTORS
330
486
102
}
330
486
100
AcDbXrecord
280
     1
102
RTVSPost2010Prop28
280
     0
102
RTVSPost2010PropOp28
 70
     1
102
RTVSPost2010Prop29
280
     1
102
RTVSPost2010PropOp29
 70
     1
102
RTVSPost2010Prop30
280
     1
102
RTVSPost2010PropOp30
 70
     1
102
RTVSPost2010Prop31
280
     0
102
RTVSPost2010PropOp31
 70
     1
102
RTVSPost2010Prop32
280
     0
102
RTVSPost2010PropOp32
 70
     1
102
RTVSPost2010Prop33
280
     0
102
RTVSPost2010PropOp33
 70
     1
102
RTVSPost2010Prop34
280
     0
102
RTVSPost2010PropOp34
 70
     1
102
RTVSPost2010Prop35
280
     0
102
RTVSPost2010PropOp35
 70
     1
102
RTVSPost2010Prop36
280
     0
102
RTVSPost2010PropOp36
 70
     1
102
RTVSPost2010Prop37
 90
       50
102
RTVSPost2010PropOp37
 70
     1
102
RTVSPost2010Prop38
140
0.0
102
RTVSPost2010PropOp38
 70
     1
102
RTVSPost2010Prop39
140
1.0
102
RTVSPost2010PropOp39
 70
     1
102
RTVSPost2010Prop40
 90
        0
102
RTVSPost2010PropOp40
 70
     1
102
RTVSPost2010Prop41ColorIndex
 90
       18
102
RTVSPost2010Prop41ColorRGB
 90
        0
102
RTVSPost2010PropOp41
 70
     1
102
RTVSPost2010Prop42
 90
       50
102
RTVSPost2010PropOp42
 70
     1
102
RTVSPost2010Prop43
 90
        3
102
RTVSPost2010PropOp43
 70
     1
102
RTVSPost2010Prop44ColorIndex
 90
        5
102
RTVSPost2010Prop44ColorRGB
 90
      255
102
RTVSPost2010PropOp44
 70
     1
102
RTVSPost2010Prop45
280
     0
102
RTVSPost2010PropOp45
 70
     1
102
RTVSPost2010Prop46
 90
       50
102
RTVSPost2010PropOp46
 70
     1
102
RTVSPost2010Prop47
 90
       50
102
RTVSPost2010PropOp47
 70
     1
102
RTVSPost2010Prop48
 90
       50
102
RTVSPost2010PropOp48
 70
     1
102
RTVSPost2010Prop49
280
     0
102
RTVSPost2010PropOp49
 70
     1
102
RTVSPost2010Prop50
 90
       50
102
RTVSPost2010PropOp50
 70
     1
102
RTVSPost2010Prop51ColorIndex
 90
      256
102
RTVSPost2010Prop51ColorRGB
 90
-16777216
102
RTVSPost2010PropOp51
 70
     0
102
RTVSPost2010Prop52
140
1.0
102
RTVSPost2010PropOp52
 70
     0
102
RTVSPost2010Prop53
 90
        2
102
RTVSPost2010PropOp53
 70
     1
102
RTVSPost2010Prop54
  1
strokes_ogs.tif
102
RTVSPost2010PropOp54
 70
     1
102
RTVSPost2010Prop55
280
     0
102
RTVSPost2010PropOp55
 70
     1
102
RTVSPost2010Prop56
140
1.0
102
RTVSPost2010PropOp56
 70
     1
102
RTVSPost2010Prop57
140
1.0
102
RTVSPost2010PropOp57
 70
     1
102
RTVSPropertyOp0
 70
     1
102
RTVSPropertyOp1
 70
     1
102
RTVSPropertyOp2
 70
     1
102
RTVSPropertyOp3
 70
     1
102
RTVSPropertyOp4
 70
     1
102
RTVSPropertyOp5
 70
     1
102
RTVSPropertyOp6
 70
     1
102
RTVSPropertyOp7
 70
     1
102
RTVSPropertyOp8
 70
     1
102
RTVSPropertyOp9
 70
     1
102
RTVSPropertyOp10
 70
     1
102
RTVSPropertyOp11
 70
     1
102
RTVSPropertyOp12
 70
     1
102
RTVSPropertyOp13
 70
     1
102
RTVSPropertyOp14
 70
     1
102
RTVSPropertyOp15
 70
     1
102
RTVSPropertyOp16
 70
     1
102
RTVSPropertyOp17
 70
     1
102
RTVSPropertyOp18
 70
     1
102
RTVSPropertyOp19
 70
     1
102
RTVSPropertyOp20
 70
     1
102
RTVSPropertyOp21
 70
     1
102
RTVSPropertyOp22
 70
     1
102
RTVSPropertyOp23
 70
     1
102
RTVSPropertyOp24
 70
     1
102
RTVSPropertyOp25
 70
     1
102
RTVSPropertyOp26
 70
     1
102
RTVSPropertyOp27
 70
     1
102
RTVSPropertyOp28
 70
     1
102
RTVSPropertyOp29
 70
     1
102
RTVSPropertyOp30
 70
     1
102
RTVSPropertyOp31
 70
     1
102
RTVSPropertyOp32
 70
     1
102
RTVSPropertyOp33
 70
     1
102
RTVSPropertyOp34
 70
     1
102
RTVSPropertyOp35
 70
     1
102
RTVSPropertyOp36
 70
     1
102
RTVSPropertyOp37
 70
     1
102
RTVSPropertyOp38
 70
     1
102
RTVSPropertyOp39
 70
     1
102
RTVSPropertyOp40
 70
     1
102
RTVSPropertyOp41
 70
     1
102
RTVSPropertyOp42
 70
     1
102
RTVSPropertyOp43
 70
     1
102
RTVSPropertyOp44
 70
     1
102
RTVSPropertyOp45
 70
     1
102
RTVSPropertyOp46
 70
     1
102
RTVSPropertyOp47
 70
     1
102
RTVSPropertyOp48
 70
     1
102
RTVSPropertyOp49
 70
     1
102
RTVSPropertyOp50
 70
     1
102
RTVSPropertyOp51
 70
     0
102
RTVSPropertyOp52
 70
     0
102
RTVSPropertyOp53
 70
     1
102
RTVSPropertyOp54
 70
     1
102
RTVSPropertyOp55
 70
     1
102
RTVSPropertyOp56
 70
     1
102
RTVSPropertyOp57
 70
     1
102
RTVSPropertyOp58
 70
     1
102
RTVSPropertyOp59
 70
     1
102
RTVSPropertyOp60
 70
     1
102
RTVSPropertyOp61
 70
     1
102
RTVSPropertyOp62
 70
     1
  0
XRECORD
  5
489
102
{ACAD_REACTORS
330
488
102
}
330
488
100
AcDbXrecord
280
     1
102
RTVSPost2010Prop28
280
     0
102
RTVSPost2010PropOp28
 70
     1
102
RTVSPost2010Prop29
280
     1
102
RTVSPost2010PropOp29
 70
     1
102
RTVSPost2010Prop30
280
     1
102
RTVSPost2010PropOp30
 70
     1
102
RTVSPost2010Prop31
280
     0
102
RTVSPost2010PropOp31
 70
     1
102
RTVSPost2010Prop32
280
     0
102
RTVSPost2010PropOp32
 70
     1
102
RTVSPost2010Prop33
280
     0
102
RTVSPost2010PropOp33
 70
     1
102
RTVSPost2010Prop34
280
     0
102
RTVSPost2010PropOp34
 70
     1
102
RTVSPost2010Prop35
280
     0
102
RTVSPost2010PropOp35
 70
     1
102
RTVSPost2010Prop36
280
     0
102
RTVSPost2010PropOp36
 70
     1
102
RTVSPost2010Prop37
 90
       50
102
RTVSPost2010PropOp37
 70
     1
102
RTVSPost2010Prop38
140
0.0
102
RTVSPost2010PropOp38
 70
     1
102
RTVSPost2010Prop39
140
1.0
102
RTVSPost2010PropOp39
 70
     1
102
RTVSPost2010Prop40
 90
        0
102
RTVSPost2010PropOp40
 70
     1
102
RTVSPost2010Prop41ColorIndex
 90
       18
102
RTVSPost2010Prop41ColorRGB
 90
        0
102
RTVSPost2010PropOp41
 70
     1
102
RTVSPost2010Prop42
 90
       50
102
RTVSPost2010PropOp42
 70
     1
102
RTVSPost2010Prop43
 90
        3
102
RTVSPost2010PropOp43
 70
     1
102
RTVSPost2010Prop44ColorIndex
 90
        5
102
RTVSPost2010Prop44ColorRGB
 90
      255
102
RTVSPost2010PropOp44
 70
     1
102
RTVSPost2010Prop45
280
     0
102
RTVSPost2010PropOp45
 70
     1
102
RTVSPost2010Prop46
 90
       50
102
RTVSPost2010PropOp46
 70
     1
102
RTVSPost2010Prop47
 90
       50
102
RTVSPost2010PropOp47
 70
     1
102
RTVSPost2010Prop48
 90
       50
102
RTVSPost2010PropOp48
 70
     1
102
RTVSPost2010Prop49
280
     0
102
RTVSPost2010PropOp49
 70
     1
102
RTVSPost2010Prop50
 90
       50
102
RTVSPost2010PropOp50
 70
     1
102
RTVSPost2010Prop51ColorIndex
 90
      256
102
RTVSPost2010Prop51ColorRGB
 90
-16777216
102
RTVSPost2010PropOp51
 70
     0
102
RTVSPost2010Prop52
140
1.0
102
RTVSPost2010PropOp52
 70
     0
102
RTVSPost2010Prop53
 90
        2
102
RTVSPost2010PropOp53
 70
     1
102
RTVSPost2010Prop54
  1
strokes_ogs.tif
102
RTVSPost2010PropOp54
 70
     1
102
RTVSPost2010Prop55
280
     0
102
RTVSPost2010PropOp55
 70
     1
102
RTVSPost2010Prop56
140
1.0
102
RTVSPost2010PropOp56
 70
     1
102
RTVSPost2010Prop57
140
1.0
102
RTVSPost2010PropOp57
 70
     1
102
RTVSPropertyOp0
 70
     1
102
RTVSPropertyOp1
 70
     1
102
RTVSPropertyOp2
 70
     1
102
RTVSPropertyOp3
 70
     1
102
RTVSPropertyOp4
 70
     1
102
RTVSPropertyOp5
 70
     1
102
RTVSPropertyOp6
 70
     1
102
RTVSPropertyOp7
 70
     1
102
RTVSPropertyOp8
 70
     1
102
RTVSPropertyOp9
 70
     1
102
RTVSPropertyOp10
 70
     1
102
RTVSPropertyOp11
 70
     1
102
RTVSPropertyOp12
 70
     1
102
RTVSPropertyOp13
 70
     1
102
RTVSPropertyOp14
 70
     1
102
RTVSPropertyOp15
 70
     1
102
RTVSPropertyOp16
 70
     1
102
RTVSPropertyOp17
 70
     1
102
RTVSPropertyOp18
 70
     1
102
RTVSPropertyOp19
 70
     1
102
RTVSPropertyOp20
 70
     1
102
RTVSPropertyOp21
 70
     1
102
RTVSPropertyOp22
 70
     1
102
RTVSPropertyOp23
 70
     1
102
RTVSPropertyOp24
 70
     1
102
RTVSPropertyOp25
 70
     1
102
RTVSPropertyOp26
 70
     1
102
RTVSPropertyOp27
 70
     1
102
RTVSPropertyOp28
 70
     1
102
RTVSPropertyOp29
 70
     1
102
RTVSPropertyOp30
 70
     1
102
RTVSPropertyOp31
 70
     1
102
RTVSPropertyOp32
 70
     1
102
RTVSPropertyOp33
 70
     1
102
RTVSPropertyOp34
 70
     1
102
RTVSPropertyOp35
 70
     1
102
RTVSPropertyOp36
 70
     1
102
RTVSPropertyOp37
 70
     1
102
RTVSPropertyOp38
 70
     1
102
RTVSPropertyOp39
 70
     1
102
RTVSPropertyOp40
 70
     1
102
RTVSPropertyOp41
 70
     1
102
RTVSPropertyOp42
 70
     1
102
RTVSPropertyOp43
 70
     1
102
RTVSPropertyOp44
 70
     1
102
RTVSPropertyOp45
 70
     1
102
RTVSPropertyOp46
 70
     1
102
RTVSPropertyOp47
 70
     1
102
RTVSPropertyOp48
 70
     1
102
RTVSPropertyOp49
 70
     1
102
RTVSPropertyOp50
 70
     1
102
RTVSPropertyOp51
 70
     0
102
RTVSPropertyOp52
 70
     0
102
RTVSPropertyOp53
 70
     1
102
RTVSPropertyOp54
 70
     1
102
RTVSPropertyOp55
 70
     1
102
RTVSPropertyOp56
 70
     1
102
RTVSPropertyOp57
 70
     1
102
RTVSPropertyOp58
 70
     1
102
RTVSPropertyOp59
 70
     1
102
RTVSPropertyOp60
 70
     1
102
RTVSPropertyOp61
 70
     1
102
RTVSPropertyOp62
 70
     1
  0
XRECORD
  5
479
102
{ACAD_REACTORS
330
478
102
}
330
478
100
AcDbXrecord
280
     1
102
RTVSPost2010Prop28
280
     0
102
RTVSPost2010PropOp28
 70
     1
102
RTVSPost2010Prop29
280
     1
102
RTVSPost2010PropOp29
 70
     1
102
RTVSPost2010Prop30
280
     1
102
RTVSPost2010PropOp30
 70
     1
102
RTVSPost2010Prop31
280
     0
102
RTVSPost2010PropOp31
 70
     1
102
RTVSPost2010Prop32
280
     0
102
RTVSPost2010PropOp32
 70
     1
102
RTVSPost2010Prop33
280
     0
102
RTVSPost2010PropOp33
 70
     1
102
RTVSPost2010Prop34
280
     0
102
RTVSPost2010PropOp34
 70
     1
102
RTVSPost2010Prop35
280
     0
102
RTVSPost2010PropOp35
 70
     1
102
RTVSPost2010Prop36
280
     0
102
RTVSPost2010PropOp36
 70
     1
102
RTVSPost2010Prop37
 90
       50
102
RTVSPost2010PropOp37
 70
     1
102
RTVSPost2010Prop38
140
0.0
102
RTVSPost2010PropOp38
 70
     1
102
RTVSPost2010Prop39
140
1.0
102
RTVSPost2010PropOp39
 70
     1
102
RTVSPost2010Prop40
 90
        0
102
RTVSPost2010PropOp40
 70
     1
102
RTVSPost2010Prop41ColorIndex
 90
       18
102
RTVSPost2010Prop41ColorRGB
 90
        0
102
RTVSPost2010PropOp41
 70
     1
102
RTVSPost2010Prop42
 90
       50
102
RTVSPost2010PropOp42
 70
     1
102
RTVSPost2010Prop43
 90
        3
102
RTVSPost2010PropOp43
 70
     1
102
RTVSPost2010Prop44ColorIndex
 90
        5
102
RTVSPost2010Prop44ColorRGB
 90
      255
102
RTVSPost2010PropOp44
 70
     1
102
RTVSPost2010Prop45
280
     0
102
RTVSPost2010PropOp45
 70
     1
102
RTVSPost2010Prop46
 90
       50
102
RTVSPost2010PropOp46
 70
     1
102
RTVSPost2010Prop47
 90
       50
102
RTVSPost2010PropOp47
 70
     1
102
RTVSPost2010Prop48
 90
       50
102
RTVSPost2010PropOp48
 70
     1
102
RTVSPost2010Prop49
280
     0
102
RTVSPost2010PropOp49
 70
     1
102
RTVSPost2010Prop50
 90
       50
102
RTVSPost2010PropOp50
 70
     1
102
RTVSPost2010Prop51ColorIndex
 90
      256
102
RTVSPost2010Prop51ColorRGB
 90
-16777216
102
RTVSPost2010PropOp51
 70
     0
102
RTVSPost2010Prop52
140
1.0
102
RTVSPost2010PropOp52
 70
     0
102
RTVSPost2010Prop53
 90
        2
102
RTVSPost2010PropOp53
 70
     1
102
RTVSPost2010Prop54
  1
strokes_ogs.tif
102
RTVSPost2010PropOp54
 70
     1
102
RTVSPost2010Prop55
280
     0
102
RTVSPost2010PropOp55
 70
     1
102
RTVSPost2010Prop56
140
1.0
102
RTVSPost2010PropOp56
 70
     1
102
RTVSPost2010Prop57
140
1.0
102
RTVSPost2010PropOp57
 70
     1
102
RTVSPropertyOp0
 70
     1
102
RTVSPropertyOp1
 70
     1
102
RTVSPropertyOp2
 70
     1
102
RTVSPropertyOp3
 70
     1
102
RTVSPropertyOp4
 70
     1
102
RTVSPropertyOp5
 70
     1
102
RTVSPropertyOp6
 70
     1
102
RTVSPropertyOp7
 70
     1
102
RTVSPropertyOp8
 70
     1
102
RTVSPropertyOp9
 70
     1
102
RTVSPropertyOp10
 70
     1
102
RTVSPropertyOp11
 70
     1
102
RTVSPropertyOp12
 70
     1
102
RTVSPropertyOp13
 70
     1
102
RTVSPropertyOp14
 70
     1
102
RTVSPropertyOp15
 70
     1
102
RTVSPropertyOp16
 70
     1
102
RTVSPropertyOp17
 70
     1
102
RTVSPropertyOp18
 70
     1
102
RTVSPropertyOp19
 70
     1
102
RTVSPropertyOp20
 70
     1
102
RTVSPropertyOp21
 70
     1
102
RTVSPropertyOp22
 70
     1
102
RTVSPropertyOp23
 70
     1
102
RTVSPropertyOp24
 70
     1
102
RTVSPropertyOp25
 70
     1
102
RTVSPropertyOp26
 70
     1
102
RTVSPropertyOp27
 70
     1
102
RTVSPropertyOp28
 70
     1
102
RTVSPropertyOp29
 70
     1
102
RTVSPropertyOp30
 70
     1
102
RTVSPropertyOp31
 70
     1
102
RTVSPropertyOp32
 70
     1
102
RTVSPropertyOp33
 70
     1
102
RTVSPropertyOp34
 70
     1
102
RTVSPropertyOp35
 70
     1
102
RTVSPropertyOp36
 70
     1
102
RTVSPropertyOp37
 70
     1
102
RTVSPropertyOp38
 70
     1
102
RTVSPropertyOp39
 70
     1
102
RTVSPropertyOp40
 70
     1
102
RTVSPropertyOp41
 70
     1
102
RTVSPropertyOp42
 70
     1
102
RTVSPropertyOp43
 70
     1
102
RTVSPropertyOp44
 70
     1
102
RTVSPropertyOp45
 70
     1
102
RTVSPropertyOp46
 70
     1
102
RTVSPropertyOp47
 70
     1
102
RTVSPropertyOp48
 70
     1
102
RTVSPropertyOp49
 70
     1
102
RTVSPropertyOp50
 70
     1
102
RTVSPropertyOp51
 70
     0
102
RTVSPropertyOp52
 70
     0
102
RTVSPropertyOp53
 70
     1
102
RTVSPropertyOp54
 70
     1
102
RTVSPropertyOp55
 70
     1
102
RTVSPropertyOp56
 70
     1
102
RTVSPropertyOp57
 70
     1
102
RTVSPropertyOp58
 70
     1
102
RTVSPropertyOp59
 70
     1
102
RTVSPropertyOp60
 70
     1
102
RTVSPropertyOp61
 70
     1
102
RTVSPropertyOp62
 70
     1
  0
XRECORD
  5
46B
102
{ACAD_REACTORS
330
46A
102
}
330
46A
100
AcDbXrecord
280
     1
102
RTVSPost2010Prop28
280
     0
102
RTVSPost2010PropOp28
 70
     1
102
RTVSPost2010Prop29
280
     1
102
RTVSPost2010PropOp29
 70
     1
102
RTVSPost2010Prop30
280
     1
102
RTVSPost2010PropOp30
 70
     1
102
RTVSPost2010Prop31
280
     0
102
RTVSPost2010PropOp31
 70
     1
102
RTVSPost2010Prop32
280
     0
102
RTVSPost2010PropOp32
 70
     1
102
RTVSPost2010Prop33
280
     0
102
RTVSPost2010PropOp33
 70
     1
102
RTVSPost2010Prop34
280
     0
102
RTVSPost2010PropOp34
 70
     1
102
RTVSPost2010Prop35
280
     0
102
RTVSPost2010PropOp35
 70
     1
102
RTVSPost2010Prop36
280
     0
102
RTVSPost2010PropOp36
 70
     1
102
RTVSPost2010Prop37
 90
       50
102
RTVSPost2010PropOp37
 70
     1
102
RTVSPost2010Prop38
140
0.0
102
RTVSPost2010PropOp38
 70
     1
102
RTVSPost2010Prop39
140
1.0
102
RTVSPost2010PropOp39
 70
     1
102
RTVSPost2010Prop40
 90
        0
102
RTVSPost2010PropOp40
 70
     1
102
RTVSPost2010Prop41ColorIndex
 90
       18
102
RTVSPost2010Prop41ColorRGB
 90
        0
102
RTVSPost2010PropOp41
 70
     1
102
RTVSPost2010Prop42
 90
       50
102
RTVSPost2010PropOp42
 70
     1
102
RTVSPost2010Prop43
 90
        3
102
RTVSPost2010PropOp43
 70
     1
102
RTVSPost2010Prop44ColorIndex
 90
        5
102
RTVSPost2010Prop44ColorRGB
 90
      255
102
RTVSPost2010PropOp44
 70
     1
102
RTVSPost2010Prop45
280
     0
102
RTVSPost2010PropOp45
 70
     1
102
RTVSPost2010Prop46
 90
       50
102
RTVSPost2010PropOp46
 70
     1
102
RTVSPost2010Prop47
 90
       50
102
RTVSPost2010PropOp47
 70
     1
102
RTVSPost2010Prop48
 90
       50
102
RTVSPost2010PropOp48
 70
     1
102
RTVSPost2010Prop49
280
     0
102
RTVSPost2010PropOp49
 70
     1
102
RTVSPost2010Prop50
 90
       50
102
RTVSPost2010PropOp50
 70
     1
102
RTVSPost2010Prop51ColorIndex
 90
      256
102
RTVSPost2010Prop51ColorRGB
 90
-16777216
102
RTVSPost2010PropOp51
 70
     0
102
RTVSPost2010Prop52
140
1.0
102
RTVSPost2010PropOp52
 70
     0
102
RTVSPost2010Prop53
 90
        2
102
RTVSPost2010PropOp53
 70
     1
102
RTVSPost2010Prop54
  1
strokes_ogs.tif
102
RTVSPost2010PropOp54
 70
     1
102
RTVSPost2010Prop55
280
     0
102
RTVSPost2010PropOp55
 70
     1
102
RTVSPost2010Prop56
140
1.0
102
RTVSPost2010PropOp56
 70
     1
102
RTVSPost2010Prop57
140
1.0
102
RTVSPost2010PropOp57
 70
     1
102
RTVSPropertyOp0
 70
     1
102
RTVSPropertyOp1
 70
     1
102
RTVSPropertyOp2
 70
     1
102
RTVSPropertyOp3
 70
     1
102
RTVSPropertyOp4
 70
     1
102
RTVSPropertyOp5
 70
     1
102
RTVSPropertyOp6
 70
     1
102
RTVSPropertyOp7
 70
     1
102
RTVSPropertyOp8
 70
     1
102
RTVSPropertyOp9
 70
     1
102
RTVSPropertyOp10
 70
     1
102
RTVSPropertyOp11
 70
     1
102
RTVSPropertyOp12
 70
     1
102
RTVSPropertyOp13
 70
     1
102
RTVSPropertyOp14
 70
     1
102
RTVSPropertyOp15
 70
     1
102
RTVSPropertyOp16
 70
     1
102
RTVSPropertyOp17
 70
     1
102
RTVSPropertyOp18
 70
     1
102
RTVSPropertyOp19
 70
     1
102
RTVSPropertyOp20
 70
     1
102
RTVSPropertyOp21
 70
     1
102
RTVSPropertyOp22
 70
     1
102
RTVSPropertyOp23
 70
     1
102
RTVSPropertyOp24
 70
     1
102
RTVSPropertyOp25
 70
     1
102
RTVSPropertyOp26
 70
     1
102
RTVSPropertyOp27
 70
     1
102
RTVSPropertyOp28
 70
     1
102
RTVSPropertyOp29
 70
     1
102
RTVSPropertyOp30
 70
     1
102
RTVSPropertyOp31
 70
     1
102
RTVSPropertyOp32
 70
     1
102
RTVSPropertyOp33
 70
     1
102
RTVSPropertyOp34
 70
     1
102
RTVSPropertyOp35
 70
     1
102
RTVSPropertyOp36
 70
     1
102
RTVSPropertyOp37
 70
     1
102
RTVSPropertyOp38
 70
     1
102
RTVSPropertyOp39
 70
     1
102
RTVSPropertyOp40
 70
     1
102
RTVSPropertyOp41
 70
     1
102
RTVSPropertyOp42
 70
     1
102
RTVSPropertyOp43
 70
     1
102
RTVSPropertyOp44
 70
     1
102
RTVSPropertyOp45
 70
     1
102
RTVSPropertyOp46
 70
     1
102
RTVSPropertyOp47
 70
     1
102
RTVSPropertyOp48
 70
     1
102
RTVSPropertyOp49
 70
     1
102
RTVSPropertyOp50
 70
     1
102
RTVSPropertyOp51
 70
     0
102
RTVSPropertyOp52
 70
     0
102
RTVSPropertyOp53
 70
     1
102
RTVSPropertyOp54
 70
     1
102
RTVSPropertyOp55
 70
     1
102
RTVSPropertyOp56
 70
     1
102
RTVSPropertyOp57
 70
     1
102
RTVSPropertyOp58
 70
     1
102
RTVSPropertyOp59
 70
     1
102
RTVSPropertyOp60
 70
     1
102
RTVSPropertyOp61
 70
     1
102
RTVSPropertyOp62
 70
     1
  0
XRECORD
  5
48B
102
{ACAD_REACTORS
330
48A
102
}
330
48A
100
AcDbXrecord
280
     1
102
RTVSPost2010Prop28
280
     0
102
RTVSPost2010PropOp28
 70
     1
102
RTVSPost2010Prop29
280
     1
102
RTVSPost2010PropOp29
 70
     1
102
RTVSPost2010Prop30
280
     1
102
RTVSPost2010PropOp30
 70
     1
102
RTVSPost2010Prop31
280
     0
102
RTVSPost2010PropOp31
 70
     1
102
RTVSPost2010Prop32
280
     0
102
RTVSPost2010PropOp32
 70
     1
102
RTVSPost2010Prop33
280
     0
102
RTVSPost2010PropOp33
 70
     1
102
RTVSPost2010Prop34
280
     0
102
RTVSPost2010PropOp34
 70
     1
102
RTVSPost2010Prop35
280
     0
102
RTVSPost2010PropOp35
 70
     1
102
RTVSPost2010Prop36
280
     0
102
RTVSPost2010PropOp36
 70
     1
102
RTVSPost2010Prop37
 90
       50
102
RTVSPost2010PropOp37
 70
     1
102
RTVSPost2010Prop38
140
0.0
102
RTVSPost2010PropOp38
 70
     1
102
RTVSPost2010Prop39
140
1.0
102
RTVSPost2010PropOp39
 70
     1
102
RTVSPost2010Prop40
 90
        0
102
RTVSPost2010PropOp40
 70
     1
102
RTVSPost2010Prop41ColorIndex
 90
       18
102
RTVSPost2010Prop41ColorRGB
 90
        0
102
RTVSPost2010PropOp41
 70
     1
102
RTVSPost2010Prop42
 90
       50
102
RTVSPost2010PropOp42
 70
     1
102
RTVSPost2010Prop43
 90
        3
102
RTVSPost2010PropOp43
 70
     1
102
RTVSPost2010Prop44ColorIndex
 90
        5
102
RTVSPost2010Prop44ColorRGB
 90
      255
102
RTVSPost2010PropOp44
 70
     1
102
RTVSPost2010Prop45
280
     0
102
RTVSPost2010PropOp45
 70
     1
102
RTVSPost2010Prop46
 90
       50
102
RTVSPost2010PropOp46
 70
     1
102
RTVSPost2010Prop47
 90
       50
102
RTVSPost2010PropOp47
 70
     1
102
RTVSPost2010Prop48
 90
       50
102
RTVSPost2010PropOp48
 70
     1
102
RTVSPost2010Prop49
280
     0
102
RTVSPost2010PropOp49
 70
     1
102
RTVSPost2010Prop50
 90
       50
102
RTVSPost2010PropOp50
 70
     1
102
RTVSPost2010Prop51ColorIndex
 90
      256
102
RTVSPost2010Prop51ColorRGB
 90
-16777216
102
RTVSPost2010PropOp51
 70
     0
102
RTVSPost2010Prop52
140
1.0
102
RTVSPost2010PropOp52
 70
     0
102
RTVSPost2010Prop53
 90
        2
102
RTVSPost2010PropOp53
 70
     1
102
RTVSPost2010Prop54
  1
strokes_ogs.tif
102
RTVSPost2010PropOp54
 70
     1
102
RTVSPost2010Prop55
280
     0
102
RTVSPost2010PropOp55
 70
     1
102
RTVSPost2010Prop56
140
1.0
102
RTVSPost2010PropOp56
 70
     1
102
RTVSPost2010Prop57
140
1.0
102
RTVSPost2010PropOp57
 70
     1
102
RTVSPropertyOp0
 70
     1
102
RTVSPropertyOp1
 70
     1
102
RTVSPropertyOp2
 70
     1
102
RTVSPropertyOp3
 70
     1
102
RTVSPropertyOp4
 70
     1
102
RTVSPropertyOp5
 70
     1
102
RTVSPropertyOp6
 70
     1
102
RTVSPropertyOp7
 70
     1
102
RTVSPropertyOp8
 70
     1
102
RTVSPropertyOp9
 70
     1
102
RTVSPropertyOp10
 70
     1
102
RTVSPropertyOp11
 70
     1
102
RTVSPropertyOp12
 70
     1
102
RTVSPropertyOp13
 70
     1
102
RTVSPropertyOp14
 70
     1
102
RTVSPropertyOp15
 70
     1
102
RTVSPropertyOp16
 70
     1
102
RTVSPropertyOp17
 70
     1
102
RTVSPropertyOp18
 70
     1
102
RTVSPropertyOp19
 70
     1
102
RTVSPropertyOp20
 70
     1
102
RTVSPropertyOp21
 70
     1
102
RTVSPropertyOp22
 70
     1
102
RTVSPropertyOp23
 70
     1
102
RTVSPropertyOp24
 70
     1
102
RTVSPropertyOp25
 70
     1
102
RTVSPropertyOp26
 70
     1
102
RTVSPropertyOp27
 70
     1
102
RTVSPropertyOp28
 70
     1
102
RTVSPropertyOp29
 70
     1
102
RTVSPropertyOp30
 70
     1
102
RTVSPropertyOp31
 70
     1
102
RTVSPropertyOp32
 70
     1
102
RTVSPropertyOp33
 70
     1
102
RTVSPropertyOp34
 70
     1
102
RTVSPropertyOp35
 70
     1
102
RTVSPropertyOp36
 70
     1
102
RTVSPropertyOp37
 70
     1
102
RTVSPropertyOp38
 70
     1
102
RTVSPropertyOp39
 70
     1
102
RTVSPropertyOp40
 70
     1
102
RTVSPropertyOp41
 70
     1
102
RTVSPropertyOp42
 70
     1
102
RTVSPropertyOp43
 70
     1
102
RTVSPropertyOp44
 70
     1
102
RTVSPropertyOp45
 70
     1
102
RTVSPropertyOp46
 70
     1
102
RTVSPropertyOp47
 70
     1
102
RTVSPropertyOp48
 70
     1
102
RTVSPropertyOp49
 70
     1
102
RTVSPropertyOp50
 70
     1
102
RTVSPropertyOp51
 70
     0
102
RTVSPropertyOp52
 70
     0
102
RTVSPropertyOp53
 70
     1
102
RTVSPropertyOp54
 70
     1
102
RTVSPropertyOp55
 70
     1
102
RTVSPropertyOp56
 70
     1
102
RTVSPropertyOp57
 70
     1
102
RTVSPropertyOp58
 70
     1
102
RTVSPropertyOp59
 70
     1
102
RTVSPropertyOp60
 70
     1
102
RTVSPropertyOp61
 70
     1
102
RTVSPropertyOp62
 70
     1
  0
ENDSEC
  0
EOF
