ISO-10303-21;
HEADER;
/* Generated by software containing ST-Developer
 * from STEP Tools, Inc. (www.steptools.com) 
 */
/* OPTION: using custom schema-name function */

FILE_DESCRIPTION(
/* description */ (''),
/* implementation_level */ '2;1');

FILE_NAME(
/* name */ 'ax_step_export_ax_temp_1.stp',
/* time_stamp */ '2019-09-26T08:48:59+02:00',
/* author */ (''),
/* organization */ (''),
/* preprocessor_version */ 'ST-DEVELOPER v16.7',
/* originating_system */ 'SIEMENS PLM Software NX 12.0',
/* authorisation */ '');

FILE_SCHEMA (('AUTOMOTIVE_DESIGN { 1 0 10303 214 3 1 1 1 }'));
ENDSEC;

DATA;
#10=SHAPE_REPRESENTATION_RELATIONSHIP('None',
'relationship between ax_temp_1-None and ax_temp_1-None',#22,#11);
#11=ADVANCED_BREP_SHAPE_REPRESENTATION('ax_temp_1-None',(#184,#185),#637);
#12=SHAPE_DEFINITION_REPRESENTATION(#13,#22);
#13=PRODUCT_DEFINITION_SHAPE('','',#14);
#14=PRODUCT_DEFINITION(' ','',#16,#15);
#15=PRODUCT_DEFINITION_CONTEXT('part definition',#21,'design');
#16=PRODUCT_DEFINITION_FORMATION_WITH_SPECIFIED_SOURCE(' ',' ',#18,
 .NOT_KNOWN.);
#17=PRODUCT_RELATED_PRODUCT_CATEGORY('part','',(#18));
#18=PRODUCT('ax_temp_1','ax_temp_1',' ',(#19));
#19=PRODUCT_CONTEXT(' ',#21,'mechanical');
#20=APPLICATION_PROTOCOL_DEFINITION('international standard',
'automotive_design',2010,#21);
#21=APPLICATION_CONTEXT(
'core data for automotive mechanical design processes');
#22=SHAPE_REPRESENTATION('ax_temp_1-None',(#420),#637);
#23=SURFACE_OF_REVOLUTION('',#419,#24);
#24=AXIS1_PLACEMENT('',#635,#541);
#25=OVER_RIDING_STYLED_ITEM('',(#51),#210,#48);
#26=OVER_RIDING_STYLED_ITEM('',(#52),#211,#48);
#27=OVER_RIDING_STYLED_ITEM('',(#53),#212,#48);
#28=OVER_RIDING_STYLED_ITEM('',(#54),#213,#48);
#29=OVER_RIDING_STYLED_ITEM('',(#55),#214,#48);
#30=OVER_RIDING_STYLED_ITEM('',(#56),#215,#48);
#31=OVER_RIDING_STYLED_ITEM('',(#57),#216,#48);
#32=OVER_RIDING_STYLED_ITEM('',(#58),#217,#48);
#33=OVER_RIDING_STYLED_ITEM('',(#59),#218,#48);
#34=OVER_RIDING_STYLED_ITEM('',(#60),#219,#48);
#35=OVER_RIDING_STYLED_ITEM('',(#61),#220,#48);
#36=OVER_RIDING_STYLED_ITEM('',(#62),#221,#48);
#37=OVER_RIDING_STYLED_ITEM('',(#63),#222,#48);
#38=OVER_RIDING_STYLED_ITEM('',(#64),#223,#48);
#39=OVER_RIDING_STYLED_ITEM('',(#65),#224,#48);
#40=OVER_RIDING_STYLED_ITEM('',(#66),#225,#48);
#41=OVER_RIDING_STYLED_ITEM('',(#67),#226,#48);
#42=OVER_RIDING_STYLED_ITEM('',(#68),#227,#48);
#43=OVER_RIDING_STYLED_ITEM('',(#69),#228,#48);
#44=OVER_RIDING_STYLED_ITEM('',(#70),#229,#48);
#45=INVISIBILITY((#46,#47));
#46=PRESENTATION_LAYER_ASSIGNMENT('14','Layer 14',(#184));
#47=PRESENTATION_LAYER_ASSIGNMENT('96','Layer 96',(#185));
#48=STYLED_ITEM('',(#50),#184);
#49=STYLED_ITEM('',(#71),#185);
#50=PRESENTATION_STYLE_ASSIGNMENT((#72));
#51=PRESENTATION_STYLE_ASSIGNMENT((#73));
#52=PRESENTATION_STYLE_ASSIGNMENT((#74));
#53=PRESENTATION_STYLE_ASSIGNMENT((#75));
#54=PRESENTATION_STYLE_ASSIGNMENT((#76));
#55=PRESENTATION_STYLE_ASSIGNMENT((#77));
#56=PRESENTATION_STYLE_ASSIGNMENT((#78));
#57=PRESENTATION_STYLE_ASSIGNMENT((#79));
#58=PRESENTATION_STYLE_ASSIGNMENT((#80));
#59=PRESENTATION_STYLE_ASSIGNMENT((#81));
#60=PRESENTATION_STYLE_ASSIGNMENT((#82));
#61=PRESENTATION_STYLE_ASSIGNMENT((#83));
#62=PRESENTATION_STYLE_ASSIGNMENT((#84));
#63=PRESENTATION_STYLE_ASSIGNMENT((#85));
#64=PRESENTATION_STYLE_ASSIGNMENT((#86));
#65=PRESENTATION_STYLE_ASSIGNMENT((#87));
#66=PRESENTATION_STYLE_ASSIGNMENT((#88));
#67=PRESENTATION_STYLE_ASSIGNMENT((#89));
#68=PRESENTATION_STYLE_ASSIGNMENT((#90));
#69=PRESENTATION_STYLE_ASSIGNMENT((#91));
#70=PRESENTATION_STYLE_ASSIGNMENT((#92));
#71=PRESENTATION_STYLE_ASSIGNMENT((#93));
#72=SURFACE_STYLE_USAGE(.BOTH.,#94);
#73=SURFACE_STYLE_USAGE(.BOTH.,#95);
#74=SURFACE_STYLE_USAGE(.BOTH.,#96);
#75=SURFACE_STYLE_USAGE(.BOTH.,#97);
#76=SURFACE_STYLE_USAGE(.BOTH.,#98);
#77=SURFACE_STYLE_USAGE(.BOTH.,#99);
#78=SURFACE_STYLE_USAGE(.BOTH.,#100);
#79=SURFACE_STYLE_USAGE(.BOTH.,#101);
#80=SURFACE_STYLE_USAGE(.BOTH.,#102);
#81=SURFACE_STYLE_USAGE(.BOTH.,#103);
#82=SURFACE_STYLE_USAGE(.BOTH.,#104);
#83=SURFACE_STYLE_USAGE(.BOTH.,#105);
#84=SURFACE_STYLE_USAGE(.BOTH.,#106);
#85=SURFACE_STYLE_USAGE(.BOTH.,#107);
#86=SURFACE_STYLE_USAGE(.BOTH.,#108);
#87=SURFACE_STYLE_USAGE(.BOTH.,#109);
#88=SURFACE_STYLE_USAGE(.BOTH.,#110);
#89=SURFACE_STYLE_USAGE(.BOTH.,#111);
#90=SURFACE_STYLE_USAGE(.BOTH.,#112);
#91=SURFACE_STYLE_USAGE(.BOTH.,#113);
#92=SURFACE_STYLE_USAGE(.BOTH.,#114);
#93=SURFACE_STYLE_USAGE(.BOTH.,#115);
#94=SURFACE_SIDE_STYLE('',(#116));
#95=SURFACE_SIDE_STYLE('',(#117));
#96=SURFACE_SIDE_STYLE('',(#118));
#97=SURFACE_SIDE_STYLE('',(#119));
#98=SURFACE_SIDE_STYLE('',(#120));
#99=SURFACE_SIDE_STYLE('',(#121));
#100=SURFACE_SIDE_STYLE('',(#122));
#101=SURFACE_SIDE_STYLE('',(#123));
#102=SURFACE_SIDE_STYLE('',(#124));
#103=SURFACE_SIDE_STYLE('',(#125));
#104=SURFACE_SIDE_STYLE('',(#126));
#105=SURFACE_SIDE_STYLE('',(#127));
#106=SURFACE_SIDE_STYLE('',(#128));
#107=SURFACE_SIDE_STYLE('',(#129));
#108=SURFACE_SIDE_STYLE('',(#130));
#109=SURFACE_SIDE_STYLE('',(#131));
#110=SURFACE_SIDE_STYLE('',(#132));
#111=SURFACE_SIDE_STYLE('',(#133));
#112=SURFACE_SIDE_STYLE('',(#134));
#113=SURFACE_SIDE_STYLE('',(#135));
#114=SURFACE_SIDE_STYLE('',(#136));
#115=SURFACE_SIDE_STYLE('',(#137));
#116=SURFACE_STYLE_FILL_AREA(#138);
#117=SURFACE_STYLE_FILL_AREA(#139);
#118=SURFACE_STYLE_FILL_AREA(#140);
#119=SURFACE_STYLE_FILL_AREA(#141);
#120=SURFACE_STYLE_FILL_AREA(#142);
#121=SURFACE_STYLE_FILL_AREA(#143);
#122=SURFACE_STYLE_FILL_AREA(#144);
#123=SURFACE_STYLE_FILL_AREA(#145);
#124=SURFACE_STYLE_FILL_AREA(#146);
#125=SURFACE_STYLE_FILL_AREA(#147);
#126=SURFACE_STYLE_FILL_AREA(#148);
#127=SURFACE_STYLE_FILL_AREA(#149);
#128=SURFACE_STYLE_FILL_AREA(#150);
#129=SURFACE_STYLE_FILL_AREA(#151);
#130=SURFACE_STYLE_FILL_AREA(#152);
#131=SURFACE_STYLE_FILL_AREA(#153);
#132=SURFACE_STYLE_FILL_AREA(#154);
#133=SURFACE_STYLE_FILL_AREA(#155);
#134=SURFACE_STYLE_FILL_AREA(#156);
#135=SURFACE_STYLE_FILL_AREA(#157);
#136=SURFACE_STYLE_FILL_AREA(#158);
#137=SURFACE_STYLE_FILL_AREA(#159);
#138=FILL_AREA_STYLE('',(#160));
#139=FILL_AREA_STYLE('',(#161));
#140=FILL_AREA_STYLE('',(#162));
#141=FILL_AREA_STYLE('',(#163));
#142=FILL_AREA_STYLE('',(#164));
#143=FILL_AREA_STYLE('',(#165));
#144=FILL_AREA_STYLE('',(#166));
#145=FILL_AREA_STYLE('',(#167));
#146=FILL_AREA_STYLE('',(#168));
#147=FILL_AREA_STYLE('',(#169));
#148=FILL_AREA_STYLE('',(#170));
#149=FILL_AREA_STYLE('',(#171));
#150=FILL_AREA_STYLE('',(#172));
#151=FILL_AREA_STYLE('',(#173));
#152=FILL_AREA_STYLE('',(#174));
#153=FILL_AREA_STYLE('',(#175));
#154=FILL_AREA_STYLE('',(#176));
#155=FILL_AREA_STYLE('',(#177));
#156=FILL_AREA_STYLE('',(#178));
#157=FILL_AREA_STYLE('',(#179));
#158=FILL_AREA_STYLE('',(#180));
#159=FILL_AREA_STYLE('',(#181));
#160=FILL_AREA_STYLE_COLOUR('',#182);
#161=FILL_AREA_STYLE_COLOUR('',#183);
#162=FILL_AREA_STYLE_COLOUR('',#183);
#163=FILL_AREA_STYLE_COLOUR('',#183);
#164=FILL_AREA_STYLE_COLOUR('',#183);
#165=FILL_AREA_STYLE_COLOUR('',#183);
#166=FILL_AREA_STYLE_COLOUR('',#183);
#167=FILL_AREA_STYLE_COLOUR('',#183);
#168=FILL_AREA_STYLE_COLOUR('',#183);
#169=FILL_AREA_STYLE_COLOUR('',#183);
#170=FILL_AREA_STYLE_COLOUR('',#183);
#171=FILL_AREA_STYLE_COLOUR('',#183);
#172=FILL_AREA_STYLE_COLOUR('',#183);
#173=FILL_AREA_STYLE_COLOUR('',#183);
#174=FILL_AREA_STYLE_COLOUR('',#183);
#175=FILL_AREA_STYLE_COLOUR('',#183);
#176=FILL_AREA_STYLE_COLOUR('',#183);
#177=FILL_AREA_STYLE_COLOUR('',#183);
#178=FILL_AREA_STYLE_COLOUR('',#183);
#179=FILL_AREA_STYLE_COLOUR('',#183);
#180=FILL_AREA_STYLE_COLOUR('',#183);
#181=FILL_AREA_STYLE_COLOUR('',#182);
#182=COLOUR_RGB('Light grey',0.8,0.8,0.8);
#183=COLOUR_RGB('Medium grey',0.6,0.6,0.6);
#184=MANIFOLD_SOLID_BREP('',#186);
#185=MANIFOLD_SOLID_BREP('',#187);
#186=CLOSED_SHELL('',(#210,#211,#212,#213,#214,#215,#216,#217,#218,#219,
#220,#221,#222,#223,#224,#225,#226,#227,#228,#229));
#187=CLOSED_SHELL('',(#230));
#188=VERTEX_LOOP('',#378);
#189=VERTEX_LOOP('',#380);
#190=(
BOUNDED_SURFACE()
B_SPLINE_SURFACE(3,3,((#582,#583,#584,#585,#586,#587,#588),(#589,#590,#591,
#592,#593,#594,#595),(#596,#597,#598,#599,#600,#601,#602),(#603,#604,#605,
#606,#607,#608,#609)),.UNSPECIFIED.,.F.,.T.,.F.)
B_SPLINE_SURFACE_WITH_KNOTS((4,4),(1,3,3,3,1),(0.,1.),(-0.5,0.,0.5,1.,1.5),
 .UNSPECIFIED.)
GEOMETRIC_REPRESENTATION_ITEM()
RATIONAL_B_SPLINE_SURFACE(((1.,0.333333333333333,0.333333333333333,1.,0.333333333333333,
0.333333333333333,1.),(0.937538524691099,0.3125128415637,0.3125128415637,
0.937538524691099,0.3125128415637,0.3125128415637,0.937538524691099),(0.937538524691099,
0.3125128415637,0.3125128415637,0.937538524691099,0.3125128415637,0.3125128415637,
0.937538524691099),(1.,0.333333333333333,0.333333333333333,1.,0.333333333333333,
0.333333333333333,1.)))
REPRESENTATION_ITEM('')
SURFACE()
);
#191=PLANE('',#432);
#192=PLANE('',#447);
#193=PLANE('',#448);
#194=PLANE('',#449);
#195=PLANE('',#450);
#196=FACE_OUTER_BOUND('',#286,.T.);
#197=FACE_OUTER_BOUND('',#303,.T.);
#198=FACE_OUTER_BOUND('',#304,.T.);
#199=FACE_OUTER_BOUND('',#305,.T.);
#200=CONICAL_SURFACE('',#430,2.2300223987298,39.9999999999995);
#201=CONICAL_SURFACE('',#438,9.49999999999999,2.23575456570565);
#202=CONICAL_SURFACE('',#452,9.,45.);
#203=CONICAL_SURFACE('',#454,2.5,60.);
#204=CONICAL_SURFACE('',#457,3.6547,30.);
#205=TOROIDAL_SURFACE('',#428,4.336644617307,2.75000000000001);
#206=TOROIDAL_SURFACE('',#442,6.49999999999999,3.);
#207=TOROIDAL_SURFACE('',#443,9.65,3.);
#208=TOROIDAL_SURFACE('',#444,9.65,3.);
#209=TOROIDAL_SURFACE('',#451,9.99999999999999,0.5);
#210=ADVANCED_FACE('',(#245,#246,#247),#231,.T.);
#211=ADVANCED_FACE('',(#248,#249),#205,.T.);
#212=ADVANCED_FACE('',(#250,#251),#200,.F.);
#213=ADVANCED_FACE('',(#196),#191,.T.);
#214=ADVANCED_FACE('',(#252,#253),#232,.T.);
#215=ADVANCED_FACE('',(#254,#255),#201,.T.);
#216=ADVANCED_FACE('',(#256,#257),#233,.T.);
#217=ADVANCED_FACE('',(#258,#259),#190,.T.);
#218=ADVANCED_FACE('',(#260,#261),#206,.T.);
#219=ADVANCED_FACE('',(#262,#263),#207,.F.);
#220=ADVANCED_FACE('',(#264,#265),#208,.F.);
#221=ADVANCED_FACE('',(#266,#267),#192,.T.);
#222=ADVANCED_FACE('',(#197),#193,.T.);
#223=ADVANCED_FACE('',(#198),#194,.T.);
#224=ADVANCED_FACE('',(#199),#195,.T.);
#225=ADVANCED_FACE('',(#268,#269),#209,.F.);
#226=ADVANCED_FACE('',(#270,#271),#202,.T.);
#227=ADVANCED_FACE('',(#272,#273),#203,.F.);
#228=ADVANCED_FACE('',(#274,#275),#234,.F.);
#229=ADVANCED_FACE('',(#276,#277),#204,.F.);
#230=ADVANCED_FACE('',(#278),#23,.F.);
#231=CYLINDRICAL_SURFACE('',#425,10.);
#232=CYLINDRICAL_SURFACE('',#435,9.49999999999999);
#233=CYLINDRICAL_SURFACE('',#441,6.65);
#234=CYLINDRICAL_SURFACE('',#456,2.5);
#235=ELLIPSE('',#423,14.0203206487408,10.);
#236=ELLIPSE('',#424,14.0203206487408,10.);
#237=LINE('',#547,#241);
#238=LINE('',#552,#242);
#239=LINE('',#618,#243);
#240=LINE('',#619,#244);
#241=VECTOR('',#465,1.);
#242=VECTOR('',#468,1.);
#243=VECTOR('',#517,1.);
#244=VECTOR('',#518,1.);
#245=FACE_BOUND('',#279,.T.);
#246=FACE_BOUND('',#280,.T.);
#247=FACE_BOUND('',#281,.T.);
#248=FACE_BOUND('',#282,.T.);
#249=FACE_BOUND('',#283,.T.);
#250=FACE_BOUND('',#284,.T.);
#251=FACE_BOUND('',#285,.T.);
#252=FACE_BOUND('',#287,.T.);
#253=FACE_BOUND('',#288,.T.);
#254=FACE_BOUND('',#289,.T.);
#255=FACE_BOUND('',#290,.T.);
#256=FACE_BOUND('',#291,.T.);
#257=FACE_BOUND('',#292,.T.);
#258=FACE_BOUND('',#293,.T.);
#259=FACE_BOUND('',#294,.T.);
#260=FACE_BOUND('',#295,.T.);
#261=FACE_BOUND('',#296,.T.);
#262=FACE_BOUND('',#297,.T.);
#263=FACE_BOUND('',#298,.T.);
#264=FACE_BOUND('',#299,.T.);
#265=FACE_BOUND('',#300,.T.);
#266=FACE_BOUND('',#301,.T.);
#267=FACE_BOUND('',#302,.T.);
#268=FACE_BOUND('',#306,.T.);
#269=FACE_BOUND('',#307,.T.);
#270=FACE_BOUND('',#308,.T.);
#271=FACE_BOUND('',#309,.T.);
#272=FACE_BOUND('',#310,.T.);
#273=FACE_BOUND('',#188,.T.);
#274=FACE_BOUND('',#311,.T.);
#275=FACE_BOUND('',#312,.T.);
#276=FACE_BOUND('',#313,.T.);
#277=FACE_BOUND('',#314,.T.);
#278=FACE_BOUND('',#189,.T.);
#279=EDGE_LOOP('',(#315));
#280=EDGE_LOOP('',(#316));
#281=EDGE_LOOP('',(#317,#318,#319,#320));
#282=EDGE_LOOP('',(#321));
#283=EDGE_LOOP('',(#322));
#284=EDGE_LOOP('',(#323));
#285=EDGE_LOOP('',(#324));
#286=EDGE_LOOP('',(#325));
#287=EDGE_LOOP('',(#326));
#288=EDGE_LOOP('',(#327));
#289=EDGE_LOOP('',(#328));
#290=EDGE_LOOP('',(#329));
#291=EDGE_LOOP('',(#330));
#292=EDGE_LOOP('',(#331));
#293=EDGE_LOOP('',(#332));
#294=EDGE_LOOP('',(#333));
#295=EDGE_LOOP('',(#334));
#296=EDGE_LOOP('',(#335));
#297=EDGE_LOOP('',(#336));
#298=EDGE_LOOP('',(#337));
#299=EDGE_LOOP('',(#338));
#300=EDGE_LOOP('',(#339));
#301=EDGE_LOOP('',(#340));
#302=EDGE_LOOP('',(#341));
#303=EDGE_LOOP('',(#342,#343,#344,#345));
#304=EDGE_LOOP('',(#346,#347));
#305=EDGE_LOOP('',(#348,#349));
#306=EDGE_LOOP('',(#350));
#307=EDGE_LOOP('',(#351));
#308=EDGE_LOOP('',(#352));
#309=EDGE_LOOP('',(#353));
#310=EDGE_LOOP('',(#354));
#311=EDGE_LOOP('',(#355));
#312=EDGE_LOOP('',(#356));
#313=EDGE_LOOP('',(#357));
#314=EDGE_LOOP('',(#358));
#315=ORIENTED_EDGE('',*,*,#381,.T.);
#316=ORIENTED_EDGE('',*,*,#382,.T.);
#317=ORIENTED_EDGE('',*,*,#383,.T.);
#318=ORIENTED_EDGE('',*,*,#384,.T.);
#319=ORIENTED_EDGE('',*,*,#385,.T.);
#320=ORIENTED_EDGE('',*,*,#386,.T.);
#321=ORIENTED_EDGE('',*,*,#387,.T.);
#322=ORIENTED_EDGE('',*,*,#388,.T.);
#323=ORIENTED_EDGE('',*,*,#389,.T.);
#324=ORIENTED_EDGE('',*,*,#388,.F.);
#325=ORIENTED_EDGE('',*,*,#390,.T.);
#326=ORIENTED_EDGE('',*,*,#391,.T.);
#327=ORIENTED_EDGE('',*,*,#392,.T.);
#328=ORIENTED_EDGE('',*,*,#393,.T.);
#329=ORIENTED_EDGE('',*,*,#394,.T.);
#330=ORIENTED_EDGE('',*,*,#395,.T.);
#331=ORIENTED_EDGE('',*,*,#396,.T.);
#332=ORIENTED_EDGE('',*,*,#390,.F.);
#333=ORIENTED_EDGE('',*,*,#389,.F.);
#334=ORIENTED_EDGE('',*,*,#393,.F.);
#335=ORIENTED_EDGE('',*,*,#392,.F.);
#336=ORIENTED_EDGE('',*,*,#395,.F.);
#337=ORIENTED_EDGE('',*,*,#394,.F.);
#338=ORIENTED_EDGE('',*,*,#387,.F.);
#339=ORIENTED_EDGE('',*,*,#396,.F.);
#340=ORIENTED_EDGE('',*,*,#397,.T.);
#341=ORIENTED_EDGE('',*,*,#398,.T.);
#342=ORIENTED_EDGE('',*,*,#399,.T.);
#343=ORIENTED_EDGE('',*,*,#385,.F.);
#344=ORIENTED_EDGE('',*,*,#400,.F.);
#345=ORIENTED_EDGE('',*,*,#383,.F.);
#346=ORIENTED_EDGE('',*,*,#400,.T.);
#347=ORIENTED_EDGE('',*,*,#384,.F.);
#348=ORIENTED_EDGE('',*,*,#386,.F.);
#349=ORIENTED_EDGE('',*,*,#399,.F.);
#350=ORIENTED_EDGE('',*,*,#391,.F.);
#351=ORIENTED_EDGE('',*,*,#382,.F.);
#352=ORIENTED_EDGE('',*,*,#381,.F.);
#353=ORIENTED_EDGE('',*,*,#398,.F.);
#354=ORIENTED_EDGE('',*,*,#401,.T.);
#355=ORIENTED_EDGE('',*,*,#401,.F.);
#356=ORIENTED_EDGE('',*,*,#402,.T.);
#357=ORIENTED_EDGE('',*,*,#402,.F.);
#358=ORIENTED_EDGE('',*,*,#397,.F.);
#359=VERTEX_POINT('',#544);
#360=VERTEX_POINT('',#546);
#361=VERTEX_POINT('',#548);
#362=VERTEX_POINT('',#549);
#363=VERTEX_POINT('',#551);
#364=VERTEX_POINT('',#553);
#365=VERTEX_POINT('',#557);
#366=VERTEX_POINT('',#559);
#367=VERTEX_POINT('',#562);
#368=VERTEX_POINT('',#565);
#369=VERTEX_POINT('',#568);
#370=VERTEX_POINT('',#570);
#371=VERTEX_POINT('',#573);
#372=VERTEX_POINT('',#575);
#373=VERTEX_POINT('',#578);
#374=VERTEX_POINT('',#580);
#375=VERTEX_POINT('',#614);
#376=VERTEX_POINT('',#616);
#377=VERTEX_POINT('',#626);
#378=VERTEX_POINT('',#627);
#379=VERTEX_POINT('',#630);
#380=VERTEX_POINT('',#633);
#381=EDGE_CURVE('',#359,#359,#403,.T.);
#382=EDGE_CURVE('',#360,#360,#404,.T.);
#383=EDGE_CURVE('',#361,#362,#237,.T.);
#384=EDGE_CURVE('',#362,#363,#235,.T.);
#385=EDGE_CURVE('',#363,#364,#238,.T.);
#386=EDGE_CURVE('',#364,#361,#236,.T.);
#387=EDGE_CURVE('',#365,#365,#405,.T.);
#388=EDGE_CURVE('',#366,#366,#406,.T.);
#389=EDGE_CURVE('',#367,#367,#407,.T.);
#390=EDGE_CURVE('',#368,#368,#408,.T.);
#391=EDGE_CURVE('',#369,#369,#409,.T.);
#392=EDGE_CURVE('',#370,#370,#410,.T.);
#393=EDGE_CURVE('',#371,#371,#411,.T.);
#394=EDGE_CURVE('',#372,#372,#412,.T.);
#395=EDGE_CURVE('',#373,#373,#413,.T.);
#396=EDGE_CURVE('',#374,#374,#414,.T.);
#397=EDGE_CURVE('',#375,#375,#415,.T.);
#398=EDGE_CURVE('',#376,#376,#416,.T.);
#399=EDGE_CURVE('',#361,#364,#239,.T.);
#400=EDGE_CURVE('',#362,#363,#240,.T.);
#401=EDGE_CURVE('',#377,#377,#417,.T.);
#402=EDGE_CURVE('',#379,#379,#418,.T.);
#403=CIRCLE('',#421,10.);
#404=CIRCLE('',#422,10.);
#405=CIRCLE('',#426,6.87781458294279);
#406=CIRCLE('',#427,2.2300223987298);
#407=CIRCLE('',#429,1.97957885594237);
#408=CIRCLE('',#431,0.753907746951994);
#409=CIRCLE('',#433,9.49999999999999);
#410=CIRCLE('',#434,9.49999999999999);
#411=CIRCLE('',#436,9.49771629954062);
#412=CIRCLE('',#437,6.65228370045937);
#413=CIRCLE('',#439,6.65);
#414=CIRCLE('',#440,6.65);
#415=CIRCLE('',#445,3.6547);
#416=CIRCLE('',#446,9.00000000000001);
#417=CIRCLE('',#453,2.5);
#418=CIRCLE('',#455,2.5);
#419=CIRCLE('',#458,3.5);
#420=AXIS2_PLACEMENT_3D('',#542,#459,#460);
#421=AXIS2_PLACEMENT_3D('',#543,#461,#462);
#422=AXIS2_PLACEMENT_3D('',#545,#463,#464);
#423=AXIS2_PLACEMENT_3D('',#550,#466,#467);
#424=AXIS2_PLACEMENT_3D('',#554,#469,#470);
#425=AXIS2_PLACEMENT_3D('',#555,#471,#472);
#426=AXIS2_PLACEMENT_3D('',#556,#473,#474);
#427=AXIS2_PLACEMENT_3D('',#558,#475,#476);
#428=AXIS2_PLACEMENT_3D('',#560,#477,#478);
#429=AXIS2_PLACEMENT_3D('',#561,#479,#480);
#430=AXIS2_PLACEMENT_3D('',#563,#481,#482);
#431=AXIS2_PLACEMENT_3D('',#564,#483,#484);
#432=AXIS2_PLACEMENT_3D('',#566,#485,#486);
#433=AXIS2_PLACEMENT_3D('',#567,#487,#488);
#434=AXIS2_PLACEMENT_3D('',#569,#489,#490);
#435=AXIS2_PLACEMENT_3D('',#571,#491,#492);
#436=AXIS2_PLACEMENT_3D('',#572,#493,#494);
#437=AXIS2_PLACEMENT_3D('',#574,#495,#496);
#438=AXIS2_PLACEMENT_3D('',#576,#497,#498);
#439=AXIS2_PLACEMENT_3D('',#577,#499,#500);
#440=AXIS2_PLACEMENT_3D('',#579,#501,#502);
#441=AXIS2_PLACEMENT_3D('',#581,#503,#504);
#442=AXIS2_PLACEMENT_3D('',#610,#505,#506);
#443=AXIS2_PLACEMENT_3D('',#611,#507,#508);
#444=AXIS2_PLACEMENT_3D('',#612,#509,#510);
#445=AXIS2_PLACEMENT_3D('',#613,#511,#512);
#446=AXIS2_PLACEMENT_3D('',#615,#513,#514);
#447=AXIS2_PLACEMENT_3D('',#617,#515,#516);
#448=AXIS2_PLACEMENT_3D('',#620,#519,#520);
#449=AXIS2_PLACEMENT_3D('',#621,#521,#522);
#450=AXIS2_PLACEMENT_3D('',#622,#523,#524);
#451=AXIS2_PLACEMENT_3D('',#623,#525,#526);
#452=AXIS2_PLACEMENT_3D('',#624,#527,#528);
#453=AXIS2_PLACEMENT_3D('',#625,#529,#530);
#454=AXIS2_PLACEMENT_3D('',#628,#531,#532);
#455=AXIS2_PLACEMENT_3D('',#629,#533,#534);
#456=AXIS2_PLACEMENT_3D('',#631,#535,#536);
#457=AXIS2_PLACEMENT_3D('',#632,#537,#538);
#458=AXIS2_PLACEMENT_3D('',#634,#539,#540);
#459=DIRECTION('',(0.,0.,1.));
#460=DIRECTION('',(1.,0.,0.));
#461=DIRECTION('',(0.,0.,-1.));
#462=DIRECTION('',(1.,0.,0.));
#463=DIRECTION('',(0.,0.,1.));
#464=DIRECTION('',(1.,0.,0.));
#465=DIRECTION('',(0.,0.,-1.));
#466=DIRECTION('',(-0.495617693782899,0.495617693782898,-0.713250449154182));
#467=DIRECTION('',(-0.504344229281273,0.504344229281273,0.700909264299851));
#468=DIRECTION('',(0.,0.,1.));
#469=DIRECTION('',(-0.495617693782899,0.495617693782898,0.713250449154182));
#470=DIRECTION('',(0.504344229281273,-0.504344229281272,0.700909264299851));
#471=DIRECTION('',(0.,0.,1.));
#472=DIRECTION('',(1.,0.,0.));
#473=DIRECTION('',(0.,0.,-1.));
#474=DIRECTION('',(-1.,0.,0.));
#475=DIRECTION('',(0.,0.,1.));
#476=DIRECTION('',(1.,0.,0.));
#477=DIRECTION('',(0.,0.,1.));
#478=DIRECTION('',(1.,0.,0.));
#479=DIRECTION('',(0.,0.,1.));
#480=DIRECTION('',(-1.,0.,0.));
#481=DIRECTION('',(0.,0.,-1.));
#482=DIRECTION('',(-1.,0.,8.24753278862106E-17));
#483=DIRECTION('',(0.,0.,-1.));
#484=DIRECTION('',(-1.,0.,0.));
#485=DIRECTION('',(0.,0.,-1.));
#486=DIRECTION('',(-1.,0.,0.));
#487=DIRECTION('',(0.,0.,-1.));
#488=DIRECTION('',(-1.,0.,0.));
#489=DIRECTION('',(0.,0.,1.));
#490=DIRECTION('',(-1.,0.,0.));
#491=DIRECTION('',(0.,0.,1.));
#492=DIRECTION('',(1.,0.,0.));
#493=DIRECTION('',(0.,0.,-1.));
#494=DIRECTION('',(-1.,0.,0.));
#495=DIRECTION('',(0.,0.,1.));
#496=DIRECTION('',(1.,0.,0.));
#497=DIRECTION('',(0.,0.,1.));
#498=DIRECTION('',(1.,0.,-8.93430321337006E-17));
#499=DIRECTION('',(0.,0.,-1.));
#500=DIRECTION('',(1.,0.,0.));
#501=DIRECTION('',(0.,0.,1.));
#502=DIRECTION('',(1.,0.,0.));
#503=DIRECTION('',(0.,0.,1.));
#504=DIRECTION('',(1.,0.,0.));
#505=DIRECTION('',(0.,0.,-1.));
#506=DIRECTION('',(-1.,0.,0.));
#507=DIRECTION('',(0.,0.,1.));
#508=DIRECTION('',(1.,0.,0.));
#509=DIRECTION('',(0.,0.,1.));
#510=DIRECTION('',(1.,0.,0.));
#511=DIRECTION('',(0.,0.,-1.));
#512=DIRECTION('',(-1.,0.,0.));
#513=DIRECTION('',(0.,0.,1.));
#514=DIRECTION('',(1.,0.,0.));
#515=DIRECTION('',(0.,0.,1.));
#516=DIRECTION('',(1.,0.,0.));
#517=DIRECTION('',(-0.707106781186547,-0.707106781186548,0.));
#518=DIRECTION('',(-0.707106781186547,-0.707106781186548,0.));
#519=DIRECTION('',(0.707106781186548,-0.707106781186547,0.));
#520=DIRECTION('',(0.,0.,-1.));
#521=DIRECTION('',(0.495617693782899,-0.495617693782898,0.713250449154182));
#522=DIRECTION('',(0.504344229281273,-0.504344229281272,-0.700909264299851));
#523=DIRECTION('',(0.495617693782899,-0.495617693782898,-0.713250449154181));
#524=DIRECTION('',(-0.504344229281273,0.504344229281272,-0.700909264299851));
#525=DIRECTION('',(0.,0.,-1.));
#526=DIRECTION('',(-1.,0.,0.));
#527=DIRECTION('',(0.,0.,-1.));
#528=DIRECTION('',(-1.,0.,2.75080035833786E-17));
#529=DIRECTION('',(0.,0.,1.));
#530=DIRECTION('',(-1.,0.,0.));
#531=DIRECTION('',(0.,0.,1.));
#532=DIRECTION('',(1.,0.,2.40023891152523E-17));
#533=DIRECTION('',(0.,0.,1.));
#534=DIRECTION('',(-1.,0.,0.));
#535=DIRECTION('',(0.,0.,-1.));
#536=DIRECTION('',(-1.,0.,0.));
#537=DIRECTION('',(0.,0.,1.));
#538=DIRECTION('',(1.,0.,7.16574997310484E-17));
#539=DIRECTION('',(-0.0174524064372836,-0.999847695156391,0.));
#540=DIRECTION('',(0.999847695156391,-0.0174524064372836,0.));
#541=DIRECTION('',(0.,0.,-1.));
#542=CARTESIAN_POINT('',(0.,0.,0.));
#543=CARTESIAN_POINT('',(0.,0.,49.));
#544=CARTESIAN_POINT('',(10.,0.,49.));
#545=CARTESIAN_POINT('',(0.,0.,0.));
#546=CARTESIAN_POINT('',(10.,0.,0.));
#547=CARTESIAN_POINT('',(9.8454968746993,-1.75105433676007,-100.));
#548=CARTESIAN_POINT('',(9.84549687469931,-1.75105433676006,30.5));
#549=CARTESIAN_POINT('',(9.84549687469929,-1.75105433676008,19.5));
#550=CARTESIAN_POINT('',(0.,0.,27.5581175575487));
#551=CARTESIAN_POINT('',(1.75105433676008,-9.8454968746993,19.5));
#552=CARTESIAN_POINT('',(1.75105433676008,-9.8454968746993,-100.));
#553=CARTESIAN_POINT('',(1.75105433676008,-9.84549687469931,30.5));
#554=CARTESIAN_POINT('',(0.,0.,22.4418824424513));
#555=CARTESIAN_POINT('',(0.,0.,-100.));
#556=CARTESIAN_POINT('',(0.,0.,-95.5511723943087));
#557=CARTESIAN_POINT('',(-6.87781458294279,0.,-95.5511723943087));
#558=CARTESIAN_POINT('',(0.,0.,-98.3700068163605));
#559=CARTESIAN_POINT('',(2.2300223987298,0.,-98.3700068163605));
#560=CARTESIAN_POINT('',(0.,0.,-96.6023408897225));
#561=CARTESIAN_POINT('',(0.,0.,-98.0715398245016));
#562=CARTESIAN_POINT('',(-1.97957885594237,0.,-98.0715398245016));
#563=CARTESIAN_POINT('',(0.,0.,-98.3700068163605));
#564=CARTESIAN_POINT('',(0.,0.,-97.5));
#565=CARTESIAN_POINT('',(-0.753907746951994,0.,-97.5));
#566=CARTESIAN_POINT('',(1.5,0.,-97.5));
#567=CARTESIAN_POINT('',(0.,0.,-0.5));
#568=CARTESIAN_POINT('',(-9.49999999999999,0.,-0.5));
#569=CARTESIAN_POINT('',(0.,0.,-4.94146065419354));
#570=CARTESIAN_POINT('',(-9.49999999999999,0.,-4.94146065419354));
#571=CARTESIAN_POINT('',(0.,0.,0.));
#572=CARTESIAN_POINT('',(0.,0.,-5.05849478369613));
#573=CARTESIAN_POINT('',(-9.49771629954062,0.,-5.05849478369613));
#574=CARTESIAN_POINT('',(0.,0.,-77.9415052163038));
#575=CARTESIAN_POINT('',(6.65228370045937,0.,-77.9415052163038));
#576=CARTESIAN_POINT('',(0.,0.,-5.));
#577=CARTESIAN_POINT('',(0.,0.,-78.0585393458065));
#578=CARTESIAN_POINT('',(6.65,0.,-78.0585393458065));
#579=CARTESIAN_POINT('',(0.,0.,-94.4044431265844));
#580=CARTESIAN_POINT('',(6.65,0.,-94.4044431265844));
#581=CARTESIAN_POINT('',(0.,0.,0.));
#582=CARTESIAN_POINT('',(-0.753907746951994,0.,-97.5));
#583=CARTESIAN_POINT('',(-0.753907746951994,1.50781549390399,-97.5));
#584=CARTESIAN_POINT('',(0.753907746951994,1.50781549390399,-97.5));
#585=CARTESIAN_POINT('',(0.753907746951994,0.,-97.5));
#586=CARTESIAN_POINT('',(0.753907746951994,-1.50781549390399,-97.5));
#587=CARTESIAN_POINT('',(-0.753907746951994,-1.50781549390399,-97.5));
#588=CARTESIAN_POINT('',(-0.753907746951994,0.,-97.5));
#589=CARTESIAN_POINT('',(-1.23473365506275,0.,-97.5));
#590=CARTESIAN_POINT('',(-1.23473365506275,2.4694673101255,-97.5));
#591=CARTESIAN_POINT('',(1.23473365506275,2.4694673101255,-97.5));
#592=CARTESIAN_POINT('',(1.23473365506275,0.,-97.5));
#593=CARTESIAN_POINT('',(1.23473365506275,-2.4694673101255,-97.5));
#594=CARTESIAN_POINT('',(-1.23473365506275,-2.4694673101255,-97.5));
#595=CARTESIAN_POINT('',(-1.23473365506275,0.,-97.5));
#596=CARTESIAN_POINT('',(-1.67050991979249,0.,-97.7032058094857));
#597=CARTESIAN_POINT('',(-1.67050991979249,3.34101983958499,-97.7032058094857));
#598=CARTESIAN_POINT('',(1.67050991979249,3.34101983958499,-97.7032058094857));
#599=CARTESIAN_POINT('',(1.67050991979249,0.,-97.7032058094857));
#600=CARTESIAN_POINT('',(1.67050991979249,-3.34101983958499,-97.7032058094857));
#601=CARTESIAN_POINT('',(-1.67050991979249,-3.34101983958499,-97.7032058094857));
#602=CARTESIAN_POINT('',(-1.67050991979249,0.,-97.7032058094857));
#603=CARTESIAN_POINT('',(-1.97957885594236,0.,-98.0715398245016));
#604=CARTESIAN_POINT('',(-1.97957885594236,3.95915771188473,-98.0715398245015));
#605=CARTESIAN_POINT('',(1.97957885594236,3.95915771188473,-98.0715398245015));
#606=CARTESIAN_POINT('',(1.97957885594236,0.,-98.0715398245016));
#607=CARTESIAN_POINT('',(1.97957885594236,-3.95915771188473,-98.0715398245015));
#608=CARTESIAN_POINT('',(-1.97957885594236,-3.95915771188473,-98.0715398245015));
#609=CARTESIAN_POINT('',(-1.97957885594236,0.,-98.0715398245016));
#610=CARTESIAN_POINT('',(0.,0.,-4.94146065419354));
#611=CARTESIAN_POINT('',(0.,0.,-78.0585393458065));
#612=CARTESIAN_POINT('',(0.,0.,-94.4044431265844));
#613=CARTESIAN_POINT('',(0.,0.,50.));
#614=CARTESIAN_POINT('',(-3.6547,0.,50.));
#615=CARTESIAN_POINT('',(0.,0.,50.));
#616=CARTESIAN_POINT('',(9.00000000000001,0.,50.));
#617=CARTESIAN_POINT('',(0.,0.,50.));
#618=CARTESIAN_POINT('',(-4.80832611206851,-16.4048773235279,30.5));
#619=CARTESIAN_POINT('',(-4.80832611206851,-16.4048773235279,19.5));
#620=CARTESIAN_POINT('',(-4.80832611206851,-16.4048773235279,30.5));
#621=CARTESIAN_POINT('',(-4.80832611206851,-16.4048773235279,19.5));
#622=CARTESIAN_POINT('',(-3.53553390593273,-17.6776695296637,32.2688550736082));
#623=CARTESIAN_POINT('',(0.,0.,-0.5));
#624=CARTESIAN_POINT('',(0.,0.,50.));
#625=CARTESIAN_POINT('',(0.,0.,-78.));
#626=CARTESIAN_POINT('',(-2.5,0.,-78.));
#627=CARTESIAN_POINT('',(0.,0.,-79.4433756729741));
#628=CARTESIAN_POINT('',(0.,0.,-78.));
#629=CARTESIAN_POINT('',(0.,0.,48.0000009325002));
#630=CARTESIAN_POINT('',(-2.5,0.,48.0000009325002));
#631=CARTESIAN_POINT('',(0.,0.,-78.));
#632=CARTESIAN_POINT('',(0.,0.,50.));
#633=CARTESIAN_POINT('',(7.47326448331056,-0.161068192046132,-96.5));
#634=CARTESIAN_POINT('',(3.97379755026319,-0.099984769515639,-96.5));
#635=CARTESIAN_POINT('',(0.,0.,0.));
#636=MECHANICAL_DESIGN_GEOMETRIC_PRESENTATION_REPRESENTATION('',(#48,#25,
#26,#27,#28,#29,#30,#31,#32,#33,#34,#35,#36,#37,#38,#39,#40,#41,#42,#43,
#44,#49),#637);
#637=(
GEOMETRIC_REPRESENTATION_CONTEXT(3)
GLOBAL_UNCERTAINTY_ASSIGNED_CONTEXT((#638))
GLOBAL_UNIT_ASSIGNED_CONTEXT((#644,#640,#639))
REPRESENTATION_CONTEXT('ax_step_export_ax_temp_1',
'TOP_LEVEL_ASSEMBLY_PART')
);
#638=UNCERTAINTY_MEASURE_WITH_UNIT(LENGTH_MEASURE(0.0254),#644,
'DISTANCE_ACCURACY_VALUE','Maximum Tolerance applied to model');
#639=(
NAMED_UNIT(*)
SI_UNIT($,.STERADIAN.)
SOLID_ANGLE_UNIT()
);
#640=(
CONVERSION_BASED_UNIT('DEGREE',#642)
NAMED_UNIT(#641)
PLANE_ANGLE_UNIT()
);
#641=DIMENSIONAL_EXPONENTS(0.,0.,0.,0.,0.,0.,0.);
#642=PLANE_ANGLE_MEASURE_WITH_UNIT(PLANE_ANGLE_MEASURE(0.0174532925),#643);
#643=(
NAMED_UNIT(*)
PLANE_ANGLE_UNIT()
SI_UNIT($,.RADIAN.)
);
#644=(
LENGTH_UNIT()
NAMED_UNIT(*)
SI_UNIT(.MILLI.,.METRE.)
);
ENDSEC;
END-ISO-10303-21;
