ISO-10303-21;
HEADER;
/* Generated by software containing ST-Developer
 * from STEP Tools, Inc. (www.steptools.com) 
 */
/* OPTION: using custom schema-name function */

FILE_DESCRIPTION(
/* description */ (''),
/* implementation_level */ '2;1');

FILE_NAME(
/* name */ '12L2R060B20-SZP12_115009074ndi000_00-SIM.stp',
/* time_stamp */ '2020-01-16T12:40:34+01:00',
/* author */ (''),
/* organization */ (''),
/* preprocessor_version */ 'ST-DEVELOPER v16.7',
/* originating_system */ 'SIEMENS PLM Software NX 12.0',
/* authorisation */ '');

FILE_SCHEMA (('AUTOMOTIVE_DESIGN { 1 0 10303 214 3 1 1 1 }'));
ENDSEC;

DATA;
#10=PROPERTY_DEFINITION_REPRESENTATION(#14,#12);
#11=PROPERTY_DEFINITION_REPRESENTATION(#15,#13);
#12=REPRESENTATION('',(#16),#588);
#13=REPRESENTATION('',(#17),#588);
#14=PROPERTY_DEFINITION('pmi validation property','',#21);
#15=PROPERTY_DEFINITION('pmi validation property','',#21);
#16=VALUE_REPRESENTATION_ITEM('number of annotations',COUNT_MEASURE(0.));
#17=VALUE_REPRESENTATION_ITEM('number of views',COUNT_MEASURE(0.));
#18=SHAPE_REPRESENTATION_RELATIONSHIP('None',
'relationship between hm155B7C614175ks-None and hm155B7C614175ks-None',
#30,#19);
#19=ADVANCED_BREP_SHAPE_REPRESENTATION('hm155B7C614175ks-None',(#64,#65),
#588);
#20=SHAPE_DEFINITION_REPRESENTATION(#21,#30);
#21=PRODUCT_DEFINITION_SHAPE('','',#22);
#22=PRODUCT_DEFINITION(' ','',#24,#23);
#23=PRODUCT_DEFINITION_CONTEXT('part definition',#29,'design');
#24=PRODUCT_DEFINITION_FORMATION_WITH_SPECIFIED_SOURCE(' ',' ',#26,
 .NOT_KNOWN.);
#25=PRODUCT_RELATED_PRODUCT_CATEGORY('part','',(#26));
#26=PRODUCT('hm155B7C614175ks','hm155B7C614175ks',' ',(#27));
#27=PRODUCT_CONTEXT(' ',#29,'mechanical');
#28=APPLICATION_PROTOCOL_DEFINITION('international standard',
'automotive_design',2010,#29);
#29=APPLICATION_CONTEXT(
'core data for automotive mechanical design processes');
#30=SHAPE_REPRESENTATION('hm155B7C614175ks-None',(#351),#588);
#31=(
BOUNDED_CURVE()
B_SPLINE_CURVE(3,(#579,#580,#581,#582,#583,#584,#585),.UNSPECIFIED.,.F.,
 .F.)
B_SPLINE_CURVE_WITH_KNOTS((4,3,4),(0.,0.0303708728380682,1.),
 .UNSPECIFIED.)
CURVE()
GEOMETRIC_REPRESENTATION_ITEM()
RATIONAL_B_SPLINE_CURVE((0.982331456261423,0.988031732980468,0.993921247559994,
1.,0.805928020111139,0.804743852971227,0.996447498580264))
REPRESENTATION_ITEM('')
);
#32=SURFACE_OF_REVOLUTION('',#74,#39);
#33=SURFACE_OF_REVOLUTION('',#75,#40);
#34=SURFACE_OF_REVOLUTION('',#347,#41);
#35=SURFACE_OF_REVOLUTION('',#76,#42);
#36=SURFACE_OF_REVOLUTION('',#77,#43);
#37=SURFACE_OF_REVOLUTION('',#78,#44);
#38=SURFACE_OF_REVOLUTION('',#31,#45);
#39=AXIS1_PLACEMENT('',#558,#473);
#40=AXIS1_PLACEMENT('',#562,#477);
#41=AXIS1_PLACEMENT('',#566,#482);
#42=AXIS1_PLACEMENT('',#570,#486);
#43=AXIS1_PLACEMENT('',#574,#490);
#44=AXIS1_PLACEMENT('',#578,#494);
#45=AXIS1_PLACEMENT('',#586,#495);
#46=PRESENTATION_LAYER_ASSIGNMENT('14','Layer 14',(#64));
#47=PRESENTATION_LAYER_ASSIGNMENT('96','Layer 96',(#65));
#48=STYLED_ITEM('',(#50),#64);
#49=STYLED_ITEM('',(#51),#65);
#50=PRESENTATION_STYLE_ASSIGNMENT((#52));
#51=PRESENTATION_STYLE_ASSIGNMENT((#53));
#52=SURFACE_STYLE_USAGE(.BOTH.,#54);
#53=SURFACE_STYLE_USAGE(.BOTH.,#55);
#54=SURFACE_SIDE_STYLE('',(#56));
#55=SURFACE_SIDE_STYLE('',(#57));
#56=SURFACE_STYLE_FILL_AREA(#58);
#57=SURFACE_STYLE_FILL_AREA(#59);
#58=FILL_AREA_STYLE('',(#60));
#59=FILL_AREA_STYLE('',(#61));
#60=FILL_AREA_STYLE_COLOUR('',#62);
#61=FILL_AREA_STYLE_COLOUR('',#63);
#62=COLOUR_RGB('Silver Gray',0.6,0.6,0.6);
#63=COLOUR_RGB('Light Gray',0.8,0.8,0.8);
#64=MANIFOLD_SOLID_BREP('',#66);
#65=MANIFOLD_SOLID_BREP('',#67);
#66=CLOSED_SHELL('',(#108,#109,#110,#111,#112,#113,#114,#115,#116,#117,
#118,#119,#120,#121,#122,#123,#124,#125));
#67=CLOSED_SHELL('',(#126,#127,#128,#129,#130,#131,#132));
#68=ELLIPSE('',#376,14.2671819439984,10.);
#69=ELLIPSE('',#377,14.2671819439983,10.);
#70=LINE('',#533,#79);
#71=LINE('',#538,#80);
#72=LINE('',#548,#81);
#73=LINE('',#549,#82);
#74=LINE('',#557,#83);
#75=LINE('',#561,#84);
#76=LINE('',#569,#85);
#77=LINE('',#573,#86);
#78=LINE('',#577,#87);
#79=VECTOR('',#444,1.);
#80=VECTOR('',#447,1.);
#81=VECTOR('',#460,1.);
#82=VECTOR('',#461,1.);
#83=VECTOR('',#472,1.08571846583886);
#84=VECTOR('',#476,5.4025666297136);
#85=VECTOR('',#485,0.207055236082051);
#86=VECTOR('',#489,0.522162915732908);
#87=VECTOR('',#493,5.01983218126985);
#88=PLANE('',#369);
#89=PLANE('',#375);
#90=PLANE('',#382);
#91=PLANE('',#383);
#92=PLANE('',#384);
#93=PLANE('',#385);
#94=FACE_OUTER_BOUND('',#193,.T.);
#95=FACE_OUTER_BOUND('',#205,.T.);
#96=FACE_OUTER_BOUND('',#206,.T.);
#97=FACE_OUTER_BOUND('',#207,.T.);
#98=FACE_OUTER_BOUND('',#208,.T.);
#99=SPHERICAL_SURFACE('',#360,5.4);
#100=SPHERICAL_SURFACE('',#364,5.6);
#101=SPHERICAL_SURFACE('',#368,5.4);
#102=CONICAL_SURFACE('',#356,5.23876877615474,45.);
#103=CONICAL_SURFACE('',#358,5.23219171185627,4.);
#104=CONICAL_SURFACE('',#362,5.09363145900862,60.);
#105=CONICAL_SURFACE('',#366,4.34363145900861,60.);
#106=CONICAL_SURFACE('',#371,5.4,7.08227426096096);
#107=CONICAL_SURFACE('',#381,10.,45.);
#108=ADVANCED_FACE('',(#136,#137),#133,.T.);
#109=ADVANCED_FACE('',(#138,#139),#102,.T.);
#110=ADVANCED_FACE('',(#140,#141),#103,.T.);
#111=ADVANCED_FACE('',(#142,#143),#99,.T.);
#112=ADVANCED_FACE('',(#144,#145),#104,.T.);
#113=ADVANCED_FACE('',(#146,#147),#100,.T.);
#114=ADVANCED_FACE('',(#148,#149),#105,.F.);
#115=ADVANCED_FACE('',(#150,#151),#101,.T.);
#116=ADVANCED_FACE('',(#94),#88,.F.);
#117=ADVANCED_FACE('',(#152,#153),#106,.T.);
#118=ADVANCED_FACE('',(#154,#155),#134,.T.);
#119=ADVANCED_FACE('',(#156,#157),#89,.T.);
#120=ADVANCED_FACE('',(#158,#159,#160),#135,.T.);
#121=ADVANCED_FACE('',(#161,#162),#107,.T.);
#122=ADVANCED_FACE('',(#95),#90,.T.);
#123=ADVANCED_FACE('',(#96),#91,.F.);
#124=ADVANCED_FACE('',(#97),#92,.F.);
#125=ADVANCED_FACE('',(#98),#93,.F.);
#126=ADVANCED_FACE('',(#163,#164),#32,.T.);
#127=ADVANCED_FACE('',(#165,#166),#33,.T.);
#128=ADVANCED_FACE('',(#167,#168),#34,.T.);
#129=ADVANCED_FACE('',(#169,#170),#35,.T.);
#130=ADVANCED_FACE('',(#171,#172),#36,.T.);
#131=ADVANCED_FACE('',(#173,#174),#37,.T.);
#132=ADVANCED_FACE('',(#175,#176),#38,.T.);
#133=CYLINDRICAL_SURFACE('',#354,5.4);
#134=CYLINDRICAL_SURFACE('',#373,9.5);
#135=CYLINDRICAL_SURFACE('',#379,10.);
#136=FACE_BOUND('',#177,.T.);
#137=FACE_BOUND('',#178,.T.);
#138=FACE_BOUND('',#179,.T.);
#139=FACE_BOUND('',#180,.T.);
#140=FACE_BOUND('',#181,.T.);
#141=FACE_BOUND('',#182,.T.);
#142=FACE_BOUND('',#183,.T.);
#143=FACE_BOUND('',#184,.T.);
#144=FACE_BOUND('',#185,.T.);
#145=FACE_BOUND('',#186,.T.);
#146=FACE_BOUND('',#187,.T.);
#147=FACE_BOUND('',#188,.T.);
#148=FACE_BOUND('',#189,.T.);
#149=FACE_BOUND('',#190,.T.);
#150=FACE_BOUND('',#191,.T.);
#151=FACE_BOUND('',#192,.T.);
#152=FACE_BOUND('',#194,.T.);
#153=FACE_BOUND('',#195,.T.);
#154=FACE_BOUND('',#196,.T.);
#155=FACE_BOUND('',#197,.T.);
#156=FACE_BOUND('',#198,.T.);
#157=FACE_BOUND('',#199,.T.);
#158=FACE_BOUND('',#200,.T.);
#159=FACE_BOUND('',#201,.T.);
#160=FACE_BOUND('',#202,.T.);
#161=FACE_BOUND('',#203,.T.);
#162=FACE_BOUND('',#204,.T.);
#163=FACE_BOUND('',#209,.T.);
#164=FACE_BOUND('',#210,.T.);
#165=FACE_BOUND('',#211,.T.);
#166=FACE_BOUND('',#212,.T.);
#167=FACE_BOUND('',#213,.T.);
#168=FACE_BOUND('',#214,.T.);
#169=FACE_BOUND('',#215,.T.);
#170=FACE_BOUND('',#216,.T.);
#171=FACE_BOUND('',#217,.T.);
#172=FACE_BOUND('',#218,.T.);
#173=FACE_BOUND('',#219,.T.);
#174=FACE_BOUND('',#220,.T.);
#175=FACE_BOUND('',#221,.T.);
#176=FACE_BOUND('',#222,.T.);
#177=EDGE_LOOP('',(#223));
#178=EDGE_LOOP('',(#224));
#179=EDGE_LOOP('',(#225));
#180=EDGE_LOOP('',(#226));
#181=EDGE_LOOP('',(#227));
#182=EDGE_LOOP('',(#228));
#183=EDGE_LOOP('',(#229));
#184=EDGE_LOOP('',(#230));
#185=EDGE_LOOP('',(#231));
#186=EDGE_LOOP('',(#232));
#187=EDGE_LOOP('',(#233));
#188=EDGE_LOOP('',(#234));
#189=EDGE_LOOP('',(#235));
#190=EDGE_LOOP('',(#236));
#191=EDGE_LOOP('',(#237));
#192=EDGE_LOOP('',(#238));
#193=EDGE_LOOP('',(#239));
#194=EDGE_LOOP('',(#240));
#195=EDGE_LOOP('',(#241));
#196=EDGE_LOOP('',(#242));
#197=EDGE_LOOP('',(#243));
#198=EDGE_LOOP('',(#244));
#199=EDGE_LOOP('',(#245));
#200=EDGE_LOOP('',(#246,#247,#248,#249));
#201=EDGE_LOOP('',(#250));
#202=EDGE_LOOP('',(#251));
#203=EDGE_LOOP('',(#252));
#204=EDGE_LOOP('',(#253));
#205=EDGE_LOOP('',(#254));
#206=EDGE_LOOP('',(#255,#256,#257,#258));
#207=EDGE_LOOP('',(#259,#260));
#208=EDGE_LOOP('',(#261,#262));
#209=EDGE_LOOP('',(#263));
#210=EDGE_LOOP('',(#264));
#211=EDGE_LOOP('',(#265));
#212=EDGE_LOOP('',(#266));
#213=EDGE_LOOP('',(#267));
#214=EDGE_LOOP('',(#268));
#215=EDGE_LOOP('',(#269));
#216=EDGE_LOOP('',(#270));
#217=EDGE_LOOP('',(#271));
#218=EDGE_LOOP('',(#272));
#219=EDGE_LOOP('',(#273));
#220=EDGE_LOOP('',(#274));
#221=EDGE_LOOP('',(#275));
#222=EDGE_LOOP('',(#276));
#223=ORIENTED_EDGE('',*,*,#302,.F.);
#224=ORIENTED_EDGE('',*,*,#303,.T.);
#225=ORIENTED_EDGE('',*,*,#303,.F.);
#226=ORIENTED_EDGE('',*,*,#304,.T.);
#227=ORIENTED_EDGE('',*,*,#304,.F.);
#228=ORIENTED_EDGE('',*,*,#305,.T.);
#229=ORIENTED_EDGE('',*,*,#305,.F.);
#230=ORIENTED_EDGE('',*,*,#306,.T.);
#231=ORIENTED_EDGE('',*,*,#307,.T.);
#232=ORIENTED_EDGE('',*,*,#306,.F.);
#233=ORIENTED_EDGE('',*,*,#307,.F.);
#234=ORIENTED_EDGE('',*,*,#308,.T.);
#235=ORIENTED_EDGE('',*,*,#308,.F.);
#236=ORIENTED_EDGE('',*,*,#309,.T.);
#237=ORIENTED_EDGE('',*,*,#309,.F.);
#238=ORIENTED_EDGE('',*,*,#310,.T.);
#239=ORIENTED_EDGE('',*,*,#310,.F.);
#240=ORIENTED_EDGE('',*,*,#311,.F.);
#241=ORIENTED_EDGE('',*,*,#302,.T.);
#242=ORIENTED_EDGE('',*,*,#311,.T.);
#243=ORIENTED_EDGE('',*,*,#312,.T.);
#244=ORIENTED_EDGE('',*,*,#313,.T.);
#245=ORIENTED_EDGE('',*,*,#312,.F.);
#246=ORIENTED_EDGE('',*,*,#314,.T.);
#247=ORIENTED_EDGE('',*,*,#315,.T.);
#248=ORIENTED_EDGE('',*,*,#316,.T.);
#249=ORIENTED_EDGE('',*,*,#317,.T.);
#250=ORIENTED_EDGE('',*,*,#313,.F.);
#251=ORIENTED_EDGE('',*,*,#318,.T.);
#252=ORIENTED_EDGE('',*,*,#319,.T.);
#253=ORIENTED_EDGE('',*,*,#318,.F.);
#254=ORIENTED_EDGE('',*,*,#319,.F.);
#255=ORIENTED_EDGE('',*,*,#320,.T.);
#256=ORIENTED_EDGE('',*,*,#316,.F.);
#257=ORIENTED_EDGE('',*,*,#321,.F.);
#258=ORIENTED_EDGE('',*,*,#314,.F.);
#259=ORIENTED_EDGE('',*,*,#321,.T.);
#260=ORIENTED_EDGE('',*,*,#315,.F.);
#261=ORIENTED_EDGE('',*,*,#320,.F.);
#262=ORIENTED_EDGE('',*,*,#317,.F.);
#263=ORIENTED_EDGE('',*,*,#322,.F.);
#264=ORIENTED_EDGE('',*,*,#323,.T.);
#265=ORIENTED_EDGE('',*,*,#324,.F.);
#266=ORIENTED_EDGE('',*,*,#322,.T.);
#267=ORIENTED_EDGE('',*,*,#325,.F.);
#268=ORIENTED_EDGE('',*,*,#324,.T.);
#269=ORIENTED_EDGE('',*,*,#326,.F.);
#270=ORIENTED_EDGE('',*,*,#325,.T.);
#271=ORIENTED_EDGE('',*,*,#327,.F.);
#272=ORIENTED_EDGE('',*,*,#326,.T.);
#273=ORIENTED_EDGE('',*,*,#328,.F.);
#274=ORIENTED_EDGE('',*,*,#327,.T.);
#275=ORIENTED_EDGE('',*,*,#323,.F.);
#276=ORIENTED_EDGE('',*,*,#328,.T.);
#277=VERTEX_POINT('',#498);
#278=VERTEX_POINT('',#500);
#279=VERTEX_POINT('',#503);
#280=VERTEX_POINT('',#506);
#281=VERTEX_POINT('',#509);
#282=VERTEX_POINT('',#512);
#283=VERTEX_POINT('',#515);
#284=VERTEX_POINT('',#518);
#285=VERTEX_POINT('',#521);
#286=VERTEX_POINT('',#525);
#287=VERTEX_POINT('',#528);
#288=VERTEX_POINT('',#531);
#289=VERTEX_POINT('',#534);
#290=VERTEX_POINT('',#535);
#291=VERTEX_POINT('',#537);
#292=VERTEX_POINT('',#539);
#293=VERTEX_POINT('',#542);
#294=VERTEX_POINT('',#545);
#295=VERTEX_POINT('',#554);
#296=VERTEX_POINT('',#556);
#297=VERTEX_POINT('',#560);
#298=VERTEX_POINT('',#564);
#299=VERTEX_POINT('',#568);
#300=VERTEX_POINT('',#572);
#301=VERTEX_POINT('',#576);
#302=EDGE_CURVE('',#277,#277,#329,.T.);
#303=EDGE_CURVE('',#278,#278,#330,.T.);
#304=EDGE_CURVE('',#279,#279,#331,.T.);
#305=EDGE_CURVE('',#280,#280,#332,.T.);
#306=EDGE_CURVE('',#281,#281,#333,.T.);
#307=EDGE_CURVE('',#282,#282,#334,.T.);
#308=EDGE_CURVE('',#283,#283,#335,.T.);
#309=EDGE_CURVE('',#284,#284,#336,.T.);
#310=EDGE_CURVE('',#285,#285,#337,.T.);
#311=EDGE_CURVE('',#286,#286,#338,.T.);
#312=EDGE_CURVE('',#287,#287,#339,.T.);
#313=EDGE_CURVE('',#288,#288,#340,.T.);
#314=EDGE_CURVE('',#289,#290,#70,.T.);
#315=EDGE_CURVE('',#290,#291,#68,.T.);
#316=EDGE_CURVE('',#291,#292,#71,.T.);
#317=EDGE_CURVE('',#292,#289,#69,.T.);
#318=EDGE_CURVE('',#293,#293,#341,.T.);
#319=EDGE_CURVE('',#294,#294,#342,.T.);
#320=EDGE_CURVE('',#289,#292,#72,.T.);
#321=EDGE_CURVE('',#290,#291,#73,.T.);
#322=EDGE_CURVE('',#295,#295,#343,.T.);
#323=EDGE_CURVE('',#296,#296,#344,.T.);
#324=EDGE_CURVE('',#297,#297,#345,.T.);
#325=EDGE_CURVE('',#298,#298,#346,.T.);
#326=EDGE_CURVE('',#299,#299,#348,.T.);
#327=EDGE_CURVE('',#300,#300,#349,.T.);
#328=EDGE_CURVE('',#301,#301,#350,.T.);
#329=CIRCLE('',#352,5.4);
#330=CIRCLE('',#353,5.4);
#331=CIRCLE('',#355,5.07753755230948);
#332=CIRCLE('',#357,5.38684587140305);
#333=CIRCLE('',#359,5.00621204437888);
#334=CIRCLE('',#361,5.18105087363836);
#335=CIRCLE('',#363,4.43105087363835);
#336=CIRCLE('',#365,4.25621204437888);
#337=CIRCLE('',#367,1.22163824432604);
#338=CIRCLE('',#370,9.5);
#339=CIRCLE('',#372,9.5);
#340=CIRCLE('',#374,10.);
#341=CIRCLE('',#378,10.);
#342=CIRCLE('',#380,8.5);
#343=CIRCLE('',#386,0.273941523765119);
#344=CIRCLE('',#387,0.0507379537892291);
#345=CIRCLE('',#388,1.18636190239453);
#346=CIRCLE('',#389,5.40686208445105);
#347=CIRCLE('',#390,5.86945420795277);
#348=CIRCLE('',#391,5.59246518677056);
#349=CIRCLE('',#392,5.96353051330532);
#350=CIRCLE('',#393,5.95953467496125);
#351=AXIS2_PLACEMENT_3D('',#496,#394,#395);
#352=AXIS2_PLACEMENT_3D('',#497,#396,#397);
#353=AXIS2_PLACEMENT_3D('',#499,#398,#399);
#354=AXIS2_PLACEMENT_3D('',#501,#400,#401);
#355=AXIS2_PLACEMENT_3D('',#502,#402,#403);
#356=AXIS2_PLACEMENT_3D('',#504,#404,#405);
#357=AXIS2_PLACEMENT_3D('',#505,#406,#407);
#358=AXIS2_PLACEMENT_3D('',#507,#408,#409);
#359=AXIS2_PLACEMENT_3D('',#508,#410,#411);
#360=AXIS2_PLACEMENT_3D('',#510,#412,#413);
#361=AXIS2_PLACEMENT_3D('',#511,#414,#415);
#362=AXIS2_PLACEMENT_3D('',#513,#416,#417);
#363=AXIS2_PLACEMENT_3D('',#514,#418,#419);
#364=AXIS2_PLACEMENT_3D('',#516,#420,#421);
#365=AXIS2_PLACEMENT_3D('',#517,#422,#423);
#366=AXIS2_PLACEMENT_3D('',#519,#424,#425);
#367=AXIS2_PLACEMENT_3D('',#520,#426,#427);
#368=AXIS2_PLACEMENT_3D('',#522,#428,#429);
#369=AXIS2_PLACEMENT_3D('',#523,#430,#431);
#370=AXIS2_PLACEMENT_3D('',#524,#432,#433);
#371=AXIS2_PLACEMENT_3D('',#526,#434,#435);
#372=AXIS2_PLACEMENT_3D('',#527,#436,#437);
#373=AXIS2_PLACEMENT_3D('',#529,#438,#439);
#374=AXIS2_PLACEMENT_3D('',#530,#440,#441);
#375=AXIS2_PLACEMENT_3D('',#532,#442,#443);
#376=AXIS2_PLACEMENT_3D('',#536,#445,#446);
#377=AXIS2_PLACEMENT_3D('',#540,#448,#449);
#378=AXIS2_PLACEMENT_3D('',#541,#450,#451);
#379=AXIS2_PLACEMENT_3D('',#543,#452,#453);
#380=AXIS2_PLACEMENT_3D('',#544,#454,#455);
#381=AXIS2_PLACEMENT_3D('',#546,#456,#457);
#382=AXIS2_PLACEMENT_3D('',#547,#458,#459);
#383=AXIS2_PLACEMENT_3D('',#550,#462,#463);
#384=AXIS2_PLACEMENT_3D('',#551,#464,#465);
#385=AXIS2_PLACEMENT_3D('',#552,#466,#467);
#386=AXIS2_PLACEMENT_3D('',#553,#468,#469);
#387=AXIS2_PLACEMENT_3D('',#555,#470,#471);
#388=AXIS2_PLACEMENT_3D('',#559,#474,#475);
#389=AXIS2_PLACEMENT_3D('',#563,#478,#479);
#390=AXIS2_PLACEMENT_3D('',#565,#480,#481);
#391=AXIS2_PLACEMENT_3D('',#567,#483,#484);
#392=AXIS2_PLACEMENT_3D('',#571,#487,#488);
#393=AXIS2_PLACEMENT_3D('',#575,#491,#492);
#394=DIRECTION('',(0.,0.,1.));
#395=DIRECTION('',(1.,0.,0.));
#396=DIRECTION('',(-1.47175503324012E-17,-3.74946180901244E-17,1.));
#397=DIRECTION('',(-0.833945580477384,-0.551846689581662,0.));
#398=DIRECTION('',(-1.47175503324012E-17,-3.74946180901244E-17,1.));
#399=DIRECTION('',(-0.833945580477384,-0.551846689581662,0.));
#400=DIRECTION('',(-1.01391847781354E-17,-3.44649769073388E-17,1.));
#401=DIRECTION('',(-0.833945580477384,-0.551846689581662,0.));
#402=DIRECTION('',(-1.47175503324012E-17,-3.74946180901244E-17,1.));
#403=DIRECTION('',(-0.833945580477384,-0.551846689581662,0.));
#404=DIRECTION('',(-1.47175503324012E-17,-3.74946180901244E-17,1.));
#405=DIRECTION('',(-0.833945580477384,-0.551846689581662,-4.83191246060731E-17));
#406=DIRECTION('',(-1.47175503324012E-17,-3.74946180901244E-17,1.));
#407=DIRECTION('',(-0.833945580477384,-0.551846689581662,0.));
#408=DIRECTION('',(1.47175503324012E-17,3.74946180901244E-17,-1.));
#409=DIRECTION('',(0.833945580477384,0.551846689581662,0.));
#410=DIRECTION('',(-1.47175503324012E-17,-3.74946180901244E-17,1.));
#411=DIRECTION('',(-0.833945580477384,-0.551846689581662,0.));
#412=DIRECTION('',(0.551846689581662,-0.833945580477384,0.));
#413=DIRECTION('',(0.833945580477384,0.551846689581662,0.));
#414=DIRECTION('',(-1.47175503324012E-17,-3.74946180901244E-17,1.));
#415=DIRECTION('',(-0.833945580477384,-0.551846689581662,0.));
#416=DIRECTION('',(1.47175503324012E-17,3.74946180901244E-17,-1.));
#417=DIRECTION('',(0.833945580477384,0.551846689581662,5.19275304483451E-17));
#418=DIRECTION('',(-1.47175503324012E-17,-3.74946180901244E-17,1.));
#419=DIRECTION('',(-0.833945580477384,-0.551846689581662,0.));
#420=DIRECTION('',(0.551846689581662,-0.833945580477384,0.));
#421=DIRECTION('',(0.833945580477384,0.551846689581662,0.));
#422=DIRECTION('',(-1.47175503324012E-17,-3.74946180901244E-17,1.));
#423=DIRECTION('',(-0.833945580477384,-0.551846689581662,0.));
#424=DIRECTION('',(1.47175503324012E-17,3.74946180901244E-17,-1.));
#425=DIRECTION('',(0.833945580477384,0.551846689581662,-1.19884521879579E-17));
#426=DIRECTION('',(-1.47175503324012E-17,-3.74946180901244E-17,1.));
#427=DIRECTION('',(-0.833945580477384,-0.551846689581662,0.));
#428=DIRECTION('',(0.551846689581662,-0.833945580477384,0.));
#429=DIRECTION('',(0.833945580477384,0.551846689581662,0.));
#430=DIRECTION('',(-1.47175503324012E-17,-3.74946180901244E-17,1.));
#431=DIRECTION('',(-0.833945580477384,-0.551846689581662,-3.46944695195361E-17));
#432=DIRECTION('',(-3.54371109767252E-32,-2.77555756156289E-17,1.));
#433=DIRECTION('',(0.551846689581662,-0.833945580477384,0.));
#434=DIRECTION('',(-1.37508591014501E-16,2.80637744845323E-16,1.));
#435=DIRECTION('',(0.972691884897054,0.232100187538519,-3.21139963763646E-16));
#436=DIRECTION('',(3.54371109767252E-32,2.77555756156289E-17,-1.));
#437=DIRECTION('',(0.551846689581662,-0.833945580477384,-2.31466396182586E-17));
#438=DIRECTION('',(-3.54371109767252E-32,-2.77555756156289E-17,1.));
#439=DIRECTION('',(0.551846689581662,-0.833945580477384,0.));
#440=DIRECTION('',(3.54371109767252E-32,2.77555756156289E-17,-1.));
#441=DIRECTION('',(-0.833945580477384,-0.551846689581662,-1.53168225209182E-17));
#442=DIRECTION('',(3.54371109767252E-32,2.77555756156289E-17,-1.));
#443=DIRECTION('',(0.551846689581662,-0.833945580477384,-2.31466396182595E-17));
#444=DIRECTION('',(3.54371109767252E-32,2.77555756156289E-17,-1.));
#445=DIRECTION('',(-0.594812059845639,-0.393604899208369,-0.700909264299851));
#446=DIRECTION('',(0.584520183278515,0.386794457200991,-0.713250449154182));
#447=DIRECTION('',(-3.54371109767252E-32,-2.77555756156289E-17,1.));
#448=DIRECTION('',(-0.594812059845639,-0.393604899208369,0.700909264299852));
#449=DIRECTION('',(-0.584520183278516,-0.386794457200991,-0.713250449154181));
#450=DIRECTION('',(3.54371109767252E-32,2.77555756156289E-17,-1.));
#451=DIRECTION('',(-0.833945580477384,-0.551846689581662,0.));
#452=DIRECTION('',(3.54371109767252E-32,2.77555756156289E-17,-1.));
#453=DIRECTION('',(-0.833945580477384,-0.551846689581662,0.));
#454=DIRECTION('',(3.54371109767252E-32,2.77555756156289E-17,-1.));
#455=DIRECTION('',(0.551846689581662,-0.833945580477384,0.));
#456=DIRECTION('',(3.54371109767252E-32,2.77555756156289E-17,-1.));
#457=DIRECTION('',(0.551846689581662,-0.833945580477384,-1.37403839681331E-17));
#458=DIRECTION('',(-3.54371109767252E-32,-2.77555756156289E-17,1.));
#459=DIRECTION('',(-0.551846689581662,0.833945580477384,2.08166817117217E-17));
#460=DIRECTION('',(0.551846689581662,-0.833945580477384,-2.31466396182595E-17));
#461=DIRECTION('',(0.551846689581662,-0.833945580477384,-2.31466396182595E-17));
#462=DIRECTION('',(-0.833945580477384,-0.551846689581662,-1.53168225209183E-17));
#463=DIRECTION('',(0.551846689581662,-0.833945580477384,-2.08166817117217E-17));
#464=DIRECTION('',(-0.594812059845639,-0.393604899208369,-0.700909264299851));
#465=DIRECTION('',(-0.584520183278515,-0.386794457200991,0.713250449154182));
#466=DIRECTION('',(-0.594812059845639,-0.393604899208368,0.700909264299851));
#467=DIRECTION('',(0.584520183278516,0.386794457200991,0.713250449154181));
#468=DIRECTION('',(0.,0.,-1.));
#469=DIRECTION('',(-1.,0.,0.));
#470=DIRECTION('',(0.,0.,-1.));
#471=DIRECTION('',(-1.,0.,0.));
#472=DIRECTION('',(-0.234214087859868,-0.168818161359127,0.957415369337308));
#473=DIRECTION('',(0.,0.,-1.));
#474=DIRECTION('',(0.,0.,-1.));
#475=DIRECTION('',(-1.,0.,0.));
#476=DIRECTION('',(0.112417618265447,-0.172547430272934,0.978565104328645));
#477=DIRECTION('',(0.,0.,-1.));
#478=DIRECTION('',(0.,0.,-1.));
#479=DIRECTION('',(-1.,0.,0.));
#480=DIRECTION('',(-2.4980018054066E-16,0.984807753012208,0.17364817766693));
#481=DIRECTION('',(-0.993661048398056,-0.0195211145494517,0.110709742042979));
#482=DIRECTION('',(0.,0.,-1.));
#483=DIRECTION('',(0.,0.,-1.));
#484=DIRECTION('',(-1.,0.,0.));
#485=DIRECTION('',(0.976466828324967,0.037450293568635,-0.212391169055125));
#486=DIRECTION('',(0.,0.,-1.));
#487=DIRECTION('',(0.,0.,-1.));
#488=DIRECTION('',(-1.,0.,0.));
#489=DIRECTION('',(0.793834404970782,0.105601357383499,-0.598895058255991));
#490=DIRECTION('',(0.,0.,-1.));
#491=DIRECTION('',(0.,0.,-1.));
#492=DIRECTION('',(-1.,0.,0.));
#493=DIRECTION('',(0.0444092636992065,0.173476860191762,-0.983836163329902));
#494=DIRECTION('',(0.,0.,-1.));
#495=DIRECTION('',(0.,0.,-1.));
#496=CARTESIAN_POINT('',(0.,0.,0.));
#497=CARTESIAN_POINT('',(8.35648824443203E-14,6.657001339061E-14,-40.0000000000001));
#498=CARTESIAN_POINT('',(-4.50330613457779,-2.97997212374091,-40.0000000000001));
#499=CARTESIAN_POINT('',(8.36733026615688E-14,6.68952740423556E-14,-48.9175375523096));
#500=CARTESIAN_POINT('',(-4.50330613457779,-2.97997212374091,-48.9175375523096));
#501=CARTESIAN_POINT('',(8.36190925529445E-14,6.67326437164828E-14,-44.4587687761549));
#502=CARTESIAN_POINT('',(8.37004077158809E-14,6.68952740423556E-14,-49.2400000000001));
#503=CARTESIAN_POINT('',(-4.23439000145636,-2.80202228946849,-49.2400000000001));
#504=CARTESIAN_POINT('',(8.36733026615688E-14,6.68952740423556E-14,-49.0787687761549));
#505=CARTESIAN_POINT('',(8.37546178245052E-14,6.70579043682284E-14,-53.6633150417818));
#506=CARTESIAN_POINT('',(-4.49233630716933,-2.97271306142035,-53.6633150417818));
#507=CARTESIAN_POINT('',(8.37275127701931E-14,6.70036942596042E-14,-51.451657520891));
#508=CARTESIAN_POINT('',(8.37817228788174E-14,6.7166324585477E-14,-56.0643124676582));
#509=CARTESIAN_POINT('',(-4.17490840934233,-2.76266154403426,-56.0643124676582));
#510=CARTESIAN_POINT('',(8.37546178245052E-14,6.70579043682284E-14,-54.0400000000001));
#511=CARTESIAN_POINT('',(8.37817228788174E-14,6.7166324585477E-14,-56.1652557127959));
#512=CARTESIAN_POINT('',(-4.32071447829912,-2.85914577317144,-56.1652557127959));
#513=CARTESIAN_POINT('',(8.37817228788174E-14,6.7166324585477E-14,-56.1147840902271));
#514=CARTESIAN_POINT('',(8.38088279331295E-14,6.72205346941013E-14,-57.4642938184726));
#515=CARTESIAN_POINT('',(-3.69525529294107,-2.44526075598519,-57.4642938184726));
#516=CARTESIAN_POINT('',(8.37546178245052E-14,6.70579043682284E-14,-54.0400000000001));
#517=CARTESIAN_POINT('',(8.38088279331295E-14,6.72205346941013E-14,-57.3633505733348));
#518=CARTESIAN_POINT('',(-3.5494492239843,-2.34877652684802,-57.3633505733348));
#519=CARTESIAN_POINT('',(8.38088279331295E-14,6.72205346941013E-14,-57.4138221959037));
#520=CARTESIAN_POINT('',(8.38359329874416E-14,6.72747448027256E-14,-59.3000000000001));
#521=CARTESIAN_POINT('',(-1.01877981479776,-0.674157020997609,-59.3000000000001));
#522=CARTESIAN_POINT('',(8.37546178245052E-14,6.70579043682284E-14,-54.0400000000001));
#523=CARTESIAN_POINT('',(0.509389907399008,0.337078510498905,-59.3000000000001));
#524=CARTESIAN_POINT('',(-6.23416249179165E-16,1.84314369322536E-15,-7.00000000000012));
#525=CARTESIAN_POINT('',(5.24254355102579,-7.92248301453515,-7.00000000000012));
#526=CARTESIAN_POINT('',(3.93023287525995E-15,-7.42678488152571E-15,-40.0000000000001));
#527=CARTESIAN_POINT('',(-1.0842021724855E-16,1.57209315010398E-15,-1.11022302462516E-13));
#528=CARTESIAN_POINT('',(5.24254355102579,-7.92248301453515,-1.11242195538889E-13));
#529=CARTESIAN_POINT('',(-6.23416249179165E-16,1.84314369322536E-15,-7.00000000000012));
#530=CARTESIAN_POINT('',(-1.0842021724855E-16,1.57209315010398E-15,-1.11022302462516E-13));
#531=CARTESIAN_POINT('',(-8.33945580477384,-5.51846689581662,-1.11175470687725E-13));
#532=CARTESIAN_POINT('',(-7.92248301453515,-5.24254355102579,-1.11022302462516E-13));
#533=CARTESIAN_POINT('',(3.3604845063291,9.4184469995176,50.9999999999999));
#534=CARTESIAN_POINT('',(3.3604845063291,9.4184469995176,32.0124999999999));
#535=CARTESIAN_POINT('',(3.3604845063291,9.4184469995176,20.9874999999999));
#536=CARTESIAN_POINT('',(-1.0842021724855E-16,7.58941520739853E-16,29.1283591437769));
#537=CARTESIAN_POINT('',(9.98264478130904,-0.58889996621101,20.9874999999999));
#538=CARTESIAN_POINT('',(9.98264478130904,-0.588899966211011,50.9999999999999));
#539=CARTESIAN_POINT('',(9.98264478130904,-0.58889996621101,32.0124999999999));
#540=CARTESIAN_POINT('',(-1.0842021724855E-16,9.21571846612679E-16,23.8716408562229));
#541=CARTESIAN_POINT('',(-1.0842021724855E-16,2.16840434497101E-16,49.4999999999999));
#542=CARTESIAN_POINT('',(-8.33945580477384,-5.51846689581662,49.4999999999999));
#543=CARTESIAN_POINT('',(-1.0842021724855E-16,1.62630325872826E-16,50.9999999999999));
#544=CARTESIAN_POINT('',(-1.0842021724855E-16,1.62630325872826E-16,50.9999999999999));
#545=CARTESIAN_POINT('',(4.69069686144412,-7.08853743405776,50.9999999999999));
#546=CARTESIAN_POINT('',(-1.0842021724855E-16,2.16840434497101E-16,49.4999999999999));
#547=CARTESIAN_POINT('',(-7.08853743405776,-4.69069686144413,50.9999999999999));
#548=CARTESIAN_POINT('',(-4.36536914781642,21.0936851262044,32.0124999999999));
#549=CARTESIAN_POINT('',(-4.36536914781642,21.0936851262044,20.9874999999999));
#550=CARTESIAN_POINT('',(-4.36536914781642,21.0936851262044,32.0124999999999));
#551=CARTESIAN_POINT('',(-4.36536914781642,21.0936851262044,20.9874999999999));
#552=CARTESIAN_POINT('',(-2.71209640646985,22.1877050606532,34.029876917125));
#553=CARTESIAN_POINT('',(0.,0.,-58.9602777344058));
#554=CARTESIAN_POINT('',(-0.273941523765119,0.,-58.9602777344058));
#555=CARTESIAN_POINT('',(0.,0.,-59.9997612803732));
#556=CARTESIAN_POINT('',(-0.0507379537892291,0.,-59.9997612803732));
#557=CARTESIAN_POINT('',(0.0507379363289603,-4.20927109996416E-5,-59.9997612803732));
#558=CARTESIAN_POINT('',(0.,0.,0.));
#559=CARTESIAN_POINT('',(0.,0.,-53.6735145567577));
#560=CARTESIAN_POINT('',(-1.18636190239453,0.,-53.6735145567577));
#561=CARTESIAN_POINT('',(-0.203552623820104,-0.183331087867568,-58.9602777344058));
#562=CARTESIAN_POINT('',(0.,0.,0.));
#563=CARTESIAN_POINT('',(0.,0.,-48.6676048889588));
#564=CARTESIAN_POINT('',(-5.40686208445105,0.,-48.6676048889588));
#565=CARTESIAN_POINT('',(6.2360390710114,-1.00095178876673,-54.3233203180532));
#566=CARTESIAN_POINT('',(0.,0.,0.));
#567=CARTESIAN_POINT('',(0.,0.,-48.7115815926092));
#568=CARTESIAN_POINT('',(-5.59246518677056,0.,-48.7115815926092));
#569=CARTESIAN_POINT('',(5.02407467390515,-1.99820701412524,-48.6676048889588));
#570=CARTESIAN_POINT('',(0.,0.,0.));
#571=CARTESIAN_POINT('',(0.,0.,-49.0243023824462));
#572=CARTESIAN_POINT('',(-5.96353051330532,0.,-49.0243023824462));
#573=CARTESIAN_POINT('',(5.22625724357027,-1.99045273474905,-48.7115815926092));
#574=CARTESIAN_POINT('',(0.,0.,0.));
#575=CARTESIAN_POINT('',(0.,0.,-53.9629948162267));
#576=CARTESIAN_POINT('',(-5.95953467496125,0.,-53.9629948162267));
#577=CARTESIAN_POINT('',(5.64076813107891,-1.93531162207233,-49.0243023824462));
#578=CARTESIAN_POINT('',(0.,0.,0.));
#579=CARTESIAN_POINT('',(5.86369518214266,-1.06448689657606,-53.9629948162267));
#580=CARTESIAN_POINT('',(5.86756676790915,-1.04936323797901,-54.0487653462743));
#581=CARTESIAN_POINT('',(5.86948585664921,-1.03427297536564,-54.1343464782867));
#582=CARTESIAN_POINT('',(5.86948585664921,-1.01922408562459,-54.2196929730806));
#583=CARTESIAN_POINT('',(5.86948585664921,-0.426696520200779,-57.580083782491));
#584=CARTESIAN_POINT('',(3.46786170893029,-0.00516847799751713,-59.9706881046974));
#585=CARTESIAN_POINT('',(0.0507379363289832,-4.20927109769912E-5,-59.9997612803733));
#586=CARTESIAN_POINT('',(0.,0.,0.));
#587=MECHANICAL_DESIGN_GEOMETRIC_PRESENTATION_REPRESENTATION('',(#48,#49),
#588);
#588=(
GEOMETRIC_REPRESENTATION_CONTEXT(3)
GLOBAL_UNCERTAINTY_ASSIGNED_CONTEXT((#589))
GLOBAL_UNIT_ASSIGNED_CONTEXT((#595,#591,#590))
REPRESENTATION_CONTEXT('12L2R060B20-SZP12_115009074ndi000_00-SIM',
'TOP_LEVEL_ASSEMBLY_PART')
);
#589=UNCERTAINTY_MEASURE_WITH_UNIT(LENGTH_MEASURE(0.0508),#595,
'DISTANCE_ACCURACY_VALUE','Maximum Tolerance applied to model');
#590=(
NAMED_UNIT(*)
SI_UNIT($,.STERADIAN.)
SOLID_ANGLE_UNIT()
);
#591=(
CONVERSION_BASED_UNIT('DEGREE',#593)
NAMED_UNIT(#592)
PLANE_ANGLE_UNIT()
);
#592=DIMENSIONAL_EXPONENTS(0.,0.,0.,0.,0.,0.,0.);
#593=PLANE_ANGLE_MEASURE_WITH_UNIT(PLANE_ANGLE_MEASURE(0.0174532925),#594);
#594=(
NAMED_UNIT(*)
PLANE_ANGLE_UNIT()
SI_UNIT($,.RADIAN.)
);
#595=(
LENGTH_UNIT()
NAMED_UNIT(*)
SI_UNIT(.MILLI.,.METRE.)
);
ENDSEC;
END-ISO-10303-21;
