ISO-10303-21;
HEADER;
/* Generated by software containing ST-Developer
 * from STEP Tools, Inc. (www.steptools.com) 
 */
/* OPTION: using custom schema-name function */

FILE_DESCRIPTION(
/* description */ (''),
/* implementation_level */ '2;1');

FILE_NAME(
/* name */ '12L2R045A20-SZP12_115009072ndi000_00-SIM.stp',
/* time_stamp */ '2020-01-16T09:36:29+01:00',
/* author */ (''),
/* organization */ (''),
/* preprocessor_version */ 'ST-DEVELOPER v16.7',
/* originating_system */ 'SIEMENS PLM Software NX 12.0',
/* authorisation */ '');

FILE_SCHEMA (('AUTOMOTIVE_DESIGN { 1 0 10303 214 3 1 1 1 }'));
ENDSEC;

DATA;
#10=PROPERTY_DEFINITION_REPRESENTATION(#14,#12);
#11=PROPERTY_DEFINITION_REPRESENTATION(#15,#13);
#12=REPRESENTATION('',(#16),#510);
#13=REPRESENTATION('',(#17),#510);
#14=PROPERTY_DEFINITION('pmi validation property','',#21);
#15=PROPERTY_DEFINITION('pmi validation property','',#21);
#16=VALUE_REPRESENTATION_ITEM('number of annotations',COUNT_MEASURE(0.));
#17=VALUE_REPRESENTATION_ITEM('number of views',COUNT_MEASURE(0.));
#18=SHAPE_REPRESENTATION_RELATIONSHIP('None',
'relationship between hm1522288A556nsw-None and hm1522288A556nsw-None',
#30,#19);
#19=ADVANCED_BREP_SHAPE_REPRESENTATION('hm1522288A556nsw-None',(#74,#75),
#510);
#20=SHAPE_DEFINITION_REPRESENTATION(#21,#30);
#21=PRODUCT_DEFINITION_SHAPE('','',#22);
#22=PRODUCT_DEFINITION(' ','',#24,#23);
#23=PRODUCT_DEFINITION_CONTEXT('part definition',#29,'design');
#24=PRODUCT_DEFINITION_FORMATION_WITH_SPECIFIED_SOURCE(' ',' ',#26,
 .NOT_KNOWN.);
#25=PRODUCT_RELATED_PRODUCT_CATEGORY('part','',(#26));
#26=PRODUCT('hm1522288A556nsw','hm1522288A556nsw',' ',(#27));
#27=PRODUCT_CONTEXT(' ',#29,'mechanical');
#28=APPLICATION_PROTOCOL_DEFINITION('international standard',
'automotive_design',2010,#29);
#29=APPLICATION_CONTEXT(
'core data for automotive mechanical design processes');
#30=SHAPE_REPRESENTATION('hm1522288A556nsw-None',(#305),#510);
#31=(
BOUNDED_CURVE()
B_SPLINE_CURVE(3,(#483,#484,#485,#486,#487,#488,#489),.UNSPECIFIED.,.F.,
 .F.)
B_SPLINE_CURVE_WITH_KNOTS((4,3,4),(0.,0.969629127161938,1.),
 .UNSPECIFIED.)
CURVE()
GEOMETRIC_REPRESENTATION_ITEM()
RATIONAL_B_SPLINE_CURVE((0.996447498580266,0.804743852971227,0.805928020111138,
1.,0.993921247559995,0.988031732980471,0.982331456261427))
REPRESENTATION_ITEM('')
);
#32=SURFACE_OF_REVOLUTION('',#46,#39);
#33=SURFACE_OF_REVOLUTION('',#31,#40);
#34=SURFACE_OF_REVOLUTION('',#47,#41);
#35=SURFACE_OF_REVOLUTION('',#48,#42);
#36=SURFACE_OF_REVOLUTION('',#49,#43);
#37=SURFACE_OF_REVOLUTION('',#304,#44);
#38=SURFACE_OF_REVOLUTION('',#50,#45);
#39=AXIS1_PLACEMENT('',#480,#408);
#40=AXIS1_PLACEMENT('',#490,#411);
#41=AXIS1_PLACEMENT('',#494,#415);
#42=AXIS1_PLACEMENT('',#498,#419);
#43=AXIS1_PLACEMENT('',#502,#423);
#44=AXIS1_PLACEMENT('',#506,#428);
#45=AXIS1_PLACEMENT('',#508,#430);
#46=LINE('',#479,#51);
#47=LINE('',#493,#52);
#48=LINE('',#497,#53);
#49=LINE('',#501,#54);
#50=LINE('',#507,#55);
#51=VECTOR('',#407,1.08571846583886);
#52=VECTOR('',#414,5.01983218126985);
#53=VECTOR('',#418,0.522162915732907);
#54=VECTOR('',#422,0.207055236082048);
#55=VECTOR('',#429,5.4025666297136);
#56=PRESENTATION_LAYER_ASSIGNMENT('14','Layer 14',(#74));
#57=PRESENTATION_LAYER_ASSIGNMENT('96','Layer 96',(#75));
#58=STYLED_ITEM('',(#60),#74);
#59=STYLED_ITEM('',(#61),#75);
#60=PRESENTATION_STYLE_ASSIGNMENT((#62));
#61=PRESENTATION_STYLE_ASSIGNMENT((#63));
#62=SURFACE_STYLE_USAGE(.BOTH.,#64);
#63=SURFACE_STYLE_USAGE(.BOTH.,#65);
#64=SURFACE_SIDE_STYLE('',(#66));
#65=SURFACE_SIDE_STYLE('',(#67));
#66=SURFACE_STYLE_FILL_AREA(#68);
#67=SURFACE_STYLE_FILL_AREA(#69);
#68=FILL_AREA_STYLE('',(#70));
#69=FILL_AREA_STYLE('',(#71));
#70=FILL_AREA_STYLE_COLOUR('',#72);
#71=FILL_AREA_STYLE_COLOUR('',#73);
#72=COLOUR_RGB('Silver Gray',0.6,0.6,0.6);
#73=COLOUR_RGB('Light Gray',0.8,0.8,0.8);
#74=MANIFOLD_SOLID_BREP('',#76);
#75=MANIFOLD_SOLID_BREP('',#77);
#76=CLOSED_SHELL('',(#92,#93,#94,#95,#96,#97,#98,#99,#100,#101,#102,#103,
#104,#105,#106));
#77=CLOSED_SHELL('',(#107,#108,#109,#110,#111,#112,#113));
#78=TOROIDAL_SURFACE('',#334,11.5,2.);
#79=PLANE('',#323);
#80=PLANE('',#327);
#81=FACE_OUTER_BOUND('',#173,.T.);
#82=FACE_OUTER_BOUND('',#176,.T.);
#83=SPHERICAL_SURFACE('',#314,5.4);
#84=SPHERICAL_SURFACE('',#318,5.6);
#85=SPHERICAL_SURFACE('',#322,5.4);
#86=CONICAL_SURFACE('',#310,5.23876877615474,45.);
#87=CONICAL_SURFACE('',#312,5.23219171185627,4.);
#88=CONICAL_SURFACE('',#316,5.09363145900862,60.);
#89=CONICAL_SURFACE('',#320,4.34363145900861,60.);
#90=CONICAL_SURFACE('',#325,5.4,12.9500176854033);
#91=CONICAL_SURFACE('',#331,9.,45.);
#92=ADVANCED_FACE('',(#117,#118),#114,.T.);
#93=ADVANCED_FACE('',(#119,#120),#86,.T.);
#94=ADVANCED_FACE('',(#121,#122),#87,.T.);
#95=ADVANCED_FACE('',(#123,#124),#83,.T.);
#96=ADVANCED_FACE('',(#125,#126),#88,.T.);
#97=ADVANCED_FACE('',(#127,#128),#84,.T.);
#98=ADVANCED_FACE('',(#129,#130),#89,.F.);
#99=ADVANCED_FACE('',(#131,#132),#85,.T.);
#100=ADVANCED_FACE('',(#81),#79,.F.);
#101=ADVANCED_FACE('',(#133,#134),#90,.T.);
#102=ADVANCED_FACE('',(#82),#80,.T.);
#103=ADVANCED_FACE('',(#135,#136),#115,.T.);
#104=ADVANCED_FACE('',(#137,#138),#91,.T.);
#105=ADVANCED_FACE('',(#139,#140),#116,.T.);
#106=ADVANCED_FACE('',(#141,#142),#78,.F.);
#107=ADVANCED_FACE('',(#143,#144),#32,.F.);
#108=ADVANCED_FACE('',(#145,#146),#33,.F.);
#109=ADVANCED_FACE('',(#147,#148),#34,.F.);
#110=ADVANCED_FACE('',(#149,#150),#35,.F.);
#111=ADVANCED_FACE('',(#151,#152),#36,.F.);
#112=ADVANCED_FACE('',(#153,#154),#37,.F.);
#113=ADVANCED_FACE('',(#155,#156),#38,.F.);
#114=CYLINDRICAL_SURFACE('',#308,5.4);
#115=CYLINDRICAL_SURFACE('',#330,10.);
#116=CYLINDRICAL_SURFACE('',#333,9.5);
#117=FACE_BOUND('',#157,.T.);
#118=FACE_BOUND('',#158,.T.);
#119=FACE_BOUND('',#159,.T.);
#120=FACE_BOUND('',#160,.T.);
#121=FACE_BOUND('',#161,.T.);
#122=FACE_BOUND('',#162,.T.);
#123=FACE_BOUND('',#163,.T.);
#124=FACE_BOUND('',#164,.T.);
#125=FACE_BOUND('',#165,.T.);
#126=FACE_BOUND('',#166,.T.);
#127=FACE_BOUND('',#167,.T.);
#128=FACE_BOUND('',#168,.T.);
#129=FACE_BOUND('',#169,.T.);
#130=FACE_BOUND('',#170,.T.);
#131=FACE_BOUND('',#171,.T.);
#132=FACE_BOUND('',#172,.T.);
#133=FACE_BOUND('',#174,.T.);
#134=FACE_BOUND('',#175,.T.);
#135=FACE_BOUND('',#177,.T.);
#136=FACE_BOUND('',#178,.T.);
#137=FACE_BOUND('',#179,.T.);
#138=FACE_BOUND('',#180,.T.);
#139=FACE_BOUND('',#181,.T.);
#140=FACE_BOUND('',#182,.T.);
#141=FACE_BOUND('',#183,.T.);
#142=FACE_BOUND('',#184,.T.);
#143=FACE_BOUND('',#185,.T.);
#144=FACE_BOUND('',#186,.T.);
#145=FACE_BOUND('',#187,.T.);
#146=FACE_BOUND('',#188,.T.);
#147=FACE_BOUND('',#189,.T.);
#148=FACE_BOUND('',#190,.T.);
#149=FACE_BOUND('',#191,.T.);
#150=FACE_BOUND('',#192,.T.);
#151=FACE_BOUND('',#193,.T.);
#152=FACE_BOUND('',#194,.T.);
#153=FACE_BOUND('',#195,.T.);
#154=FACE_BOUND('',#196,.T.);
#155=FACE_BOUND('',#197,.T.);
#156=FACE_BOUND('',#198,.T.);
#157=EDGE_LOOP('',(#199));
#158=EDGE_LOOP('',(#200));
#159=EDGE_LOOP('',(#201));
#160=EDGE_LOOP('',(#202));
#161=EDGE_LOOP('',(#203));
#162=EDGE_LOOP('',(#204));
#163=EDGE_LOOP('',(#205));
#164=EDGE_LOOP('',(#206));
#165=EDGE_LOOP('',(#207));
#166=EDGE_LOOP('',(#208));
#167=EDGE_LOOP('',(#209));
#168=EDGE_LOOP('',(#210));
#169=EDGE_LOOP('',(#211));
#170=EDGE_LOOP('',(#212));
#171=EDGE_LOOP('',(#213));
#172=EDGE_LOOP('',(#214));
#173=EDGE_LOOP('',(#215));
#174=EDGE_LOOP('',(#216));
#175=EDGE_LOOP('',(#217));
#176=EDGE_LOOP('',(#218));
#177=EDGE_LOOP('',(#219));
#178=EDGE_LOOP('',(#220));
#179=EDGE_LOOP('',(#221));
#180=EDGE_LOOP('',(#222));
#181=EDGE_LOOP('',(#223));
#182=EDGE_LOOP('',(#224));
#183=EDGE_LOOP('',(#225));
#184=EDGE_LOOP('',(#226));
#185=EDGE_LOOP('',(#227));
#186=EDGE_LOOP('',(#228));
#187=EDGE_LOOP('',(#229));
#188=EDGE_LOOP('',(#230));
#189=EDGE_LOOP('',(#231));
#190=EDGE_LOOP('',(#232));
#191=EDGE_LOOP('',(#233));
#192=EDGE_LOOP('',(#234));
#193=EDGE_LOOP('',(#235));
#194=EDGE_LOOP('',(#236));
#195=EDGE_LOOP('',(#237));
#196=EDGE_LOOP('',(#238));
#197=EDGE_LOOP('',(#239));
#198=EDGE_LOOP('',(#240));
#199=ORIENTED_EDGE('',*,*,#262,.F.);
#200=ORIENTED_EDGE('',*,*,#263,.T.);
#201=ORIENTED_EDGE('',*,*,#263,.F.);
#202=ORIENTED_EDGE('',*,*,#264,.T.);
#203=ORIENTED_EDGE('',*,*,#264,.F.);
#204=ORIENTED_EDGE('',*,*,#265,.T.);
#205=ORIENTED_EDGE('',*,*,#265,.F.);
#206=ORIENTED_EDGE('',*,*,#266,.T.);
#207=ORIENTED_EDGE('',*,*,#267,.T.);
#208=ORIENTED_EDGE('',*,*,#266,.F.);
#209=ORIENTED_EDGE('',*,*,#267,.F.);
#210=ORIENTED_EDGE('',*,*,#268,.T.);
#211=ORIENTED_EDGE('',*,*,#268,.F.);
#212=ORIENTED_EDGE('',*,*,#269,.T.);
#213=ORIENTED_EDGE('',*,*,#269,.F.);
#214=ORIENTED_EDGE('',*,*,#270,.T.);
#215=ORIENTED_EDGE('',*,*,#270,.F.);
#216=ORIENTED_EDGE('',*,*,#271,.F.);
#217=ORIENTED_EDGE('',*,*,#262,.T.);
#218=ORIENTED_EDGE('',*,*,#272,.T.);
#219=ORIENTED_EDGE('',*,*,#273,.F.);
#220=ORIENTED_EDGE('',*,*,#274,.T.);
#221=ORIENTED_EDGE('',*,*,#274,.F.);
#222=ORIENTED_EDGE('',*,*,#272,.F.);
#223=ORIENTED_EDGE('',*,*,#275,.T.);
#224=ORIENTED_EDGE('',*,*,#271,.T.);
#225=ORIENTED_EDGE('',*,*,#275,.F.);
#226=ORIENTED_EDGE('',*,*,#273,.T.);
#227=ORIENTED_EDGE('',*,*,#276,.T.);
#228=ORIENTED_EDGE('',*,*,#277,.F.);
#229=ORIENTED_EDGE('',*,*,#278,.T.);
#230=ORIENTED_EDGE('',*,*,#276,.F.);
#231=ORIENTED_EDGE('',*,*,#279,.T.);
#232=ORIENTED_EDGE('',*,*,#278,.F.);
#233=ORIENTED_EDGE('',*,*,#280,.T.);
#234=ORIENTED_EDGE('',*,*,#279,.F.);
#235=ORIENTED_EDGE('',*,*,#281,.T.);
#236=ORIENTED_EDGE('',*,*,#280,.F.);
#237=ORIENTED_EDGE('',*,*,#282,.T.);
#238=ORIENTED_EDGE('',*,*,#281,.F.);
#239=ORIENTED_EDGE('',*,*,#277,.T.);
#240=ORIENTED_EDGE('',*,*,#282,.F.);
#241=VERTEX_POINT('',#433);
#242=VERTEX_POINT('',#435);
#243=VERTEX_POINT('',#438);
#244=VERTEX_POINT('',#441);
#245=VERTEX_POINT('',#444);
#246=VERTEX_POINT('',#447);
#247=VERTEX_POINT('',#450);
#248=VERTEX_POINT('',#453);
#249=VERTEX_POINT('',#456);
#250=VERTEX_POINT('',#460);
#251=VERTEX_POINT('',#463);
#252=VERTEX_POINT('',#466);
#253=VERTEX_POINT('',#468);
#254=VERTEX_POINT('',#472);
#255=VERTEX_POINT('',#476);
#256=VERTEX_POINT('',#478);
#257=VERTEX_POINT('',#482);
#258=VERTEX_POINT('',#492);
#259=VERTEX_POINT('',#496);
#260=VERTEX_POINT('',#500);
#261=VERTEX_POINT('',#504);
#262=EDGE_CURVE('',#241,#241,#283,.T.);
#263=EDGE_CURVE('',#242,#242,#284,.T.);
#264=EDGE_CURVE('',#243,#243,#285,.T.);
#265=EDGE_CURVE('',#244,#244,#286,.T.);
#266=EDGE_CURVE('',#245,#245,#287,.T.);
#267=EDGE_CURVE('',#246,#246,#288,.T.);
#268=EDGE_CURVE('',#247,#247,#289,.T.);
#269=EDGE_CURVE('',#248,#248,#290,.T.);
#270=EDGE_CURVE('',#249,#249,#291,.T.);
#271=EDGE_CURVE('',#250,#250,#292,.T.);
#272=EDGE_CURVE('',#251,#251,#293,.T.);
#273=EDGE_CURVE('',#252,#252,#294,.T.);
#274=EDGE_CURVE('',#253,#253,#295,.T.);
#275=EDGE_CURVE('',#254,#254,#296,.T.);
#276=EDGE_CURVE('',#255,#255,#297,.T.);
#277=EDGE_CURVE('',#256,#256,#298,.T.);
#278=EDGE_CURVE('',#257,#257,#299,.T.);
#279=EDGE_CURVE('',#258,#258,#300,.T.);
#280=EDGE_CURVE('',#259,#259,#301,.T.);
#281=EDGE_CURVE('',#260,#260,#302,.T.);
#282=EDGE_CURVE('',#261,#261,#303,.T.);
#283=CIRCLE('',#306,5.4);
#284=CIRCLE('',#307,5.4);
#285=CIRCLE('',#309,5.07753755230948);
#286=CIRCLE('',#311,5.38684587140305);
#287=CIRCLE('',#313,5.00621204437888);
#288=CIRCLE('',#315,5.18105087363836);
#289=CIRCLE('',#317,4.43105087363835);
#290=CIRCLE('',#319,4.25621204437888);
#291=CIRCLE('',#321,1.22163824432604);
#292=CIRCLE('',#324,9.5);
#293=CIRCLE('',#326,9.);
#294=CIRCLE('',#328,10.);
#295=CIRCLE('',#329,10.);
#296=CIRCLE('',#332,9.5);
#297=CIRCLE('',#335,0.0507379537892195);
#298=CIRCLE('',#336,0.273941523765122);
#299=CIRCLE('',#337,5.95953467496124);
#300=CIRCLE('',#338,5.96353051330531);
#301=CIRCLE('',#339,5.59246518677055);
#302=CIRCLE('',#340,5.40686208445105);
#303=CIRCLE('',#341,1.18636190239453);
#304=CIRCLE('',#342,5.86945420795277);
#305=AXIS2_PLACEMENT_3D('',#431,#343,#344);
#306=AXIS2_PLACEMENT_3D('',#432,#345,#346);
#307=AXIS2_PLACEMENT_3D('',#434,#347,#348);
#308=AXIS2_PLACEMENT_3D('',#436,#349,#350);
#309=AXIS2_PLACEMENT_3D('',#437,#351,#352);
#310=AXIS2_PLACEMENT_3D('',#439,#353,#354);
#311=AXIS2_PLACEMENT_3D('',#440,#355,#356);
#312=AXIS2_PLACEMENT_3D('',#442,#357,#358);
#313=AXIS2_PLACEMENT_3D('',#443,#359,#360);
#314=AXIS2_PLACEMENT_3D('',#445,#361,#362);
#315=AXIS2_PLACEMENT_3D('',#446,#363,#364);
#316=AXIS2_PLACEMENT_3D('',#448,#365,#366);
#317=AXIS2_PLACEMENT_3D('',#449,#367,#368);
#318=AXIS2_PLACEMENT_3D('',#451,#369,#370);
#319=AXIS2_PLACEMENT_3D('',#452,#371,#372);
#320=AXIS2_PLACEMENT_3D('',#454,#373,#374);
#321=AXIS2_PLACEMENT_3D('',#455,#375,#376);
#322=AXIS2_PLACEMENT_3D('',#457,#377,#378);
#323=AXIS2_PLACEMENT_3D('',#458,#379,#380);
#324=AXIS2_PLACEMENT_3D('',#459,#381,#382);
#325=AXIS2_PLACEMENT_3D('',#461,#383,#384);
#326=AXIS2_PLACEMENT_3D('',#462,#385,#386);
#327=AXIS2_PLACEMENT_3D('',#464,#387,#388);
#328=AXIS2_PLACEMENT_3D('',#465,#389,#390);
#329=AXIS2_PLACEMENT_3D('',#467,#391,#392);
#330=AXIS2_PLACEMENT_3D('',#469,#393,#394);
#331=AXIS2_PLACEMENT_3D('',#470,#395,#396);
#332=AXIS2_PLACEMENT_3D('',#471,#397,#398);
#333=AXIS2_PLACEMENT_3D('',#473,#399,#400);
#334=AXIS2_PLACEMENT_3D('',#474,#401,#402);
#335=AXIS2_PLACEMENT_3D('',#475,#403,#404);
#336=AXIS2_PLACEMENT_3D('',#477,#405,#406);
#337=AXIS2_PLACEMENT_3D('',#481,#409,#410);
#338=AXIS2_PLACEMENT_3D('',#491,#412,#413);
#339=AXIS2_PLACEMENT_3D('',#495,#416,#417);
#340=AXIS2_PLACEMENT_3D('',#499,#420,#421);
#341=AXIS2_PLACEMENT_3D('',#503,#424,#425);
#342=AXIS2_PLACEMENT_3D('',#505,#426,#427);
#343=DIRECTION('',(0.,0.,1.));
#344=DIRECTION('',(1.,0.,0.));
#345=DIRECTION('',(1.47175503324012E-17,-1.80165331411333E-17,1.));
#346=DIRECTION('',(0.833945580477384,0.551846689581662,0.));
#347=DIRECTION('',(1.47175503324012E-17,-1.80165331411333E-17,1.));
#348=DIRECTION('',(0.833945580477384,0.551846689581662,0.));
#349=DIRECTION('',(1.01391847781353E-17,-2.10461743239189E-17,1.));
#350=DIRECTION('',(0.833945580477384,0.551846689581662,0.));
#351=DIRECTION('',(1.47175503324012E-17,-1.80165331411333E-17,1.));
#352=DIRECTION('',(0.833945580477384,0.551846689581662,0.));
#353=DIRECTION('',(1.47175503324012E-17,-1.80165331411333E-17,1.));
#354=DIRECTION('',(0.833945580477384,0.551846689581662,-3.45136604329094E-17));
#355=DIRECTION('',(1.47175503324012E-17,-1.80165331411333E-17,1.));
#356=DIRECTION('',(0.833945580477384,0.551846689581662,0.));
#357=DIRECTION('',(-1.47175503324012E-17,1.80165331411333E-17,-1.));
#358=DIRECTION('',(-0.833945580477384,-0.551846689581662,1.84645712860292E-16));
#359=DIRECTION('',(1.47175503324012E-17,-1.80165331411333E-17,1.));
#360=DIRECTION('',(0.833945580477384,0.551846689581662,0.));
#361=DIRECTION('',(-0.551846689581662,0.833945580477384,0.));
#362=DIRECTION('',(-0.833945580477384,-0.551846689581662,0.));
#363=DIRECTION('',(1.47175503324012E-17,-1.80165331411333E-17,1.));
#364=DIRECTION('',(0.833945580477384,0.551846689581662,0.));
#365=DIRECTION('',(-1.47175503324012E-17,1.80165331411333E-17,-1.));
#366=DIRECTION('',(-0.833945580477384,-0.551846689581662,5.79191685770003E-17));
#367=DIRECTION('',(1.47175503324012E-17,-1.80165331411333E-17,1.));
#368=DIRECTION('',(0.833945580477384,0.551846689581662,0.));
#369=DIRECTION('',(-0.551846689581662,0.833945580477384,0.));
#370=DIRECTION('',(-0.833945580477384,-0.551846689581662,0.));
#371=DIRECTION('',(1.47175503324012E-17,-1.80165331411333E-17,1.));
#372=DIRECTION('',(0.833945580477384,0.551846689581662,0.));
#373=DIRECTION('',(-1.47175503324012E-17,1.80165331411333E-17,-1.));
#374=DIRECTION('',(-0.833945580477384,-0.551846689581662,-3.99615072931928E-18));
#375=DIRECTION('',(1.47175503324012E-17,-1.80165331411333E-17,1.));
#376=DIRECTION('',(0.833945580477384,0.551846689581662,0.));
#377=DIRECTION('',(-0.551846689581662,0.833945580477384,0.));
#378=DIRECTION('',(-0.833945580477384,-0.551846689581662,0.));
#379=DIRECTION('',(1.47175503324012E-17,-1.80165331411333E-17,1.));
#380=DIRECTION('',(0.833945580477384,0.551846689581662,0.));
#381=DIRECTION('',(2.98163821647261E-16,-6.29225394016614E-16,1.));
#382=DIRECTION('',(-0.551846689581662,0.833945580477384,6.8475926683295E-16));
#383=DIRECTION('',(1.37508591014501E-16,-3.3614889607658E-16,1.));
#384=DIRECTION('',(-0.972691884897054,-0.232100187538519,-1.03191747855204E-16));
#385=DIRECTION('',(2.98163821647261E-16,-6.29225394016614E-16,1.));
#386=DIRECTION('',(-0.551846689581662,0.833945580477384,0.));
#387=DIRECTION('',(2.98163821647261E-16,-6.29225394016614E-16,1.));
#388=DIRECTION('',(-0.551846689581662,0.833945580477384,6.93889390390723E-16));
#389=DIRECTION('',(-2.98163821647261E-16,6.29225394016614E-16,-1.));
#390=DIRECTION('',(-0.551846689581662,0.833945580477384,6.93889390390723E-16));
#391=DIRECTION('',(-2.98163821647258E-16,6.29225394016615E-16,-1.));
#392=DIRECTION('',(0.551846689581662,-0.833945580477384,0.));
#393=DIRECTION('',(2.98163821647261E-16,-6.29225394016614E-16,1.));
#394=DIRECTION('',(-0.551846689581662,0.833945580477384,6.93889390390723E-16));
#395=DIRECTION('',(-2.98163821647258E-16,6.29225394016615E-16,-1.));
#396=DIRECTION('',(0.551846689581662,-0.833945580477384,-6.05176078834328E-16));
#397=DIRECTION('',(-2.98163821647261E-16,6.29225394016614E-16,-1.));
#398=DIRECTION('',(-0.551846689581662,0.833945580477384,7.30409884621814E-16));
#399=DIRECTION('',(2.98163821647261E-16,-6.29225394016614E-16,1.));
#400=DIRECTION('',(-0.551846689581662,0.833945580477384,7.30409884621814E-16));
#401=DIRECTION('',(2.98163821647261E-16,-6.29225394016614E-16,1.));
#402=DIRECTION('',(-0.551846689581662,0.833945580477384,6.42490176287706E-16));
#403=DIRECTION('',(0.,0.,-1.));
#404=DIRECTION('',(-1.,0.,0.));
#405=DIRECTION('',(0.,0.,-1.));
#406=DIRECTION('',(-1.,0.,0.));
#407=DIRECTION('',(0.234214087859867,0.168818161359127,-0.957415369337308));
#408=DIRECTION('',(0.,0.,-1.));
#409=DIRECTION('',(0.,0.,-1.));
#410=DIRECTION('',(-1.,0.,0.));
#411=DIRECTION('',(0.,0.,-1.));
#412=DIRECTION('',(0.,0.,-1.));
#413=DIRECTION('',(-1.,0.,0.));
#414=DIRECTION('',(-0.0444092636992065,-0.173476860191762,0.983836163329902));
#415=DIRECTION('',(0.,0.,-1.));
#416=DIRECTION('',(0.,0.,-1.));
#417=DIRECTION('',(-1.,0.,0.));
#418=DIRECTION('',(-0.793834404970779,-0.105601357383499,0.598895058255995));
#419=DIRECTION('',(0.,0.,-1.));
#420=DIRECTION('',(0.,0.,-1.));
#421=DIRECTION('',(-1.,0.,0.));
#422=DIRECTION('',(-0.976466828324963,-0.0374502935686351,0.212391169055143));
#423=DIRECTION('',(0.,0.,-1.));
#424=DIRECTION('',(0.,0.,-1.));
#425=DIRECTION('',(-1.,0.,0.));
#426=DIRECTION('',(2.4980018054066E-16,-0.984807753012208,-0.17364817766693));
#427=DIRECTION('',(-0.993661048398056,-0.0195211145494517,0.110709742042979));
#428=DIRECTION('',(0.,0.,-1.));
#429=DIRECTION('',(-0.112417618265448,0.172547430272934,-0.978565104328645));
#430=DIRECTION('',(0.,0.,-1.));
#431=CARTESIAN_POINT('',(0.,0.,0.));
#432=CARTESIAN_POINT('',(-3.5412855412121E-14,5.28112170681981E-14,-15.));
#433=CARTESIAN_POINT('',(4.50330613457784,2.97997212374103,-15.));
#434=CARTESIAN_POINT('',(-3.55440997198882E-14,5.29718801790466E-14,-23.9175375523095));
#435=CARTESIAN_POINT('',(4.50330613457784,2.97997212374103,-23.9175375523095));
#436=CARTESIAN_POINT('',(-3.54784775660046E-14,5.28915486236224E-14,-19.4587687761548));
#437=CARTESIAN_POINT('',(-3.55488455771924E-14,5.29776898344222E-14,-24.24));
#438=CARTESIAN_POINT('',(4.23439000145641,2.80202228946861,-24.24));
#439=CARTESIAN_POINT('',(-3.55464726485403E-14,5.29747850067344E-14,-24.0787687761547));
#440=CARTESIAN_POINT('',(-3.56139459389559E-14,5.30573826364661E-14,-28.6633150417817));
#441=CARTESIAN_POINT('',(4.49233630716938,2.97271306142047,-28.6633150417817));
#442=CARTESIAN_POINT('',(-3.55813957580741E-14,5.30175362354442E-14,-26.4516575208909));
#443=CARTESIAN_POINT('',(-3.56492827394192E-14,5.31006402861612E-14,-31.0643124676581));
#444=CARTESIAN_POINT('',(4.17490840934238,2.76266154403438,-31.0643124676581));
#445=CARTESIAN_POINT('',(-3.56194898187879E-14,5.30641691934997E-14,-29.04));
#446=CARTESIAN_POINT('',(-3.56507683767102E-14,5.31024589334826E-14,-31.1652557127958));
#447=CARTESIAN_POINT('',(4.32071447829916,2.85914577317156,-31.1652557127958));
#448=CARTESIAN_POINT('',(-3.56500255580647E-14,5.31015496098219E-14,-31.1147840902269));
#449=CARTESIAN_POINT('',(-3.56698870354142E-14,5.31258630965651E-14,-32.4642938184725));
#450=CARTESIAN_POINT('',(3.69525529294112,2.44526075598531,-32.4642938184725));
#451=CARTESIAN_POINT('',(-3.56194898187879E-14,5.30641691934997E-14,-29.04));
#452=CARTESIAN_POINT('',(-3.56684013981232E-14,5.31240444492437E-14,-32.3633505733347));
#453=CARTESIAN_POINT('',(3.54944922398434,2.34877652684814,-32.3633505733347));
#454=CARTESIAN_POINT('',(-3.56691442167687E-14,5.31249537729044E-14,-32.4138221959036));
#455=CARTESIAN_POINT('',(-3.56969041335363E-14,5.3158936157822E-14,-34.3));
#456=CARTESIAN_POINT('',(1.01877981479781,0.67415702099773,-34.3));
#457=CARTESIAN_POINT('',(-3.56194898187879E-14,5.30641691934997E-14,-29.04));
#458=CARTESIAN_POINT('',(-0.50938990739896,-0.337078510498785,-34.3));
#459=CARTESIAN_POINT('',(3.33297464148502E-14,2.78957213743055E-13,2.83000000000001));
#460=CARTESIAN_POINT('',(-5.24254355102576,7.92248301453543,2.83000000000001));
#461=CARTESIAN_POINT('',(4.56536137394938E-14,1.23448102370754E-13,-15.));
#462=CARTESIAN_POINT('',(9.64586188738182E-14,1.5413085406034E-14,165.));
#463=CARTESIAN_POINT('',(-4.96662020623486,7.50551022429647,165.));
#464=CARTESIAN_POINT('',(9.64586188738182E-14,1.5413085406034E-14,165.));
#465=CARTESIAN_POINT('',(5.01925386688128E-14,1.13049989795592E-13,9.83000000000001));
#466=CARTESIAN_POINT('',(-5.51846689581657,8.33945580477395,9.83000000000002));
#467=CARTESIAN_POINT('',(9.61604550521709E-14,1.60423108000506E-14,164.));
#468=CARTESIAN_POINT('',(5.51846689581672,-8.33945580477383,164.));
#469=CARTESIAN_POINT('',(4.81053919172819E-14,1.17454567553708E-13,2.83));
#470=CARTESIAN_POINT('',(9.64586188738182E-14,1.5413085406034E-14,165.));
#471=CARTESIAN_POINT('',(3.50224595053634E-14,2.75385022940526E-13,8.50712434446772));
#472=CARTESIAN_POINT('',(-5.24254355102575,7.92248301453542,8.50712434446772));
#473=CARTESIAN_POINT('',(3.43733197906156E-14,2.76754924863997E-13,6.33000000000001));
#474=CARTESIAN_POINT('',(4.97981050077951E-14,1.13882376751179E-13,8.50712434446772));
#475=CARTESIAN_POINT('',(0.,0.,-34.9997612803732));
#476=CARTESIAN_POINT('',(-0.0507379537892195,0.,-34.9997612803732));
#477=CARTESIAN_POINT('',(0.,0.,-33.9602777344058));
#478=CARTESIAN_POINT('',(-0.273941523765122,0.,-33.9602777344058));
#479=CARTESIAN_POINT('',(-0.203552623820114,-0.183331087867564,-33.9602777344058));
#480=CARTESIAN_POINT('',(0.,0.,0.));
#481=CARTESIAN_POINT('',(0.,0.,-28.9629948162268));
#482=CARTESIAN_POINT('',(-5.95953467496124,0.,-28.9629948162268));
#483=CARTESIAN_POINT('',(0.050737936328951,-4.20927109914697E-5,-34.9997612803733));
#484=CARTESIAN_POINT('',(3.46786170893027,-0.00516847799752827,-34.9706881046974));
#485=CARTESIAN_POINT('',(5.86948585664921,-0.426696520200791,-32.580083782491));
#486=CARTESIAN_POINT('',(5.86948585664921,-1.0192240856246,-29.2196929730806));
#487=CARTESIAN_POINT('',(5.86948585664921,-1.03427297536565,-29.1343464782867));
#488=CARTESIAN_POINT('',(5.86756676790916,-1.04936323797902,-29.0487653462743));
#489=CARTESIAN_POINT('',(5.86369518214267,-1.06448689657606,-28.9629948162267));
#490=CARTESIAN_POINT('',(0.,0.,0.));
#491=CARTESIAN_POINT('',(0.,0.,-24.0243023824462));
#492=CARTESIAN_POINT('',(-5.96353051330531,0.,-24.0243023824462));
#493=CARTESIAN_POINT('',(5.86369518214267,-1.06448689657606,-28.9629948162267));
#494=CARTESIAN_POINT('',(0.,0.,0.));
#495=CARTESIAN_POINT('',(0.,0.,-23.7115815926092));
#496=CARTESIAN_POINT('',(-5.59246518677055,0.,-23.7115815926092));
#497=CARTESIAN_POINT('',(5.6407681310789,-1.93531162207232,-24.0243023824462));
#498=CARTESIAN_POINT('',(0.,0.,0.));
#499=CARTESIAN_POINT('',(0.,0.,-23.6676048889588));
#500=CARTESIAN_POINT('',(-5.40686208445105,0.,-23.6676048889588));
#501=CARTESIAN_POINT('',(5.22625724357026,-1.99045273474904,-23.7115815926092));
#502=CARTESIAN_POINT('',(0.,0.,0.));
#503=CARTESIAN_POINT('',(0.,0.,-28.6735145567577));
#504=CARTESIAN_POINT('',(-1.18636190239453,0.,-28.6735145567577));
#505=CARTESIAN_POINT('',(6.23603907101141,-1.00095178876674,-29.3233203180532));
#506=CARTESIAN_POINT('',(0.,0.,0.));
#507=CARTESIAN_POINT('',(0.403791049212675,-1.11553007670295,-28.6735145567577));
#508=CARTESIAN_POINT('',(0.,0.,0.));
#509=MECHANICAL_DESIGN_GEOMETRIC_PRESENTATION_REPRESENTATION('',(#58,#59),
#510);
#510=(
GEOMETRIC_REPRESENTATION_CONTEXT(3)
GLOBAL_UNCERTAINTY_ASSIGNED_CONTEXT((#511))
GLOBAL_UNIT_ASSIGNED_CONTEXT((#517,#513,#512))
REPRESENTATION_CONTEXT('12L2R045A20-SZP12_115009072ndi000_00-SIM',
'TOP_LEVEL_ASSEMBLY_PART')
);
#511=UNCERTAINTY_MEASURE_WITH_UNIT(LENGTH_MEASURE(0.0508),#517,
'DISTANCE_ACCURACY_VALUE','Maximum Tolerance applied to model');
#512=(
NAMED_UNIT(*)
SI_UNIT($,.STERADIAN.)
SOLID_ANGLE_UNIT()
);
#513=(
CONVERSION_BASED_UNIT('DEGREE',#515)
NAMED_UNIT(#514)
PLANE_ANGLE_UNIT()
);
#514=DIMENSIONAL_EXPONENTS(0.,0.,0.,0.,0.,0.,0.);
#515=PLANE_ANGLE_MEASURE_WITH_UNIT(PLANE_ANGLE_MEASURE(0.0174532925),#516);
#516=(
NAMED_UNIT(*)
PLANE_ANGLE_UNIT()
SI_UNIT($,.RADIAN.)
);
#517=(
LENGTH_UNIT()
NAMED_UNIT(*)
SI_UNIT(.MILLI.,.METRE.)
);
ENDSEC;
END-ISO-10303-21;
