ISO-10303-21;
HEADER;
/* Generated by software containing ST-Developer
 * from STEP Tools, Inc. (www.steptools.com) 
 */
/* OPTION: using custom schema-name function */

FILE_DESCRIPTION(
/* description */ (''),
/* implementation_level */ '2;1');

FILE_NAME(
/* name */ '12K2R060A16_SRC12_A_SIM.stp',
/* time_stamp */ '2022-01-14T09:24:03+01:00',
/* author */ (''),
/* organization */ (''),
/* preprocessor_version */ 'ST-DEVELOPER v16.7',
/* originating_system */ 'SIEMENS PLM Software NX 12.0',
/* authorisation */ '');

FILE_SCHEMA (('AUTOMOTIVE_DESIGN { 1 0 10303 214 3 1 1 1 }'));
ENDSEC;

DATA;
#10=PROPERTY_DEFINITION_REPRESENTATION(#14,#12);
#11=PROPERTY_DEFINITION_REPRESENTATION(#15,#13);
#12=REPRESENTATION('',(#16),#381);
#13=REPRESENTATION('',(#17),#381);
#14=PROPERTY_DEFINITION('pmi validation property','',#21);
#15=PROPERTY_DEFINITION('pmi validation property','',#21);
#16=VALUE_REPRESENTATION_ITEM('number of annotations',COUNT_MEASURE(0.));
#17=VALUE_REPRESENTATION_ITEM('number of views',COUNT_MEASURE(0.));
#18=SHAPE_REPRESENTATION_RELATIONSHIP('None',
'relationship between fo3414C86DA8ouzx-None and fo3414C86DA8ouzx-None',
#30,#19);
#19=ADVANCED_BREP_SHAPE_REPRESENTATION('fo3414C86DA8ouzx-None',(#54,#55),
#381);
#20=SHAPE_DEFINITION_REPRESENTATION(#21,#30);
#21=PRODUCT_DEFINITION_SHAPE('','',#22);
#22=PRODUCT_DEFINITION(' ','',#24,#23);
#23=PRODUCT_DEFINITION_CONTEXT('part definition',#29,'design');
#24=PRODUCT_DEFINITION_FORMATION_WITH_SPECIFIED_SOURCE(' ',' ',#26,
 .NOT_KNOWN.);
#25=PRODUCT_RELATED_PRODUCT_CATEGORY('part','',(#26));
#26=PRODUCT('fo3414C86DA8ouzx','fo3414C86DA8ouzx',' ',(#27));
#27=PRODUCT_CONTEXT(' ',#29,'mechanical');
#28=APPLICATION_PROTOCOL_DEFINITION('international standard',
'automotive_design',2010,#29);
#29=APPLICATION_CONTEXT(
'core data for automotive mechanical design processes');
#30=SHAPE_REPRESENTATION('fo3414C86DA8ouzx-None',(#218),#381);
#31=TOROIDAL_SURFACE('',#235,11.7659110898434,4.);
#32=SPHERICAL_SURFACE('',#234,5.25);
#33=CONICAL_SURFACE('',#231,5.25,3.);
#34=CONICAL_SURFACE('',#236,7.,45.);
#35=CYLINDRICAL_SURFACE('',#228,8.);
#36=CYLINDRICAL_SURFACE('',#233,5.25);
#37=PRESENTATION_LAYER_ASSIGNMENT('1','Layer 1',(#54,#55));
#38=STYLED_ITEM('',(#40),#54);
#39=STYLED_ITEM('',(#41),#55);
#40=PRESENTATION_STYLE_ASSIGNMENT((#42));
#41=PRESENTATION_STYLE_ASSIGNMENT((#43));
#42=SURFACE_STYLE_USAGE(.BOTH.,#44);
#43=SURFACE_STYLE_USAGE(.BOTH.,#45);
#44=SURFACE_SIDE_STYLE('',(#46));
#45=SURFACE_SIDE_STYLE('',(#47));
#46=SURFACE_STYLE_FILL_AREA(#48);
#47=SURFACE_STYLE_FILL_AREA(#49);
#48=FILL_AREA_STYLE('',(#50));
#49=FILL_AREA_STYLE('',(#51));
#50=FILL_AREA_STYLE_COLOUR('',#52);
#51=FILL_AREA_STYLE_COLOUR('',#53);
#52=COLOUR_RGB('Light Gray',0.8,0.8,0.8);
#53=COLOUR_RGB('Medium Gray',0.490196078431373,0.490196078431373,0.490196078431373);
#54=MANIFOLD_SOLID_BREP('',#56);
#55=MANIFOLD_SOLID_BREP('',#57);
#56=CLOSED_SHELL('',(#70,#71,#72,#73,#74,#75,#76,#77));
#57=CLOSED_SHELL('',(#78,#79,#80,#81,#82,#83,#84));
#58=PLANE('',#223);
#59=PLANE('',#225);
#60=FACE_OUTER_BOUND('',#113,.T.);
#61=FACE_OUTER_BOUND('',#118,.T.);
#62=FACE_OUTER_BOUND('',#125,.T.);
#63=LINE('',#332,#65);
#64=LINE('',#345,#66);
#65=VECTOR('',#249,0.418012405020963);
#66=VECTOR('',#255,5.30925680972497);
#67=(
BOUNDED_CURVE()
B_SPLINE_CURVE(3,(#300,#301,#302,#303,#304,#305,#306),.UNSPECIFIED.,.T.,
 .F.)
B_SPLINE_CURVE_WITH_KNOTS((1,3,3,3,1),(-0.5,0.,0.5,1.,1.5),
 .UNSPECIFIED.)
CURVE()
GEOMETRIC_REPRESENTATION_ITEM()
RATIONAL_B_SPLINE_CURVE((1.,0.333333333333333,0.333333333333333,1.,0.333333333333333,
0.333333333333333,1.))
REPRESENTATION_ITEM('')
);
#68=(
BOUNDED_CURVE()
B_SPLINE_CURVE(3,(#324,#325,#326,#327,#328,#329,#330),.UNSPECIFIED.,.T.,
 .F.)
B_SPLINE_CURVE_WITH_KNOTS((1,3,3,3,1),(-0.5,0.,0.5,1.,1.5),
 .UNSPECIFIED.)
CURVE()
GEOMETRIC_REPRESENTATION_ITEM()
RATIONAL_B_SPLINE_CURVE((1.,0.333333333333333,0.333333333333333,1.,0.333333333333333,
0.333333333333333,1.))
REPRESENTATION_ITEM('')
);
#69=(
BOUNDED_CURVE()
B_SPLINE_CURVE(3,(#337,#338,#339,#340,#341,#342,#343),.UNSPECIFIED.,.T.,
 .F.)
B_SPLINE_CURVE_WITH_KNOTS((1,3,3,3,1),(-0.5,0.,0.5,1.,1.5),
 .UNSPECIFIED.)
CURVE()
GEOMETRIC_REPRESENTATION_ITEM()
RATIONAL_B_SPLINE_CURVE((1.,0.333333333333333,0.333333333333333,1.,0.333333333333333,
0.333333333333333,1.))
REPRESENTATION_ITEM('')
);
#70=ADVANCED_FACE('',(#179,#180),#85,.T.);
#71=ADVANCED_FACE('',(#181,#182),#86,.T.);
#72=ADVANCED_FACE('',(#183,#184),#87,.T.);
#73=ADVANCED_FACE('',(#185,#186),#88,.T.);
#74=ADVANCED_FACE('',(#187,#188),#89,.T.);
#75=ADVANCED_FACE('',(#60),#58,.F.);
#76=ADVANCED_FACE('',(#189,#190),#90,.T.);
#77=ADVANCED_FACE('',(#191,#192),#91,.F.);
#78=ADVANCED_FACE('',(#61),#59,.F.);
#79=ADVANCED_FACE('',(#193,#194),#35,.T.);
#80=ADVANCED_FACE('',(#195,#196),#33,.T.);
#81=ADVANCED_FACE('',(#197,#198),#36,.T.);
#82=ADVANCED_FACE('',(#62),#32,.T.);
#83=ADVANCED_FACE('',(#199,#200),#31,.F.);
#84=ADVANCED_FACE('',(#201,#202),#34,.T.);
#85=SURFACE_OF_REVOLUTION('',#99,#92);
#86=SURFACE_OF_REVOLUTION('',#100,#93);
#87=SURFACE_OF_REVOLUTION('',#101,#94);
#88=SURFACE_OF_REVOLUTION('',#102,#95);
#89=SURFACE_OF_REVOLUTION('',#63,#96);
#90=SURFACE_OF_REVOLUTION('',#64,#97);
#91=SURFACE_OF_REVOLUTION('',#103,#98);
#92=AXIS1_PLACEMENT('',#292,#241);
#93=AXIS1_PLACEMENT('',#299,#244);
#94=AXIS1_PLACEMENT('',#314,#245);
#95=AXIS1_PLACEMENT('',#323,#248);
#96=AXIS1_PLACEMENT('',#333,#250);
#97=AXIS1_PLACEMENT('',#346,#256);
#98=AXIS1_PLACEMENT('',#360,#257);
#99=B_SPLINE_CURVE_WITH_KNOTS('',3,(#288,#289,#290,#291),.UNSPECIFIED.,
 .F.,.F.,(4,4),(0.,1.),.UNSPECIFIED.);
#100=B_SPLINE_CURVE_WITH_KNOTS('',3,(#295,#296,#297,#298),.UNSPECIFIED.,
 .F.,.F.,(4,4),(0.,1.),.UNSPECIFIED.);
#101=B_SPLINE_CURVE_WITH_KNOTS('',3,(#308,#309,#310,#311,#312,#313),
 .UNSPECIFIED.,.F.,.F.,(4,2,4),(0.,0.0200073484888498,1.),.UNSPECIFIED.);
#102=B_SPLINE_CURVE_WITH_KNOTS('',3,(#317,#318,#319,#320,#321,#322),
 .UNSPECIFIED.,.F.,.F.,(4,2,4),(0.,0.985491566757788,1.),.UNSPECIFIED.);
#103=B_SPLINE_CURVE_WITH_KNOTS('',3,(#347,#348,#349,#350,#351,#352,#353,
#354,#355,#356,#357,#358,#359),.UNSPECIFIED.,.F.,.F.,(4,2,1,1,1,1,1,1,1,
4),(0.,0.0099009900990099,0.0893437376524168,0.192485427163737,0.309442270431158,
0.44158984882254,0.592033699064317,0.75711121444389,0.925804468416781,1.),
 .UNSPECIFIED.);
#104=EDGE_LOOP('',(#130));
#105=EDGE_LOOP('',(#131));
#106=EDGE_LOOP('',(#132));
#107=EDGE_LOOP('',(#133));
#108=EDGE_LOOP('',(#134));
#109=EDGE_LOOP('',(#135));
#110=EDGE_LOOP('',(#136));
#111=EDGE_LOOP('',(#137));
#112=EDGE_LOOP('',(#138));
#113=EDGE_LOOP('',(#139));
#114=EDGE_LOOP('',(#140));
#115=EDGE_LOOP('',(#141));
#116=EDGE_LOOP('',(#142));
#117=EDGE_LOOP('',(#143));
#118=EDGE_LOOP('',(#144));
#119=EDGE_LOOP('',(#145));
#120=EDGE_LOOP('',(#146));
#121=EDGE_LOOP('',(#147));
#122=EDGE_LOOP('',(#148));
#123=EDGE_LOOP('',(#149));
#124=EDGE_LOOP('',(#150));
#125=EDGE_LOOP('',(#151));
#126=EDGE_LOOP('',(#152));
#127=EDGE_LOOP('',(#153));
#128=EDGE_LOOP('',(#154));
#129=EDGE_LOOP('',(#155));
#130=ORIENTED_EDGE('',*,*,#156,.T.);
#131=ORIENTED_EDGE('',*,*,#156,.F.);
#132=ORIENTED_EDGE('',*,*,#157,.T.);
#133=ORIENTED_EDGE('',*,*,#157,.F.);
#134=ORIENTED_EDGE('',*,*,#158,.T.);
#135=ORIENTED_EDGE('',*,*,#158,.F.);
#136=ORIENTED_EDGE('',*,*,#159,.T.);
#137=ORIENTED_EDGE('',*,*,#159,.F.);
#138=ORIENTED_EDGE('',*,*,#160,.T.);
#139=ORIENTED_EDGE('',*,*,#161,.F.);
#140=ORIENTED_EDGE('',*,*,#162,.F.);
#141=ORIENTED_EDGE('',*,*,#161,.T.);
#142=ORIENTED_EDGE('',*,*,#162,.T.);
#143=ORIENTED_EDGE('',*,*,#160,.F.);
#144=ORIENTED_EDGE('',*,*,#163,.T.);
#145=ORIENTED_EDGE('',*,*,#164,.T.);
#146=ORIENTED_EDGE('',*,*,#165,.T.);
#147=ORIENTED_EDGE('',*,*,#166,.F.);
#148=ORIENTED_EDGE('',*,*,#167,.T.);
#149=ORIENTED_EDGE('',*,*,#167,.F.);
#150=ORIENTED_EDGE('',*,*,#168,.T.);
#151=ORIENTED_EDGE('',*,*,#168,.F.);
#152=ORIENTED_EDGE('',*,*,#166,.T.);
#153=ORIENTED_EDGE('',*,*,#165,.F.);
#154=ORIENTED_EDGE('',*,*,#164,.F.);
#155=ORIENTED_EDGE('',*,*,#163,.F.);
#156=EDGE_CURVE('',#205,#205,#169,.T.);
#157=EDGE_CURVE('',#206,#206,#170,.T.);
#158=EDGE_CURVE('',#207,#207,#67,.T.);
#159=EDGE_CURVE('',#208,#208,#171,.T.);
#160=EDGE_CURVE('',#209,#209,#68,.T.);
#161=EDGE_CURVE('',#210,#210,#172,.T.);
#162=EDGE_CURVE('',#211,#211,#69,.T.);
#163=EDGE_CURVE('',#212,#212,#173,.T.);
#164=EDGE_CURVE('',#213,#213,#174,.T.);
#165=EDGE_CURVE('',#214,#214,#175,.T.);
#166=EDGE_CURVE('',#215,#215,#176,.T.);
#167=EDGE_CURVE('',#216,#216,#177,.T.);
#168=EDGE_CURVE('',#217,#217,#178,.T.);
#169=CIRCLE('',#219,0.777912285945704);
#170=CIRCLE('',#220,1.40325732513115);
#171=CIRCLE('',#221,2.44905804849765);
#172=CIRCLE('',#222,5.52654802585185);
#173=CIRCLE('',#224,7.);
#174=CIRCLE('',#226,8.);
#175=CIRCLE('',#227,8.);
#176=CIRCLE('',#229,7.77139295082511);
#177=CIRCLE('',#230,5.25);
#178=CIRCLE('',#232,5.25);
#179=FACE_BOUND('',#203,.T.);
#180=FACE_BOUND('',#104,.T.);
#181=FACE_BOUND('',#105,.T.);
#182=FACE_BOUND('',#106,.T.);
#183=FACE_BOUND('',#107,.T.);
#184=FACE_BOUND('',#108,.T.);
#185=FACE_BOUND('',#109,.T.);
#186=FACE_BOUND('',#110,.T.);
#187=FACE_BOUND('',#111,.T.);
#188=FACE_BOUND('',#112,.T.);
#189=FACE_BOUND('',#114,.T.);
#190=FACE_BOUND('',#115,.T.);
#191=FACE_BOUND('',#116,.T.);
#192=FACE_BOUND('',#117,.T.);
#193=FACE_BOUND('',#119,.T.);
#194=FACE_BOUND('',#120,.T.);
#195=FACE_BOUND('',#121,.T.);
#196=FACE_BOUND('',#122,.T.);
#197=FACE_BOUND('',#123,.T.);
#198=FACE_BOUND('',#124,.T.);
#199=FACE_BOUND('',#126,.T.);
#200=FACE_BOUND('',#127,.T.);
#201=FACE_BOUND('',#128,.T.);
#202=FACE_BOUND('',#129,.T.);
#203=VERTEX_LOOP('',#204);
#204=VERTEX_POINT('',#285);
#205=VERTEX_POINT('',#287);
#206=VERTEX_POINT('',#294);
#207=VERTEX_POINT('',#307);
#208=VERTEX_POINT('',#316);
#209=VERTEX_POINT('',#331);
#210=VERTEX_POINT('',#335);
#211=VERTEX_POINT('',#344);
#212=VERTEX_POINT('',#362);
#213=VERTEX_POINT('',#365);
#214=VERTEX_POINT('',#367);
#215=VERTEX_POINT('',#370);
#216=VERTEX_POINT('',#372);
#217=VERTEX_POINT('',#375);
#218=AXIS2_PLACEMENT_3D('',#284,#237,#238);
#219=AXIS2_PLACEMENT_3D('',#286,#239,#240);
#220=AXIS2_PLACEMENT_3D('',#293,#242,#243);
#221=AXIS2_PLACEMENT_3D('',#315,#246,#247);
#222=AXIS2_PLACEMENT_3D('',#334,#251,#252);
#223=AXIS2_PLACEMENT_3D('',#336,#253,#254);
#224=AXIS2_PLACEMENT_3D('',#361,#258,#259);
#225=AXIS2_PLACEMENT_3D('',#363,#260,#261);
#226=AXIS2_PLACEMENT_3D('',#364,#262,#263);
#227=AXIS2_PLACEMENT_3D('',#366,#264,#265);
#228=AXIS2_PLACEMENT_3D('',#368,#266,#267);
#229=AXIS2_PLACEMENT_3D('',#369,#268,#269);
#230=AXIS2_PLACEMENT_3D('',#371,#270,#271);
#231=AXIS2_PLACEMENT_3D('',#373,#272,#273);
#232=AXIS2_PLACEMENT_3D('',#374,#274,#275);
#233=AXIS2_PLACEMENT_3D('',#376,#276,#277);
#234=AXIS2_PLACEMENT_3D('',#377,#278,#279);
#235=AXIS2_PLACEMENT_3D('',#378,#280,#281);
#236=AXIS2_PLACEMENT_3D('',#379,#282,#283);
#237=DIRECTION('',(0.,0.,1.));
#238=DIRECTION('',(1.,0.,0.));
#239=DIRECTION('',(-1.,-1.44560289664734E-16,3.41155531863943E-18));
#240=DIRECTION('',(0.,3.89942557264319E-17,1.));
#241=DIRECTION('',(-1.,-1.44560289664734E-16,3.41155531863943E-18));
#242=DIRECTION('',(-1.,-1.44560289664734E-16,3.41155531863943E-18));
#243=DIRECTION('',(0.,3.89942557264276E-17,1.));
#244=DIRECTION('',(-1.,-1.44560289664734E-16,3.41155531863943E-18));
#245=DIRECTION('',(-1.,-1.44560289664734E-16,3.41155531863943E-18));
#246=DIRECTION('',(-1.,-1.44560289664734E-16,3.41155531863943E-18));
#247=DIRECTION('',(0.,3.89942557264251E-17,1.));
#248=DIRECTION('',(-1.,-1.44560289664734E-16,3.41155531863943E-18));
#249=DIRECTION('',(-0.423420870697756,0.905933091490511,-9.37123092351773E-15));
#250=DIRECTION('',(-1.,-1.44560289664734E-16,3.41155531863943E-18));
#251=DIRECTION('',(-1.,-1.44560289664734E-16,3.41155531863943E-18));
#252=DIRECTION('',(0.,3.89942557264246E-17,1.));
#253=DIRECTION('',(-1.,-1.44560289664734E-16,3.41155531863943E-18));
#254=DIRECTION('',(-3.46944695195361E-18,-3.89942557264255E-17,-1.));
#255=DIRECTION('',(-0.996194698091749,-0.0871557427476194,6.79714664140253E-18));
#256=DIRECTION('',(-1.,-1.44560289664734E-16,3.41155531863943E-18));
#257=DIRECTION('',(-1.,-1.44560289664734E-16,3.41155531863943E-18));
#258=DIRECTION('',(1.,0.,0.));
#259=DIRECTION('',(0.,0.,1.));
#260=DIRECTION('',(-1.,0.,0.));
#261=DIRECTION('',(0.,0.,-1.));
#262=DIRECTION('',(-1.,0.,0.));
#263=DIRECTION('',(0.,0.,1.));
#264=DIRECTION('',(1.,0.,0.));
#265=DIRECTION('',(0.,0.,-1.));
#266=DIRECTION('',(1.,0.,0.));
#267=DIRECTION('',(0.,0.,1.));
#268=DIRECTION('',(1.,0.,0.));
#269=DIRECTION('',(0.,0.,-1.));
#270=DIRECTION('',(1.,0.,0.));
#271=DIRECTION('',(0.,0.,-1.));
#272=DIRECTION('',(1.,0.,0.));
#273=DIRECTION('',(6.31817483234701E-16,0.,1.));
#274=DIRECTION('',(1.,0.,0.));
#275=DIRECTION('',(0.,0.,-1.));
#276=DIRECTION('',(1.,0.,0.));
#277=DIRECTION('',(0.,0.,1.));
#278=DIRECTION('',(1.,3.69778549322349E-32,0.));
#279=DIRECTION('',(0.,-1.,0.));
#280=DIRECTION('',(1.,0.,0.));
#281=DIRECTION('',(0.,0.,1.));
#282=DIRECTION('',(-1.,0.,0.));
#283=DIRECTION('',(2.75626371555401E-17,0.,-1.));
#284=CARTESIAN_POINT('',(0.,0.,0.));
#285=CARTESIAN_POINT('',(-4.70110061989715E-13,-5.36669910984959E-14,-5.36690361748436E-13));
#286=CARTESIAN_POINT('',(0.0506934143552603,-6.60856361800531E-14,-2.22217548312395E-16));
#287=CARTESIAN_POINT('',(0.0506934143552603,-6.60553020694422E-14,0.777912285945704));
#288=CARTESIAN_POINT('',(0.0506935219398112,-0.659309868787933,0.412865604335164));
#289=CARTESIAN_POINT('',(0.0289163836062551,-0.46964136413532,0.235505045536744));
#290=CARTESIAN_POINT('',(0.00961868696093043,-0.251401856450291,0.0783379187953613));
#291=CARTESIAN_POINT('',(-4.70110061989715E-13,-5.36669910984959E-14,-5.36690361748436E-13));
#292=CARTESIAN_POINT('',(6.,-6.5225602696728E-14,-2.42513936836868E-16));
#293=CARTESIAN_POINT('',(0.16642009332748,-6.60689066978189E-14,-2.22612356279551E-16));
#294=CARTESIAN_POINT('',(0.16642009332748,-6.60141877228328E-14,1.40325732513115));
#295=CARTESIAN_POINT('',(0.166428903934371,-1.19000354960108,0.743725185790247));
#296=CARTESIAN_POINT('',(0.11680709709619,-1.01469235774772,0.635112163699227));
#297=CARTESIAN_POINT('',(0.0781233559834209,-0.837357933693251,0.524820932542893));
#298=CARTESIAN_POINT('',(0.0506917902297907,-0.659297784825201,0.412851492320352));
#299=CARTESIAN_POINT('',(6.,-6.5225602696728E-14,-2.42513936836868E-16));
#300=CARTESIAN_POINT('',(0.29933748682238,-1.57853267067584,0.956429664924191));
#301=CARTESIAN_POINT('',(0.29933748682238,0.334326659172544,4.11349500627574));
#302=CARTESIAN_POINT('',(0.29933748682238,3.49139200052409,2.20063567642735));
#303=CARTESIAN_POINT('',(0.29933748682238,1.57853267067571,-0.956429664924191));
#304=CARTESIAN_POINT('',(0.299337486822381,-0.334326659172675,-4.11349500627574));
#305=CARTESIAN_POINT('',(0.299337486822381,-3.49139200052422,-2.20063567642735));
#306=CARTESIAN_POINT('',(0.29933748682238,-1.57853267067584,0.956429664924191));
#307=CARTESIAN_POINT('',(0.299336620113405,-1.57853293975556,0.956429827959035));
#308=CARTESIAN_POINT('',(0.29933748682238,-1.57853375729879,0.956427871512627));
#309=CARTESIAN_POINT('',(0.298341465594361,-1.57598009353415,0.95500802621865));
#310=CARTESIAN_POINT('',(0.29734544436633,-1.57342642976952,0.953588180924674));
#311=CARTESIAN_POINT('',(0.247562674371531,-1.44579013823101,0.882621990938649));
#312=CARTESIAN_POINT('',(0.20424996089327,-1.31881179191624,0.813129219896305));
#313=CARTESIAN_POINT('',(0.16641128272059,-1.18993772704553,0.743690022499379));
#314=CARTESIAN_POINT('',(6.,-6.5225602696728E-14,-2.42513936836868E-16));
#315=CARTESIAN_POINT('',(0.50665008135934,-6.60197229521964E-14,-2.23773069704782E-16));
#316=CARTESIAN_POINT('',(0.50665008135934,-6.59242237563645E-14,2.44905804849765));
#317=CARTESIAN_POINT('',(0.506650081357251,-2.1060354519627,1.25000000000053));
#318=CARTESIAN_POINT('',(0.438636102704131,-1.93271870051375,1.15356149617203));
#319=CARTESIAN_POINT('',(0.37053519000847,-1.75943562229909,1.05712387680106));
#320=CARTESIAN_POINT('',(0.30134348001514,-1.58363563489478,0.959267397681177));
#321=CARTESIAN_POINT('',(0.30033961670979,-1.58108505251354,0.957847653486548));
#322=CARTESIAN_POINT('',(0.29933575340443,-1.5785344701323,0.956427909291919));
#323=CARTESIAN_POINT('',(6.,-6.5225602696728E-14,-2.42513936836868E-16));
#324=CARTESIAN_POINT('',(0.683645257855653,9.53351467876302E-14,2.78143252382972));
#325=CARTESIAN_POINT('',(0.683645257855653,5.56286504765954,2.7814325238294));
#326=CARTESIAN_POINT('',(0.683645257855653,5.56286504765922,-2.78143252383005));
#327=CARTESIAN_POINT('',(0.683645257855654,-2.2775710061305E-13,-2.78143252382972));
#328=CARTESIAN_POINT('',(0.683645257855654,-5.56286504765967,-2.7814325238294));
#329=CARTESIAN_POINT('',(0.683645257855654,-5.56286504765935,2.78143252383005));
#330=CARTESIAN_POINT('',(0.683645257855653,9.53351467876302E-14,2.78143252382972));
#331=CARTESIAN_POINT('',(0.689261032129839,-6.31005664386564E-14,2.79211370432895));
#332=CARTESIAN_POINT('',(0.68364525785583,-2.48472672232192,1.24999999999974));
#333=CARTESIAN_POINT('',(6.,-6.5225602696728E-14,-2.42513936836868E-16));
#334=CARTESIAN_POINT('',(11.7999999999998,-6.43871530166726E-14,-2.62300957684976E-16));
#335=CARTESIAN_POINT('',(11.7999999999998,-6.41716493896681E-14,5.52654802585185));
#336=CARTESIAN_POINT('',(11.7999999999998,-6.43871530166726E-14,-2.62300957684976E-16));
#337=CARTESIAN_POINT('',(6.51146016738445,-3.54445263406761E-14,5.9842086866641));
#338=CARTESIAN_POINT('',(6.51146016738445,11.9684173733282,5.98420868666404));
#339=CARTESIAN_POINT('',(6.51146016738445,11.9684173733281,-5.98420868666415));
#340=CARTESIAN_POINT('',(6.51146016738445,-9.39914436548934E-14,-5.98420868666409));
#341=CARTESIAN_POINT('',(6.51146016738445,-11.9684173733283,-5.98420868666404));
#342=CARTESIAN_POINT('',(6.51146016738445,-11.9684173733282,5.98420868666415));
#343=CARTESIAN_POINT('',(6.51146016738445,-3.54445263406761E-14,5.9842086866641));
#344=CARTESIAN_POINT('',(6.51146016738445,-5.22585447138013E-14,5.98118482473333));
#345=CARTESIAN_POINT('',(11.7999999999998,-5.38332918202554,1.24999999999994));
#346=CARTESIAN_POINT('',(6.,-6.5225602696728E-14,-2.42513936836868E-16));
#347=CARTESIAN_POINT('',(0.66428076038926,-2.4439156016281,1.25));
#348=CARTESIAN_POINT('',(0.67447944239413,-2.46548272868706,1.25));
#349=CARTESIAN_POINT('',(0.68467812439899,-2.48704985574601,1.25));
#350=CARTESIAN_POINT('',(0.776708149712721,-2.68166551767505,1.25));
#351=CARTESIAN_POINT('',(0.984254966612341,-3.0701995428281,1.25));
#352=CARTESIAN_POINT('',(1.39452517994462,-3.66593408250505,1.25));
#353=CARTESIAN_POINT('',(1.96769850832931,-4.29533350131001,1.25));
#354=CARTESIAN_POINT('',(2.72005608370689,-4.90203584694321,1.25));
#355=CARTESIAN_POINT('',(3.66933731522139,-5.42614825164907,1.25));
#356=CARTESIAN_POINT('',(4.78770843601864,-5.78426662586683,1.25));
#357=CARTESIAN_POINT('',(5.77200598081179,-5.88703799939504,1.25));
#358=CARTESIAN_POINT('',(6.35802211680057,-5.86012665674856,1.25));
#359=CARTESIAN_POINT('',(6.53703317581892,-5.85088874530379,1.25));
#360=CARTESIAN_POINT('',(6.,-6.5225602696728E-14,-2.42513936836868E-16));
#361=CARTESIAN_POINT('',(160.,0.,0.));
#362=CARTESIAN_POINT('',(160.,0.,7.));
#363=CARTESIAN_POINT('',(160.,-8.,0.));
#364=CARTESIAN_POINT('',(159.,0.,0.));
#365=CARTESIAN_POINT('',(159.,0.,8.));
#366=CARTESIAN_POINT('',(60.,0.,0.));
#367=CARTESIAN_POINT('',(60.,0.,-8.));
#368=CARTESIAN_POINT('',(0.,0.,0.));
#369=CARTESIAN_POINT('',(58.8610435381683,0.,0.));
#370=CARTESIAN_POINT('',(58.8610435381683,0.,-7.77139295082511));
#371=CARTESIAN_POINT('',(10.75,0.,0.));
#372=CARTESIAN_POINT('',(10.75,0.,-5.25));
#373=CARTESIAN_POINT('',(10.75,0.,0.));
#374=CARTESIAN_POINT('',(6.,0.,0.));
#375=CARTESIAN_POINT('',(6.,0.,-5.25));
#376=CARTESIAN_POINT('',(0.,0.,0.));
#377=CARTESIAN_POINT('',(6.,0.,0.));
#378=CARTESIAN_POINT('',(58.6516997131965,0.,0.));
#379=CARTESIAN_POINT('',(160.,0.,0.));
#380=MECHANICAL_DESIGN_GEOMETRIC_PRESENTATION_REPRESENTATION('',(#38,#39),
#381);
#381=(
GEOMETRIC_REPRESENTATION_CONTEXT(3)
GLOBAL_UNCERTAINTY_ASSIGNED_CONTEXT((#382))
GLOBAL_UNIT_ASSIGNED_CONTEXT((#388,#384,#383))
REPRESENTATION_CONTEXT('12K2R060A16_SRC12_A_SIM',
'TOP_LEVEL_ASSEMBLY_PART')
);
#382=UNCERTAINTY_MEASURE_WITH_UNIT(LENGTH_MEASURE(0.0508),#388,
'DISTANCE_ACCURACY_VALUE','Maximum Tolerance applied to model');
#383=(
NAMED_UNIT(*)
SI_UNIT($,.STERADIAN.)
SOLID_ANGLE_UNIT()
);
#384=(
CONVERSION_BASED_UNIT('DEGREE',#386)
NAMED_UNIT(#385)
PLANE_ANGLE_UNIT()
);
#385=DIMENSIONAL_EXPONENTS(0.,0.,0.,0.,0.,0.,0.);
#386=PLANE_ANGLE_MEASURE_WITH_UNIT(PLANE_ANGLE_MEASURE(0.0174532925),#387);
#387=(
NAMED_UNIT(*)
PLANE_ANGLE_UNIT()
SI_UNIT($,.RADIAN.)
);
#388=(
LENGTH_UNIT()
NAMED_UNIT(*)
SI_UNIT(.MILLI.,.METRE.)
);
ENDSEC;
END-ISO-10303-21;
