ISO-10303-21;
HEADER;
/* Generated by software containing ST-Developer
 * from STEP Tools, Inc. (www.steptools.com) 
 */
/* OPTION: using custom schema-name function */

FILE_DESCRIPTION(
/* description */ ('12903/4'),
/* implementation_level */ '2;1');

FILE_NAME(
/* name */ 'CAPP~~210910152606~6000247~MOD~TM01_00~ISO~FR.STP',
/* time_stamp */ '2021-09-10T15:27:19+02:00',
/* author */ ('System'),
/* organization */ ('Dormer Pramet'),
/* preprocessor_version */ 'ST-DEVELOPER v16.7',
/* originating_system */ 'SIEMENS PLM Software NX 12.0',
/* authorisation */ '');

FILE_SCHEMA (('AUTOMOTIVE_DESIGN { 1 0 10303 214 3 1 1 1 }'));
ENDSEC;

DATA;
#10=CONSTRUCTIVE_GEOMETRY_REPRESENTATION_RELATIONSHIP(
'supplemental geometry','',#26,#11);
#11=CONSTRUCTIVE_GEOMETRY_REPRESENTATION('supplemental geometry',(#135,
#136,#137),#213);
#12=GEOMETRICALLY_BOUNDED_WIREFRAME_SHAPE_REPRESENTATION(
'CAPP~~210910152606~6000247~MOD~TM01_00~ISO~FR-None',(#27),#213);
#13=SHAPE_REPRESENTATION_RELATIONSHIP('None',
'relationship between CAPP~~210910152606~6000247~MOD~TM01_00~ISO~FR-No
ne and CAPP~~210910152606~6000247~MOD~TM01_00~ISO~FR-None',#26,#15);
#14=SHAPE_REPRESENTATION_RELATIONSHIP('None',
'relationship between CAPP~~210910152606~6000247~MOD~TM01_00~ISO~FR-No
ne and CAPP~~210910152606~6000247~MOD~TM01_00~ISO~FR-None',#26,#12);
#15=ADVANCED_BREP_SHAPE_REPRESENTATION(
'CAPP~~210910152606~6000247~MOD~TM01_00~ISO~FR-None',(#39,#40),#213);
#16=SHAPE_DEFINITION_REPRESENTATION(#17,#26);
#17=PRODUCT_DEFINITION_SHAPE('','',#18);
#18=PRODUCT_DEFINITION(' ','',#20,#19);
#19=PRODUCT_DEFINITION_CONTEXT('part definition',#25,'design');
#20=PRODUCT_DEFINITION_FORMATION_WITH_SPECIFIED_SOURCE(' ',' ',#22,
 .NOT_KNOWN.);
#21=PRODUCT_RELATED_PRODUCT_CATEGORY('part','',(#22));
#22=PRODUCT('CAPP~~210910152606~6000247~MOD~TM01_00~ISO~FR',
'CAPP~~210910152606~6000247~MOD~TM01_00~ISO~FR',' ',(#23));
#23=PRODUCT_CONTEXT(' ',#25,'mechanical');
#24=APPLICATION_PROTOCOL_DEFINITION('international standard',
'automotive_design',2010,#25);
#25=APPLICATION_CONTEXT(
'core data for automotive mechanical design processes');
#26=SHAPE_REPRESENTATION(
'CAPP~~210910152606~6000247~MOD~TM01_00~ISO~FR-None',(#134),#213);
#27=GEOMETRIC_CURVE_SET('None',(#183,#112));
#28=CYLINDRICAL_SURFACE('',#146,9.525);
#29=SURFACE_STYLE_USAGE(.BOTH.,#31);
#30=SURFACE_STYLE_USAGE(.BOTH.,#32);
#31=SURFACE_SIDE_STYLE('',(#33));
#32=SURFACE_SIDE_STYLE('',(#34));
#33=SURFACE_STYLE_FILL_AREA(#35);
#34=SURFACE_STYLE_FILL_AREA(#36);
#35=FILL_AREA_STYLE('',(#37));
#36=FILL_AREA_STYLE('',(#38));
#37=FILL_AREA_STYLE_COLOUR('',#132);
#38=FILL_AREA_STYLE_COLOUR('',#133);
#39=MANIFOLD_SOLID_BREP('CUT',#41);
#40=MANIFOLD_SOLID_BREP('NOCUT',#42);
#41=CLOSED_SHELL('',(#55,#56,#57));
#42=CLOSED_SHELL('',(#58,#59,#60,#61));
#43=VERTEX_LOOP('',#90);
#44=CONICAL_SURFACE('',#141,9.52499999999997,0.000257073770310695);
#45=CONICAL_SURFACE('',#142,4.28624999999997,59.0000000000003);
#46=CONICAL_SURFACE('',#148,9.525,44.9999999999998);
#47=FACE_BOUND('',#69,.T.);
#48=FACE_BOUND('',#70,.T.);
#49=FACE_BOUND('',#71,.T.);
#50=FACE_BOUND('',#43,.T.);
#51=FACE_BOUND('',#73,.T.);
#52=FACE_BOUND('',#74,.T.);
#53=FACE_BOUND('',#75,.T.);
#54=FACE_BOUND('',#76,.T.);
#55=ADVANCED_FACE('',(#65),#62,.F.);
#56=ADVANCED_FACE('',(#47,#48),#44,.T.);
#57=ADVANCED_FACE('',(#49,#50),#45,.T.);
#58=ADVANCED_FACE('',(#66),#63,.F.);
#59=ADVANCED_FACE('',(#51,#52),#28,.T.);
#60=ADVANCED_FACE('',(#53,#54),#46,.T.);
#61=ADVANCED_FACE('',(#67),#64,.F.);
#62=PLANE('',#139);
#63=PLANE('',#144);
#64=PLANE('',#149);
#65=FACE_OUTER_BOUND('',#68,.T.);
#66=FACE_OUTER_BOUND('',#72,.T.);
#67=FACE_OUTER_BOUND('',#77,.T.);
#68=EDGE_LOOP('',(#78));
#69=EDGE_LOOP('',(#79));
#70=EDGE_LOOP('',(#80));
#71=EDGE_LOOP('',(#81));
#72=EDGE_LOOP('',(#82));
#73=EDGE_LOOP('',(#83));
#74=EDGE_LOOP('',(#84));
#75=EDGE_LOOP('',(#85));
#76=EDGE_LOOP('',(#86));
#77=EDGE_LOOP('',(#87));
#78=ORIENTED_EDGE('',*,*,#94,.T.);
#79=ORIENTED_EDGE('',*,*,#94,.F.);
#80=ORIENTED_EDGE('',*,*,#95,.T.);
#81=ORIENTED_EDGE('',*,*,#95,.F.);
#82=ORIENTED_EDGE('',*,*,#96,.F.);
#83=ORIENTED_EDGE('',*,*,#97,.F.);
#84=ORIENTED_EDGE('',*,*,#96,.T.);
#85=ORIENTED_EDGE('',*,*,#98,.F.);
#86=ORIENTED_EDGE('',*,*,#97,.T.);
#87=ORIENTED_EDGE('',*,*,#98,.T.);
#88=VERTEX_POINT('',#195);
#89=VERTEX_POINT('',#198);
#90=VERTEX_POINT('',#200);
#91=VERTEX_POINT('',#203);
#92=VERTEX_POINT('',#206);
#93=VERTEX_POINT('',#209);
#94=EDGE_CURVE('',#88,#88,#99,.T.);
#95=EDGE_CURVE('',#89,#89,#100,.T.);
#96=EDGE_CURVE('',#91,#91,#101,.T.);
#97=EDGE_CURVE('',#92,#92,#102,.T.);
#98=EDGE_CURVE('',#93,#93,#103,.T.);
#99=CIRCLE('',#138,9.52399999999999);
#100=CIRCLE('',#140,9.52499999999997);
#101=CIRCLE('',#143,9.52499999999999);
#102=CIRCLE('',#145,9.525);
#103=CIRCLE('',#147,6.77536934298441);
#104=CURVE_STYLE('',#108,POSITIVE_LENGTH_MEASURE(0.18),#130);
#105=CURVE_STYLE('',#109,POSITIVE_LENGTH_MEASURE(0.13),#131);
#106=CURVE_STYLE('',#110,POSITIVE_LENGTH_MEASURE(0.13),#131);
#107=CURVE_STYLE('',#111,POSITIVE_LENGTH_MEASURE(0.13),#131);
#108=DRAUGHTING_PRE_DEFINED_CURVE_FONT('continuous');
#109=DRAUGHTING_PRE_DEFINED_CURVE_FONT('continuous');
#110=DRAUGHTING_PRE_DEFINED_CURVE_FONT('continuous');
#111=DRAUGHTING_PRE_DEFINED_CURVE_FONT('continuous');
#112=B_SPLINE_CURVE_WITH_KNOTS('CUTTING PART LINE',3,(#184,#185,#186,#187,
#188,#189,#190),.UNSPECIFIED.,.F.,.F.,(4,3,4),(0.,0.0474901977003849,1.),
 .UNSPECIFIED.);
#113=PRESENTATION_LAYER_ASSIGNMENT('1','Layer 1',(#183,#112,#135,#136,#137,
#39,#40));
#114=STYLED_ITEM('',(#121),#183);
#115=STYLED_ITEM('',(#122),#112);
#116=STYLED_ITEM('',(#123),#135);
#117=STYLED_ITEM('',(#124),#136);
#118=STYLED_ITEM('',(#125),#137);
#119=STYLED_ITEM('',(#126),#39);
#120=STYLED_ITEM('',(#127),#40);
#121=PRESENTATION_STYLE_ASSIGNMENT((#128));
#122=PRESENTATION_STYLE_ASSIGNMENT((#104));
#123=PRESENTATION_STYLE_ASSIGNMENT((#105));
#124=PRESENTATION_STYLE_ASSIGNMENT((#106));
#125=PRESENTATION_STYLE_ASSIGNMENT((#107));
#126=PRESENTATION_STYLE_ASSIGNMENT((#29));
#127=PRESENTATION_STYLE_ASSIGNMENT((#30));
#128=POINT_STYLE('',#129,POSITIVE_LENGTH_MEASURE(3.),#130);
#129=PRE_DEFINED_POINT_MARKER_SYMBOL('plus');
#130=COLOUR_RGB('BLUE',0.,0.,0.998992904554818);
#131=COLOUR_RGB('Deep Lemon',1.,0.909788662546731,0.384298466468299);
#132=COLOUR_RGB('LIGHT GREY',0.8,0.8,0.8);
#133=COLOUR_RGB('GREY',0.499992370489052,0.499992370489052,0.499992370489052);
#134=AXIS2_PLACEMENT_3D('',#182,#150,#151);
#135=AXIS2_PLACEMENT_3D('PCS',#191,#152,#153);
#136=AXIS2_PLACEMENT_3D('CIP',#192,#154,#155);
#137=AXIS2_PLACEMENT_3D('MCS',#193,#156,#157);
#138=AXIS2_PLACEMENT_3D('',#194,#158,#159);
#139=AXIS2_PLACEMENT_3D('',#196,#160,#161);
#140=AXIS2_PLACEMENT_3D('',#197,#162,#163);
#141=AXIS2_PLACEMENT_3D('',#199,#164,#165);
#142=AXIS2_PLACEMENT_3D('',#201,#166,#167);
#143=AXIS2_PLACEMENT_3D('',#202,#168,#169);
#144=AXIS2_PLACEMENT_3D('',#204,#170,#171);
#145=AXIS2_PLACEMENT_3D('',#205,#172,#173);
#146=AXIS2_PLACEMENT_3D('',#207,#174,#175);
#147=AXIS2_PLACEMENT_3D('',#208,#176,#177);
#148=AXIS2_PLACEMENT_3D('',#210,#178,#179);
#149=AXIS2_PLACEMENT_3D('',#211,#180,#181);
#150=DIRECTION('',(0.,0.,1.));
#151=DIRECTION('',(1.,0.,0.));
#152=DIRECTION('',(0.,0.,1.));
#153=DIRECTION('',(1.,0.,0.));
#154=DIRECTION('',(0.,0.,1.));
#155=DIRECTION('',(1.,0.,0.));
#156=DIRECTION('',(0.,0.,1.));
#157=DIRECTION('',(1.,0.,0.));
#158=DIRECTION('',(0.,0.,1.));
#159=DIRECTION('',(0.969629993772144,0.244576522130461,0.));
#160=DIRECTION('',(0.,0.,-1.));
#161=DIRECTION('',(-0.969629993772144,-0.244576522130461,0.));
#162=DIRECTION('',(0.,0.,1.));
#163=DIRECTION('',(0.969629993772144,0.244576522130461,0.));
#164=DIRECTION('',(0.,0.,-1.));
#165=DIRECTION('',(-0.969629993772144,-0.244576522130461,1.16503968138423E-14));
#166=DIRECTION('',(0.,0.,1.));
#167=DIRECTION('',(0.969629993772144,0.244576522130461,3.32687829762981E-17));
#168=DIRECTION('',(0.,0.,1.));
#169=DIRECTION('',(0.969629993772144,0.244576522130461,0.));
#170=DIRECTION('',(0.,0.,1.));
#171=DIRECTION('',(0.969629993772144,0.244576522130461,0.));
#172=DIRECTION('',(0.,0.,1.));
#173=DIRECTION('',(0.969629993772144,0.244576522130461,0.));
#174=DIRECTION('',(0.,0.,1.));
#175=DIRECTION('',(0.969629993772144,0.244576522130461,0.));
#176=DIRECTION('',(0.,0.,1.));
#177=DIRECTION('',(0.969629993772144,0.244576522130461,0.));
#178=DIRECTION('',(0.,0.,-1.));
#179=DIRECTION('',(-0.969629993772144,-0.244576522130461,0.));
#180=DIRECTION('',(0.,0.,-1.));
#181=DIRECTION('',(-0.969629993772144,-0.244576522130461,0.));
#182=CARTESIAN_POINT('',(0.,0.,0.));
#183=CARTESIAN_POINT('CRP',(-4.44089209850063E-16,9.52499999999997,-299.076802603763));
#184=CARTESIAN_POINT('',(-5.00884808057128E-17,2.38032946526123E-14,-304.8));
#185=CARTESIAN_POINT('',(-1.11022302462516E-16,3.17500000000002,-302.892267534588));
#186=CARTESIAN_POINT('',(0.,6.35000000000001,-300.984535069175));
#187=CARTESIAN_POINT('',(-8.88178419700125E-16,9.52499999999998,-299.076802603763));
#188=CARTESIAN_POINT('',(0.,9.52466666666664,-224.784535650952));
#189=CARTESIAN_POINT('',(0.,9.52433333333332,-150.492268698142));
#190=CARTESIAN_POINT('',(-4.44089209850063E-16,9.52399999999999,-76.2000017453311));
#191=CARTESIAN_POINT('',(0.,0.,0.));
#192=CARTESIAN_POINT('',(0.,0.,-304.8));
#193=CARTESIAN_POINT('',(0.,0.,-66.7));
#194=CARTESIAN_POINT('',(0.,0.,-76.200001745331));
#195=CARTESIAN_POINT('',(9.23475606068589,2.3293467967705,-76.200001745331));
#196=CARTESIAN_POINT('',(0.,0.,-76.2));
#197=CARTESIAN_POINT('',(0.,0.,-299.076802603763));
#198=CARTESIAN_POINT('',(9.23572569067964,2.32959137329263,-299.076802603763));
#199=CARTESIAN_POINT('',(0.,0.,-299.076802603763));
#200=CARTESIAN_POINT('',(0.,0.,-304.8));
#201=CARTESIAN_POINT('',(0.,0.,-302.224561171693));
#202=CARTESIAN_POINT('',(0.,0.,-76.2));
#203=CARTESIAN_POINT('',(9.23572569067966,2.32959137329264,-76.2));
#204=CARTESIAN_POINT('',(-2.3293467967705,9.23475606068589,-76.2000008726655));
#205=CARTESIAN_POINT('',(0.,0.,-2.74963065701561));
#206=CARTESIAN_POINT('',(9.23572569067967,2.32959137329264,-2.74963065701561));
#207=CARTESIAN_POINT('',(0.,0.,-304.8));
#208=CARTESIAN_POINT('',(0.,0.,0.));
#209=CARTESIAN_POINT('',(6.56960133384195,1.65709627005647,0.));
#210=CARTESIAN_POINT('',(0.,0.,-2.74963065701561));
#211=CARTESIAN_POINT('',(-1.65709627005647,6.56960133384195,-2.22044604925031E-16));
#212=MECHANICAL_DESIGN_GEOMETRIC_PRESENTATION_REPRESENTATION('',(#114,#115,
#116,#117,#118,#119,#120),#213);
#213=(
GEOMETRIC_REPRESENTATION_CONTEXT(3)
GLOBAL_UNCERTAINTY_ASSIGNED_CONTEXT((#214))
GLOBAL_UNIT_ASSIGNED_CONTEXT((#220,#216,#215))
REPRESENTATION_CONTEXT('CAPP~~210910152606~6000247~MOD~TM01_00~ISO~FR',
'TOP_LEVEL_ASSEMBLY_PART')
);
#214=UNCERTAINTY_MEASURE_WITH_UNIT(LENGTH_MEASURE(2.E-5),#220,
'DISTANCE_ACCURACY_VALUE','Maximum Tolerance applied to model');
#215=(
NAMED_UNIT(*)
SI_UNIT($,.STERADIAN.)
SOLID_ANGLE_UNIT()
);
#216=(
CONVERSION_BASED_UNIT('DEGREE',#218)
NAMED_UNIT(#217)
PLANE_ANGLE_UNIT()
);
#217=DIMENSIONAL_EXPONENTS(0.,0.,0.,0.,0.,0.,0.);
#218=PLANE_ANGLE_MEASURE_WITH_UNIT(PLANE_ANGLE_MEASURE(0.0174532925),#219);
#219=(
NAMED_UNIT(*)
PLANE_ANGLE_UNIT()
SI_UNIT($,.RADIAN.)
);
#220=(
LENGTH_UNIT()
NAMED_UNIT(*)
SI_UNIT(.MILLI.,.METRE.)
);
ENDSEC;
END-ISO-10303-21;
