ISO-10303-21;
HEADER;
/* Generated by software containing ST-Developer
 * from STEP Tools, Inc. (www.steptools.com) 
 */
/* OPTION: using custom schema-name function */

FILE_DESCRIPTION(
/* description */ (''),
/* implementation_level */ '2;1');

FILE_NAME(
/* name */ '125N3R177C100_ISOD05_C_SIM.stp',
/* time_stamp */ '2017-09-22T12:13:16+02:00',
/* author */ (''),
/* organization */ (''),
/* preprocessor_version */ 'ST-DEVELOPER v15',
/* originating_system */ 'SIEMENS PLM Software NX 8.5',
/* authorisation */ '');

FILE_SCHEMA (('AUTOMOTIVE_DESIGN { 1 0 10303 214 3 1 1 1 }'));
ENDSEC;

DATA;
#10=PROPERTY_DEFINITION_REPRESENTATION(#14,#12);
#11=PROPERTY_DEFINITION_REPRESENTATION(#15,#13);
#12=REPRESENTATION('',(#16),#606);
#13=REPRESENTATION('',(#17),#606);
#14=PROPERTY_DEFINITION('pmi validation property','',#21);
#15=PROPERTY_DEFINITION('pmi validation property','',#21);
#16=VALUE_REPRESENTATION_ITEM('number of annotations',COUNT_MEASURE(0.));
#17=VALUE_REPRESENTATION_ITEM('number of views',COUNT_MEASURE(0.));
#18=SHAPE_REPRESENTATION_RELATIONSHIP('None',
'relationship between hm151240084Anxr2-None and hm151240084Anxr2-None',
#30,#19);
#19=ADVANCED_BREP_SHAPE_REPRESENTATION('hm151240084Anxr2-None',(#73,#74,
#353),#606);
#20=SHAPE_DEFINITION_REPRESENTATION(#21,#30);
#21=PRODUCT_DEFINITION_SHAPE('','',#22);
#22=PRODUCT_DEFINITION(' ','',#24,#23);
#23=PRODUCT_DEFINITION_CONTEXT('part definition',#29,'design');
#24=PRODUCT_DEFINITION_FORMATION_WITH_SPECIFIED_SOURCE(' ',' ',#26,
 .NOT_KNOWN.);
#25=PRODUCT_RELATED_PRODUCT_CATEGORY('part','',(#26));
#26=PRODUCT('hm151240084Anxr2','hm151240084Anxr2',' ',(#27));
#27=PRODUCT_CONTEXT(' ',#29,'mechanical');
#28=APPLICATION_PROTOCOL_DEFINITION('international standard',
'automotive_design',2010,#29);
#29=APPLICATION_CONTEXT(
'core data for automotive mechanical design processes');
#30=SHAPE_REPRESENTATION('hm151240084Anxr2-None',(#352),#606);
#31=SURFACE_OF_REVOLUTION('',#47,#39);
#32=SURFACE_OF_REVOLUTION('',#48,#40);
#33=SURFACE_OF_REVOLUTION('',#49,#41);
#34=SURFACE_OF_REVOLUTION('',#50,#42);
#35=SURFACE_OF_REVOLUTION('',#51,#43);
#36=SURFACE_OF_REVOLUTION('',#52,#44);
#37=SURFACE_OF_REVOLUTION('',#53,#45);
#38=SURFACE_OF_REVOLUTION('',#54,#46);
#39=AXIS1_PLACEMENT('',#578,#467);
#40=AXIS1_PLACEMENT('',#582,#471);
#41=AXIS1_PLACEMENT('',#586,#475);
#42=AXIS1_PLACEMENT('',#590,#479);
#43=AXIS1_PLACEMENT('',#594,#483);
#44=AXIS1_PLACEMENT('',#598,#487);
#45=AXIS1_PLACEMENT('',#602,#491);
#46=AXIS1_PLACEMENT('',#604,#493);
#47=LINE('',#577,#55);
#48=LINE('',#581,#56);
#49=LINE('',#585,#57);
#50=LINE('',#589,#58);
#51=LINE('',#593,#59);
#52=LINE('',#597,#60);
#53=LINE('',#601,#61);
#54=LINE('',#603,#62);
#55=VECTOR('',#466,5.26051224213831);
#56=VECTOR('',#470,5.26051224213831);
#57=VECTOR('',#474,5.26051224213831);
#58=VECTOR('',#478,5.26051224213831);
#59=VECTOR('',#482,5.26051224213831);
#60=VECTOR('',#486,5.2605122421383);
#61=VECTOR('',#490,5.2605122421383);
#62=VECTOR('',#492,5.2605122421383);
#63=SURFACE_STYLE_USAGE(.BOTH.,#65);
#64=SURFACE_STYLE_USAGE(.BOTH.,#66);
#65=SURFACE_SIDE_STYLE('',(#67));
#66=SURFACE_SIDE_STYLE('',(#68));
#67=SURFACE_STYLE_FILL_AREA(#69);
#68=SURFACE_STYLE_FILL_AREA(#70);
#69=FILL_AREA_STYLE('',(#71));
#70=FILL_AREA_STYLE('',(#72));
#71=FILL_AREA_STYLE_COLOUR('',#349);
#72=FILL_AREA_STYLE_COLOUR('',#350);
#73=MANIFOLD_SOLID_BREP('',#75);
#74=MANIFOLD_SOLID_BREP('',#76);
#75=CLOSED_SHELL('',(#93,#94,#95,#96,#97,#98,#99,#100,#101,#102,#103,#104,
#105,#106,#107,#108,#109));
#76=CLOSED_SHELL('',(#110,#111,#112,#113,#114,#115,#116,#117));
#77=VERTEX_LOOP('',#280);
#78=(
BOUNDED_SURFACE()
B_SPLINE_SURFACE(3,3,((#536,#537,#538,#539,#540,#541,#542),(#543,#544,#545,
#546,#547,#548,#549),(#550,#551,#552,#553,#554,#555,#556),(#557,#558,#559,
#560,#561,#562,#563)),.UNSPECIFIED.,.F.,.T.,.F.)
B_SPLINE_SURFACE_WITH_KNOTS((4,4),(1,3,3,3,1),(0.,1.),(-0.5,0.,0.5,1.,1.5),
 .UNSPECIFIED.)
GEOMETRIC_REPRESENTATION_ITEM()
RATIONAL_B_SPLINE_SURFACE(((1.,0.333333333333333,0.333333333333333,1.,0.333333333333333,
0.333333333333333,1.),(0.984197338079955,0.328065779359985,0.328065779359985,
0.984197338079955,0.328065779359985,0.328065779359985,0.984197338079955),
(0.984197338079955,0.328065779359985,0.328065779359985,0.984197338079955,
0.328065779359985,0.328065779359985,0.984197338079955),(1.,0.333333333333333,
0.333333333333333,1.,0.333333333333333,0.333333333333333,1.)))
REPRESENTATION_ITEM('')
SURFACE()
);
#79=TOROIDAL_SURFACE('',#369,9.60991226069954,4.90690049011979);
#80=TOROIDAL_SURFACE('',#373,9.60991226069954,4.90690049011979);
#81=TOROIDAL_SURFACE('',#375,22.9695029909824,9.99999999999999);
#82=TOROIDAL_SURFACE('',#378,13.,1.);
#83=TOROIDAL_SURFACE('',#379,22.,10.);
#84=CONICAL_SURFACE('',#367,4.00000000000001,64.9999999999998);
#85=CONICAL_SURFACE('',#377,12.9755947207914,1.99999999999999);
#86=CONICAL_SURFACE('',#380,12.69675,45.);
#87=CONICAL_SURFACE('',#382,4.,60.);
#88=CONICAL_SURFACE('',#385,5.1545,30.);
#89=FACE_OUTER_BOUND('',#175,.T.);
#90=PLANE('',#362);
#91=PLANE('',#364);
#92=PLANE('',#371);
#93=ADVANCED_FACE('',(#121,#122),#118,.T.);
#94=ADVANCED_FACE('',(#123,#124),#119,.T.);
#95=ADVANCED_FACE('',(#125,#126),#90,.T.);
#96=ADVANCED_FACE('',(#89),#91,.T.);
#97=ADVANCED_FACE('',(#127,#128),#84,.F.);
#98=ADVANCED_FACE('',(#129,#130),#79,.T.);
#99=ADVANCED_FACE('',(#131,#132),#92,.T.);
#100=ADVANCED_FACE('',(#133,#134),#80,.T.);
#101=ADVANCED_FACE('',(#135,#136),#81,.F.);
#102=ADVANCED_FACE('',(#137,#138),#85,.T.);
#103=ADVANCED_FACE('',(#139,#140),#82,.F.);
#104=ADVANCED_FACE('',(#141,#142),#83,.F.);
#105=ADVANCED_FACE('',(#143,#144),#78,.T.);
#106=ADVANCED_FACE('',(#145,#146),#86,.T.);
#107=ADVANCED_FACE('',(#147,#148),#87,.F.);
#108=ADVANCED_FACE('',(#149,#150),#120,.F.);
#109=ADVANCED_FACE('',(#151,#152),#88,.F.);
#110=ADVANCED_FACE('',(#153,#154),#31,.F.);
#111=ADVANCED_FACE('',(#155,#156),#32,.F.);
#112=ADVANCED_FACE('',(#157,#158),#33,.F.);
#113=ADVANCED_FACE('',(#159,#160),#34,.F.);
#114=ADVANCED_FACE('',(#161,#162),#35,.F.);
#115=ADVANCED_FACE('',(#163,#164),#36,.F.);
#116=ADVANCED_FACE('',(#165,#166),#37,.F.);
#117=ADVANCED_FACE('',(#167,#168),#38,.F.);
#118=CYLINDRICAL_SURFACE('',#356,12.);
#119=CYLINDRICAL_SURFACE('',#359,12.69675);
#120=CYLINDRICAL_SURFACE('',#384,4.);
#121=FACE_BOUND('',#169,.T.);
#122=FACE_BOUND('',#170,.T.);
#123=FACE_BOUND('',#171,.T.);
#124=FACE_BOUND('',#172,.T.);
#125=FACE_BOUND('',#173,.T.);
#126=FACE_BOUND('',#174,.T.);
#127=FACE_BOUND('',#176,.T.);
#128=FACE_BOUND('',#177,.T.);
#129=FACE_BOUND('',#178,.T.);
#130=FACE_BOUND('',#179,.T.);
#131=FACE_BOUND('',#180,.T.);
#132=FACE_BOUND('',#181,.T.);
#133=FACE_BOUND('',#182,.T.);
#134=FACE_BOUND('',#183,.T.);
#135=FACE_BOUND('',#184,.T.);
#136=FACE_BOUND('',#185,.T.);
#137=FACE_BOUND('',#186,.T.);
#138=FACE_BOUND('',#187,.T.);
#139=FACE_BOUND('',#188,.T.);
#140=FACE_BOUND('',#189,.T.);
#141=FACE_BOUND('',#190,.T.);
#142=FACE_BOUND('',#191,.T.);
#143=FACE_BOUND('',#192,.T.);
#144=FACE_BOUND('',#193,.T.);
#145=FACE_BOUND('',#194,.T.);
#146=FACE_BOUND('',#195,.T.);
#147=FACE_BOUND('',#196,.T.);
#148=FACE_BOUND('',#77,.T.);
#149=FACE_BOUND('',#197,.T.);
#150=FACE_BOUND('',#198,.T.);
#151=FACE_BOUND('',#199,.T.);
#152=FACE_BOUND('',#200,.T.);
#153=FACE_BOUND('',#201,.T.);
#154=FACE_BOUND('',#202,.T.);
#155=FACE_BOUND('',#203,.T.);
#156=FACE_BOUND('',#204,.T.);
#157=FACE_BOUND('',#205,.T.);
#158=FACE_BOUND('',#206,.T.);
#159=FACE_BOUND('',#207,.T.);
#160=FACE_BOUND('',#208,.T.);
#161=FACE_BOUND('',#209,.T.);
#162=FACE_BOUND('',#210,.T.);
#163=FACE_BOUND('',#211,.T.);
#164=FACE_BOUND('',#212,.T.);
#165=FACE_BOUND('',#213,.T.);
#166=FACE_BOUND('',#214,.T.);
#167=FACE_BOUND('',#215,.T.);
#168=FACE_BOUND('',#216,.T.);
#169=EDGE_LOOP('',(#217));
#170=EDGE_LOOP('',(#218));
#171=EDGE_LOOP('',(#219));
#172=EDGE_LOOP('',(#220));
#173=EDGE_LOOP('',(#221));
#174=EDGE_LOOP('',(#222));
#175=EDGE_LOOP('',(#223));
#176=EDGE_LOOP('',(#224));
#177=EDGE_LOOP('',(#225));
#178=EDGE_LOOP('',(#226));
#179=EDGE_LOOP('',(#227));
#180=EDGE_LOOP('',(#228));
#181=EDGE_LOOP('',(#229));
#182=EDGE_LOOP('',(#230));
#183=EDGE_LOOP('',(#231));
#184=EDGE_LOOP('',(#232));
#185=EDGE_LOOP('',(#233));
#186=EDGE_LOOP('',(#234));
#187=EDGE_LOOP('',(#235));
#188=EDGE_LOOP('',(#236));
#189=EDGE_LOOP('',(#237));
#190=EDGE_LOOP('',(#238));
#191=EDGE_LOOP('',(#239));
#192=EDGE_LOOP('',(#240));
#193=EDGE_LOOP('',(#241));
#194=EDGE_LOOP('',(#242));
#195=EDGE_LOOP('',(#243));
#196=EDGE_LOOP('',(#244));
#197=EDGE_LOOP('',(#245));
#198=EDGE_LOOP('',(#246));
#199=EDGE_LOOP('',(#247));
#200=EDGE_LOOP('',(#248));
#201=EDGE_LOOP('',(#249));
#202=EDGE_LOOP('',(#250));
#203=EDGE_LOOP('',(#251));
#204=EDGE_LOOP('',(#252));
#205=EDGE_LOOP('',(#253));
#206=EDGE_LOOP('',(#254));
#207=EDGE_LOOP('',(#255));
#208=EDGE_LOOP('',(#256));
#209=EDGE_LOOP('',(#257));
#210=EDGE_LOOP('',(#258));
#211=EDGE_LOOP('',(#259));
#212=EDGE_LOOP('',(#260));
#213=EDGE_LOOP('',(#261));
#214=EDGE_LOOP('',(#262));
#215=EDGE_LOOP('',(#263));
#216=EDGE_LOOP('',(#264));
#217=ORIENTED_EDGE('',*,*,#290,.T.);
#218=ORIENTED_EDGE('',*,*,#291,.T.);
#219=ORIENTED_EDGE('',*,*,#292,.T.);
#220=ORIENTED_EDGE('',*,*,#293,.F.);
#221=ORIENTED_EDGE('',*,*,#294,.T.);
#222=ORIENTED_EDGE('',*,*,#295,.T.);
#223=ORIENTED_EDGE('',*,*,#296,.T.);
#224=ORIENTED_EDGE('',*,*,#297,.T.);
#225=ORIENTED_EDGE('',*,*,#298,.T.);
#226=ORIENTED_EDGE('',*,*,#299,.T.);
#227=ORIENTED_EDGE('',*,*,#298,.F.);
#228=ORIENTED_EDGE('',*,*,#300,.T.);
#229=ORIENTED_EDGE('',*,*,#299,.F.);
#230=ORIENTED_EDGE('',*,*,#301,.T.);
#231=ORIENTED_EDGE('',*,*,#300,.F.);
#232=ORIENTED_EDGE('',*,*,#302,.T.);
#233=ORIENTED_EDGE('',*,*,#301,.F.);
#234=ORIENTED_EDGE('',*,*,#303,.T.);
#235=ORIENTED_EDGE('',*,*,#302,.F.);
#236=ORIENTED_EDGE('',*,*,#293,.T.);
#237=ORIENTED_EDGE('',*,*,#290,.F.);
#238=ORIENTED_EDGE('',*,*,#291,.F.);
#239=ORIENTED_EDGE('',*,*,#303,.F.);
#240=ORIENTED_EDGE('',*,*,#297,.F.);
#241=ORIENTED_EDGE('',*,*,#296,.F.);
#242=ORIENTED_EDGE('',*,*,#295,.F.);
#243=ORIENTED_EDGE('',*,*,#292,.F.);
#244=ORIENTED_EDGE('',*,*,#304,.T.);
#245=ORIENTED_EDGE('',*,*,#304,.F.);
#246=ORIENTED_EDGE('',*,*,#305,.T.);
#247=ORIENTED_EDGE('',*,*,#305,.F.);
#248=ORIENTED_EDGE('',*,*,#294,.F.);
#249=ORIENTED_EDGE('',*,*,#306,.T.);
#250=ORIENTED_EDGE('',*,*,#307,.F.);
#251=ORIENTED_EDGE('',*,*,#308,.T.);
#252=ORIENTED_EDGE('',*,*,#306,.F.);
#253=ORIENTED_EDGE('',*,*,#309,.T.);
#254=ORIENTED_EDGE('',*,*,#308,.F.);
#255=ORIENTED_EDGE('',*,*,#310,.T.);
#256=ORIENTED_EDGE('',*,*,#309,.F.);
#257=ORIENTED_EDGE('',*,*,#311,.T.);
#258=ORIENTED_EDGE('',*,*,#310,.F.);
#259=ORIENTED_EDGE('',*,*,#312,.T.);
#260=ORIENTED_EDGE('',*,*,#311,.F.);
#261=ORIENTED_EDGE('',*,*,#313,.T.);
#262=ORIENTED_EDGE('',*,*,#312,.F.);
#263=ORIENTED_EDGE('',*,*,#307,.T.);
#264=ORIENTED_EDGE('',*,*,#313,.F.);
#265=VERTEX_POINT('',#497);
#266=VERTEX_POINT('',#499);
#267=VERTEX_POINT('',#502);
#268=VERTEX_POINT('',#504);
#269=VERTEX_POINT('',#507);
#270=VERTEX_POINT('',#509);
#271=VERTEX_POINT('',#512);
#272=VERTEX_POINT('',#515);
#273=VERTEX_POINT('',#517);
#274=VERTEX_POINT('',#520);
#275=VERTEX_POINT('',#523);
#276=VERTEX_POINT('',#526);
#277=VERTEX_POINT('',#529);
#278=VERTEX_POINT('',#532);
#279=VERTEX_POINT('',#566);
#280=VERTEX_POINT('',#567);
#281=VERTEX_POINT('',#570);
#282=VERTEX_POINT('',#574);
#283=VERTEX_POINT('',#576);
#284=VERTEX_POINT('',#580);
#285=VERTEX_POINT('',#584);
#286=VERTEX_POINT('',#588);
#287=VERTEX_POINT('',#592);
#288=VERTEX_POINT('',#596);
#289=VERTEX_POINT('',#600);
#290=EDGE_CURVE('',#265,#265,#314,.T.);
#291=EDGE_CURVE('',#266,#266,#315,.T.);
#292=EDGE_CURVE('',#267,#267,#316,.T.);
#293=EDGE_CURVE('',#268,#268,#317,.T.);
#294=EDGE_CURVE('',#269,#269,#318,.T.);
#295=EDGE_CURVE('',#270,#270,#319,.T.);
#296=EDGE_CURVE('',#271,#271,#320,.T.);
#297=EDGE_CURVE('',#272,#272,#321,.T.);
#298=EDGE_CURVE('',#273,#273,#322,.T.);
#299=EDGE_CURVE('',#274,#274,#323,.T.);
#300=EDGE_CURVE('',#275,#275,#324,.T.);
#301=EDGE_CURVE('',#276,#276,#325,.T.);
#302=EDGE_CURVE('',#277,#277,#326,.T.);
#303=EDGE_CURVE('',#278,#278,#327,.T.);
#304=EDGE_CURVE('',#279,#279,#328,.T.);
#305=EDGE_CURVE('',#281,#281,#329,.T.);
#306=EDGE_CURVE('',#282,#282,#330,.T.);
#307=EDGE_CURVE('',#283,#283,#331,.T.);
#308=EDGE_CURVE('',#284,#284,#332,.T.);
#309=EDGE_CURVE('',#285,#285,#333,.T.);
#310=EDGE_CURVE('',#286,#286,#334,.T.);
#311=EDGE_CURVE('',#287,#287,#335,.T.);
#312=EDGE_CURVE('',#288,#288,#336,.T.);
#313=EDGE_CURVE('',#289,#289,#337,.T.);
#314=CIRCLE('',#354,12.);
#315=CIRCLE('',#355,12.);
#316=CIRCLE('',#357,12.69675);
#317=CIRCLE('',#358,12.69675);
#318=CIRCLE('',#360,5.1545);
#319=CIRCLE('',#361,11.69675);
#320=CIRCLE('',#363,2.8915266867853);
#321=CIRCLE('',#365,5.00461799548882);
#322=CIRCLE('',#366,7.53616650503054);
#323=CIRCLE('',#368,8.58290132176165);
#324=CIRCLE('',#370,10.6369231996374);
#325=CIRCLE('',#372,14.0074852065761);
#326=CIRCLE('',#374,12.9755947207914);
#327=CIRCLE('',#376,12.006091729809);
#328=CIRCLE('',#381,4.);
#329=CIRCLE('',#383,4.);
#330=CIRCLE('',#386,3.71908512798812);
#331=CIRCLE('',#387,3.39451988003365);
#332=CIRCLE('',#388,7.19696614913273);
#333=CIRCLE('',#389,12.2277184358211);
#334=CIRCLE('',#390,15.8387595216535);
#335=CIRCLE('',#391,15.8156749567091);
#336=CIRCLE('',#392,12.1093797260488);
#337=CIRCLE('',#393,6.88027621763106);
#338=PRESENTATION_LAYER_ASSIGNMENT('256','Layer 256',(#353));
#339=PRESENTATION_LAYER_ASSIGNMENT('14','Layer 14',(#73));
#340=PRESENTATION_LAYER_ASSIGNMENT('59','Layer 59',(#74));
#341=STYLED_ITEM('',(#344),#353);
#342=STYLED_ITEM('',(#345),#73);
#343=STYLED_ITEM('',(#346),#74);
#344=PRESENTATION_STYLE_ASSIGNMENT((#347));
#345=PRESENTATION_STYLE_ASSIGNMENT((#63));
#346=PRESENTATION_STYLE_ASSIGNMENT((#64));
#347=CURVE_STYLE('',#351,POSITIVE_LENGTH_MEASURE(0.13),#348);
#348=COLOUR_RGB('Strong Lemon',1.,0.949004348821241,0.513725490196078);
#349=COLOUR_RGB('Silver Gray',0.6,0.6,0.6);
#350=COLOUR_RGB('Light Gray',0.8,0.8,0.8);
#351=DRAUGHTING_PRE_DEFINED_CURVE_FONT('continuous');
#352=AXIS2_PLACEMENT_3D('',#494,#394,#395);
#353=AXIS2_PLACEMENT_3D('',#495,#396,#397);
#354=AXIS2_PLACEMENT_3D('',#496,#398,#399);
#355=AXIS2_PLACEMENT_3D('',#498,#400,#401);
#356=AXIS2_PLACEMENT_3D('',#500,#402,#403);
#357=AXIS2_PLACEMENT_3D('',#501,#404,#405);
#358=AXIS2_PLACEMENT_3D('',#503,#406,#407);
#359=AXIS2_PLACEMENT_3D('',#505,#408,#409);
#360=AXIS2_PLACEMENT_3D('',#506,#410,#411);
#361=AXIS2_PLACEMENT_3D('',#508,#412,#413);
#362=AXIS2_PLACEMENT_3D('',#510,#414,#415);
#363=AXIS2_PLACEMENT_3D('',#511,#416,#417);
#364=AXIS2_PLACEMENT_3D('',#513,#418,#419);
#365=AXIS2_PLACEMENT_3D('',#514,#420,#421);
#366=AXIS2_PLACEMENT_3D('',#516,#422,#423);
#367=AXIS2_PLACEMENT_3D('',#518,#424,#425);
#368=AXIS2_PLACEMENT_3D('',#519,#426,#427);
#369=AXIS2_PLACEMENT_3D('',#521,#428,#429);
#370=AXIS2_PLACEMENT_3D('',#522,#430,#431);
#371=AXIS2_PLACEMENT_3D('',#524,#432,#433);
#372=AXIS2_PLACEMENT_3D('',#525,#434,#435);
#373=AXIS2_PLACEMENT_3D('',#527,#436,#437);
#374=AXIS2_PLACEMENT_3D('',#528,#438,#439);
#375=AXIS2_PLACEMENT_3D('',#530,#440,#441);
#376=AXIS2_PLACEMENT_3D('',#531,#442,#443);
#377=AXIS2_PLACEMENT_3D('',#533,#444,#445);
#378=AXIS2_PLACEMENT_3D('',#534,#446,#447);
#379=AXIS2_PLACEMENT_3D('',#535,#448,#449);
#380=AXIS2_PLACEMENT_3D('',#564,#450,#451);
#381=AXIS2_PLACEMENT_3D('',#565,#452,#453);
#382=AXIS2_PLACEMENT_3D('',#568,#454,#455);
#383=AXIS2_PLACEMENT_3D('',#569,#456,#457);
#384=AXIS2_PLACEMENT_3D('',#571,#458,#459);
#385=AXIS2_PLACEMENT_3D('',#572,#460,#461);
#386=AXIS2_PLACEMENT_3D('',#573,#462,#463);
#387=AXIS2_PLACEMENT_3D('',#575,#464,#465);
#388=AXIS2_PLACEMENT_3D('',#579,#468,#469);
#389=AXIS2_PLACEMENT_3D('',#583,#472,#473);
#390=AXIS2_PLACEMENT_3D('',#587,#476,#477);
#391=AXIS2_PLACEMENT_3D('',#591,#480,#481);
#392=AXIS2_PLACEMENT_3D('',#595,#484,#485);
#393=AXIS2_PLACEMENT_3D('',#599,#488,#489);
#394=DIRECTION('',(0.,0.,1.));
#395=DIRECTION('',(1.,0.,0.));
#396=DIRECTION('',(0.,-1.,0.));
#397=DIRECTION('',(1.,0.,0.));
#398=DIRECTION('',(0.,0.,-1.));
#399=DIRECTION('',(1.,0.,0.));
#400=DIRECTION('',(0.,0.,1.));
#401=DIRECTION('',(-1.,0.,0.));
#402=DIRECTION('',(0.,0.,-1.));
#403=DIRECTION('',(-1.,0.,0.));
#404=DIRECTION('',(0.,0.,-1.));
#405=DIRECTION('',(1.,0.,0.));
#406=DIRECTION('',(0.,0.,-1.));
#407=DIRECTION('',(-1.,0.,0.));
#408=DIRECTION('',(0.,0.,-1.));
#409=DIRECTION('',(-1.,0.,0.));
#410=DIRECTION('',(0.,0.,-1.));
#411=DIRECTION('',(-1.,0.,0.));
#412=DIRECTION('',(0.,0.,1.));
#413=DIRECTION('',(1.,0.,0.));
#414=DIRECTION('',(0.,0.,1.));
#415=DIRECTION('',(1.,0.,0.));
#416=DIRECTION('',(0.,0.,-1.));
#417=DIRECTION('',(-1.,0.,0.));
#418=DIRECTION('',(0.,0.,-1.));
#419=DIRECTION('',(-1.,0.,0.));
#420=DIRECTION('',(0.,0.,1.));
#421=DIRECTION('',(-1.,0.,0.));
#422=DIRECTION('',(0.,0.,-1.));
#423=DIRECTION('',(-1.,0.,0.));
#424=DIRECTION('',(0.,0.,-1.));
#425=DIRECTION('',(-1.,0.,-1.61481767586338E-017));
#426=DIRECTION('',(0.,0.,-1.));
#427=DIRECTION('',(-1.,0.,0.));
#428=DIRECTION('',(0.,0.,-1.));
#429=DIRECTION('',(-1.,0.,0.));
#430=DIRECTION('',(0.,0.,-1.));
#431=DIRECTION('',(-1.,0.,0.));
#432=DIRECTION('',(0.,0.,-1.));
#433=DIRECTION('',(-1.,0.,0.));
#434=DIRECTION('',(0.,0.,-1.));
#435=DIRECTION('',(-1.,0.,0.));
#436=DIRECTION('',(0.,0.,-1.));
#437=DIRECTION('',(-1.,0.,0.));
#438=DIRECTION('',(0.,0.,-1.));
#439=DIRECTION('',(-1.,0.,0.));
#440=DIRECTION('',(0.,0.,-1.));
#441=DIRECTION('',(-1.,0.,0.));
#442=DIRECTION('',(0.,0.,-1.));
#443=DIRECTION('',(-1.,0.,0.));
#444=DIRECTION('',(0.,0.,-1.));
#445=DIRECTION('',(-1.,0.,1.15898465664175E-015));
#446=DIRECTION('',(0.,0.,1.));
#447=DIRECTION('',(1.,0.,0.));
#448=DIRECTION('',(0.,0.,-1.));
#449=DIRECTION('',(-1.,0.,0.));
#450=DIRECTION('',(0.,0.,-1.));
#451=DIRECTION('',(-1.,0.,2.74075883186442E-017));
#452=DIRECTION('',(0.,0.,1.));
#453=DIRECTION('',(-1.,0.,0.));
#454=DIRECTION('',(0.,0.,1.));
#455=DIRECTION('',(1.,0.,0.));
#456=DIRECTION('',(0.,0.,1.));
#457=DIRECTION('',(-1.,0.,0.));
#458=DIRECTION('',(0.,0.,-1.));
#459=DIRECTION('',(-1.,0.,0.));
#460=DIRECTION('',(0.,0.,1.));
#461=DIRECTION('',(1.,0.,-1.42946000189366E-016));
#462=DIRECTION('',(0.,0.,-1.));
#463=DIRECTION('',(-1.,0.,0.));
#464=DIRECTION('',(0.,0.,-1.));
#465=DIRECTION('',(-1.,0.,0.));
#466=DIRECTION('',(0.011950369593228,-0.137096501400767,-0.99048560714947));
#467=DIRECTION('',(0.,0.,-1.));
#468=DIRECTION('',(0.,0.,-1.));
#469=DIRECTION('',(-1.,0.,0.));
#470=DIRECTION('',(0.704966615818165,0.0246877899044065,-0.708810682489703));
#471=DIRECTION('',(0.,0.,-1.));
#472=DIRECTION('',(0.,0.,-1.));
#473=DIRECTION('',(-1.,0.,0.));
#474=DIRECTION('',(0.985022979517084,0.172010308708596,-0.0119240731824004));
#475=DIRECTION('',(0.,0.,-1.));
#476=DIRECTION('',(0.,0.,-1.));
#477=DIRECTION('',(-1.,0.,0.));
#478=DIRECTION('',(0.68806624106405,0.218571521539274,0.691947496476428));
#479=DIRECTION('',(0.,0.,-1.));
#480=DIRECTION('',(0.,0.,-1.));
#481=DIRECTION('',(-1.,0.,0.));
#482=DIRECTION('',(-0.0119503695932281,0.137096501400767,0.99048560714947));
#483=DIRECTION('',(0.,0.,-1.));
#484=DIRECTION('',(0.,0.,-1.));
#485=DIRECTION('',(-1.,0.,0.));
#486=DIRECTION('',(-0.704966615818166,-0.0246877899044065,0.708810682489703));
#487=DIRECTION('',(0.,0.,-1.));
#488=DIRECTION('',(0.,0.,-1.));
#489=DIRECTION('',(-1.,0.,0.));
#490=DIRECTION('',(-0.985022979517084,-0.172010308708597,0.0119240731823977));
#491=DIRECTION('',(0.,0.,-1.));
#492=DIRECTION('',(-0.688066241064052,-0.218571521539274,-0.691947496476426));
#493=DIRECTION('',(0.,0.,-1.));
#494=CARTESIAN_POINT('',(0.,0.,0.));
#495=CARTESIAN_POINT('',(0.,0.,0.));
#496=CARTESIAN_POINT('',(0.,0.,-0.952911033360407));
#497=CARTESIAN_POINT('',(12.,0.,-0.952911033360407));
#498=CARTESIAN_POINT('',(0.,0.,-4.82544935071777));
#499=CARTESIAN_POINT('',(-12.,0.,-4.82544935071777));
#500=CARTESIAN_POINT('',(0.,0.,0.));
#501=CARTESIAN_POINT('',(0.,0.,154.66));
#502=CARTESIAN_POINT('',(12.69675,0.,154.66));
#503=CARTESIAN_POINT('',(0.,0.,0.));
#504=CARTESIAN_POINT('',(-12.69675,0.,0.));
#505=CARTESIAN_POINT('',(0.,0.,0.));
#506=CARTESIAN_POINT('',(0.,0.,155.66));
#507=CARTESIAN_POINT('',(-5.1545,0.,155.66));
#508=CARTESIAN_POINT('',(0.,0.,155.66));
#509=CARTESIAN_POINT('',(11.69675,0.,155.66));
#510=CARTESIAN_POINT('',(12.69675,0.,155.66));
#511=CARTESIAN_POINT('',(0.,0.,-42.));
#512=CARTESIAN_POINT('',(-2.8915266867853,0.,-42.));
#513=CARTESIAN_POINT('',(5.32907051820075E-015,0.,-42.));
#514=CARTESIAN_POINT('',(0.,0.,-42.4684610648168));
#515=CARTESIAN_POINT('',(-5.00461799548882,0.,-42.4684610648168));
#516=CARTESIAN_POINT('',(0.,0.,-43.6489415218069));
#517=CARTESIAN_POINT('',(-7.53616650503054,0.,-43.6489415218069));
#518=CARTESIAN_POINT('',(0.,0.,-42.));
#519=CARTESIAN_POINT('',(0.,0.,-44.));
#520=CARTESIAN_POINT('',(-8.58290132176165,0.,-44.));
#521=CARTESIAN_POINT('',(0.,0.,-39.2017793973974));
#522=CARTESIAN_POINT('',(0.,0.,-44.));
#523=CARTESIAN_POINT('',(-10.6369231996374,0.,-44.));
#524=CARTESIAN_POINT('',(8.58290132176165,0.,-44.));
#525=CARTESIAN_POINT('',(0.,0.,-37.0248493099503));
#526=CARTESIAN_POINT('',(-14.0074852065761,0.,-37.0248493099503));
#527=CARTESIAN_POINT('',(0.,0.,-39.2017793973974));
#528=CARTESIAN_POINT('',(0.,0.,-32.9373775260591));
#529=CARTESIAN_POINT('',(-12.9755947207914,0.,-32.9373775260591));
#530=CARTESIAN_POINT('',(0.,0.,-32.5883825590341));
#531=CARTESIAN_POINT('',(0.,0.,-5.17444431774278));
#532=CARTESIAN_POINT('',(-12.006091729809,0.,-5.17444431774278));
#533=CARTESIAN_POINT('',(0.,0.,-32.9373775260591));
#534=CARTESIAN_POINT('',(0.,0.,-0.952911033360407));
#535=CARTESIAN_POINT('',(0.,0.,-4.82544935071777));
#536=CARTESIAN_POINT('',(-2.8915266867853,0.,-42.));
#537=CARTESIAN_POINT('',(-2.8915266867853,5.78305337357061,-42.));
#538=CARTESIAN_POINT('',(2.8915266867853,5.78305337357061,-42.));
#539=CARTESIAN_POINT('',(2.8915266867853,0.,-42.));
#540=CARTESIAN_POINT('',(2.8915266867853,-5.78305337357061,-42.));
#541=CARTESIAN_POINT('',(-2.8915266867853,-5.78305337357061,-42.));
#542=CARTESIAN_POINT('',(-2.8915266867853,0.,-42.));
#543=CARTESIAN_POINT('',(-3.62457620021029,0.,-42.));
#544=CARTESIAN_POINT('',(-3.62457620021029,7.24915240042059,-42.));
#545=CARTESIAN_POINT('',(3.62457620021029,7.24915240042059,-42.));
#546=CARTESIAN_POINT('',(3.62457620021029,0.,-42.));
#547=CARTESIAN_POINT('',(3.62457620021029,-7.24915240042059,-42.));
#548=CARTESIAN_POINT('',(-3.62457620021029,-7.24915240042059,-42.));
#549=CARTESIAN_POINT('',(-3.62457620021029,0.,-42.));
#550=CARTESIAN_POINT('',(-4.34024951318832,0.,-42.1586609536832));
#551=CARTESIAN_POINT('',(-4.34024951318832,8.68049902637664,-42.1586609536832));
#552=CARTESIAN_POINT('',(4.34024951318832,8.68049902637664,-42.1586609536832));
#553=CARTESIAN_POINT('',(4.34024951318832,0.,-42.1586609536832));
#554=CARTESIAN_POINT('',(4.34024951318832,-8.68049902637664,-42.1586609536832));
#555=CARTESIAN_POINT('',(-4.34024951318832,-8.68049902637664,-42.1586609536832));
#556=CARTESIAN_POINT('',(-4.34024951318832,0.,-42.1586609536832));
#557=CARTESIAN_POINT('',(-5.00461799548881,0.,-42.4684610648168));
#558=CARTESIAN_POINT('',(-5.00461799548881,10.0092359909776,-42.4684610648168));
#559=CARTESIAN_POINT('',(5.00461799548881,10.0092359909776,-42.4684610648168));
#560=CARTESIAN_POINT('',(5.00461799548881,0.,-42.4684610648168));
#561=CARTESIAN_POINT('',(5.00461799548881,-10.0092359909776,-42.4684610648168));
#562=CARTESIAN_POINT('',(-5.00461799548881,-10.0092359909776,-42.4684610648168));
#563=CARTESIAN_POINT('',(-5.00461799548881,0.,-42.4684610648168));
#564=CARTESIAN_POINT('',(0.,0.,154.66));
#565=CARTESIAN_POINT('',(0.,0.,-2.));
#566=CARTESIAN_POINT('',(-4.,0.,-2.));
#567=CARTESIAN_POINT('',(0.,0.,-4.3094010767585));
#568=CARTESIAN_POINT('',(0.,0.,-2.));
#569=CARTESIAN_POINT('',(0.,0.,153.660347342662));
#570=CARTESIAN_POINT('',(-4.,0.,153.660347342662));
#571=CARTESIAN_POINT('',(0.,0.,-2.));
#572=CARTESIAN_POINT('',(0.,0.,155.66));
#573=CARTESIAN_POINT('',(0.,0.,-41.1642114962202));
#574=CARTESIAN_POINT('',(-3.71908512798812,0.,-41.1642114962202));
#575=CARTESIAN_POINT('',(0.,0.,-35.9537498341486));
#576=CARTESIAN_POINT('',(-3.39451988003365,0.,-35.9537498341486));
#577=CARTESIAN_POINT('',(3.25789078044442,-0.953369224717767,-35.9537498341486));
#578=CARTESIAN_POINT('',(0.,0.,0.));
#579=CARTESIAN_POINT('',(0.,0.,-44.8929187688157));
#580=CARTESIAN_POINT('',(-7.19696614913273,0.,-44.8929187688157));
#581=CARTESIAN_POINT('',(3.32075584598767,-1.67456704869084,-41.1642114962202));
#582=CARTESIAN_POINT('',(0.,0.,0.));
#583=CARTESIAN_POINT('',(0.,0.,-44.9556455017679));
#584=CARTESIAN_POINT('',(-12.2277184358211,0.,-44.9556455017679));
#585=CARTESIAN_POINT('',(7.02924135879794,-1.54469662766737,-44.8929187688157));
#586=CARTESIAN_POINT('',(0.,0.,0.));
#587=CARTESIAN_POINT('',(0.,0.,-41.3156472256367));
#588=CARTESIAN_POINT('',(-15.8387595216535,0.,-41.3156472256367));
#589=CARTESIAN_POINT('',(12.2109668013351,-0.639834292931805,-44.9556455017679));
#590=CARTESIAN_POINT('',(0.,0.,0.));
#591=CARTESIAN_POINT('',(0.,0.,-36.1051855635651));
#592=CARTESIAN_POINT('',(-15.8156749567091,0.,-36.1051855635651));
#593=CARTESIAN_POINT('',(15.8305476858546,0.509963871908341,-41.3156472256367));
#594=CARTESIAN_POINT('',(0.,0.,0.));
#595=CARTESIAN_POINT('',(0.,0.,-32.3764782909696));
#596=CARTESIAN_POINT('',(-12.1093797260488,0.,-32.3764782909696));
#597=CARTESIAN_POINT('',(15.7676826203114,1.23116169588141,-36.1051855635651));
#598=CARTESIAN_POINT('',(0.,0.,0.));
#599=CARTESIAN_POINT('',(0.,0.,-32.3137515580174));
#600=CARTESIAN_POINT('',(-6.88027621763106,0.,-32.3137515580174));
#601=CARTESIAN_POINT('',(12.0591971075011,1.10129127485794,-32.3764782909696));
#602=CARTESIAN_POINT('',(0.,0.,0.));
#603=CARTESIAN_POINT('',(6.87747166496394,0.196428940122378,-32.3137515580174));
#604=CARTESIAN_POINT('',(0.,0.,0.));
#605=MECHANICAL_DESIGN_GEOMETRIC_PRESENTATION_REPRESENTATION('',(#341,#342,
#343),#606);
#606=(
GEOMETRIC_REPRESENTATION_CONTEXT(3)
GLOBAL_UNCERTAINTY_ASSIGNED_CONTEXT((#607))
GLOBAL_UNIT_ASSIGNED_CONTEXT((#613,#609,#608))
REPRESENTATION_CONTEXT('125N3R177C100_ISOD05_C_SIM',
'TOP_LEVEL_ASSEMBLY_PART')
);
#607=UNCERTAINTY_MEASURE_WITH_UNIT(LENGTH_MEASURE(0.0254),#613,
'DISTANCE_ACCURACY_VALUE','Maximum Tolerance applied to model');
#608=(
NAMED_UNIT(*)
SI_UNIT($,.STERADIAN.)
SOLID_ANGLE_UNIT()
);
#609=(
CONVERSION_BASED_UNIT('DEGREE',#611)
NAMED_UNIT(#610)
PLANE_ANGLE_UNIT()
);
#610=DIMENSIONAL_EXPONENTS(0.,0.,0.,0.,0.,0.,0.);
#611=PLANE_ANGLE_MEASURE_WITH_UNIT(PLANE_ANGLE_MEASURE(0.0174532925),#612);
#612=(
NAMED_UNIT(*)
PLANE_ANGLE_UNIT()
SI_UNIT($,.RADIAN.)
);
#613=(
LENGTH_UNIT()
NAMED_UNIT(*)
SI_UNIT(.MILLI.,.METRE.)
);
ENDSEC;
END-ISO-10303-21;
