ISO-10303-21;
HEADER;
/* Generated by software containing ST-Developer
 * from STEP Tools, Inc. (www.steptools.com) 
 */
/* OPTION: using custom schema-name function */

FILE_DESCRIPTION(
/* description */ (''),
/* implementation_level */ '2;1');

FILE_NAME(
/* name */ '125E3R165M16_ISRC10_C_blank.stp',
/* time_stamp */ '2017-06-15T13:31:46+02:00',
/* author */ (''),
/* organization */ (''),
/* preprocessor_version */ 'ST-DEVELOPER v15',
/* originating_system */ 'SIEMENS PLM Software NX 8.5',
/* authorisation */ '');

FILE_SCHEMA (('AUTOMOTIVE_DESIGN { 1 0 10303 214 3 1 1 1 }'));
ENDSEC;

DATA;
#10=PROPERTY_DEFINITION_REPRESENTATION(#14,#12);
#11=PROPERTY_DEFINITION_REPRESENTATION(#15,#13);
#12=REPRESENTATION('',(#16),#562);
#13=REPRESENTATION('',(#17),#562);
#14=PROPERTY_DEFINITION('pmi validation property','',#21);
#15=PROPERTY_DEFINITION('pmi validation property','',#21);
#16=VALUE_REPRESENTATION_ITEM('number of annotations',COUNT_MEASURE(0.));
#17=VALUE_REPRESENTATION_ITEM('number of views',COUNT_MEASURE(0.));
#18=SHAPE_REPRESENTATION_RELATIONSHIP('None',
'relationship between hm1514C40C57klyc-None and hm1514C40C57klyc-None',
#30,#19);
#19=ADVANCED_BREP_SHAPE_REPRESENTATION('hm1514C40C57klyc-None',(#51,#52),
#562);
#20=SHAPE_DEFINITION_REPRESENTATION(#21,#30);
#21=PRODUCT_DEFINITION_SHAPE('','',#22);
#22=PRODUCT_DEFINITION(' ','',#24,#23);
#23=PRODUCT_DEFINITION_CONTEXT('part definition',#29,'design');
#24=PRODUCT_DEFINITION_FORMATION_WITH_SPECIFIED_SOURCE(' ',' ',#26,
 .NOT_KNOWN.);
#25=PRODUCT_RELATED_PRODUCT_CATEGORY('part','',(#26));
#26=PRODUCT('hm1514C40C57klyc','hm1514C40C57klyc',' ',(#27));
#27=PRODUCT_CONTEXT(' ',#29,'mechanical');
#28=APPLICATION_PROTOCOL_DEFINITION('international standard',
'automotive_design',2010,#29);
#29=APPLICATION_CONTEXT(
'core data for automotive mechanical design processes');
#30=SHAPE_REPRESENTATION('hm1514C40C57klyc-None',(#329),#562);
#31=SURFACE_OF_REVOLUTION('',#328,#32);
#32=AXIS1_PLACEMENT('',#560,#482);
#33=PRESENTATION_LAYER_ASSIGNMENT('14','Layer 14',(#51));
#34=PRESENTATION_LAYER_ASSIGNMENT('60','Layer 60',(#52));
#35=STYLED_ITEM('',(#37),#51);
#36=STYLED_ITEM('',(#38),#52);
#37=PRESENTATION_STYLE_ASSIGNMENT((#39));
#38=PRESENTATION_STYLE_ASSIGNMENT((#40));
#39=SURFACE_STYLE_USAGE(.BOTH.,#41);
#40=SURFACE_STYLE_USAGE(.BOTH.,#42);
#41=SURFACE_SIDE_STYLE('',(#43));
#42=SURFACE_SIDE_STYLE('',(#44));
#43=SURFACE_STYLE_FILL_AREA(#45);
#44=SURFACE_STYLE_FILL_AREA(#46);
#45=FILL_AREA_STYLE('',(#47));
#46=FILL_AREA_STYLE('',(#48));
#47=FILL_AREA_STYLE_COLOUR('',#49);
#48=FILL_AREA_STYLE_COLOUR('',#50);
#49=COLOUR_RGB('Silver Gray',0.6,0.6,0.6);
#50=COLOUR_RGB('Light Gray',0.8,0.8,0.8);
#51=MANIFOLD_SOLID_BREP('',#53);
#52=MANIFOLD_SOLID_BREP('',#54);
#53=CLOSED_SHELL('',(#80,#81,#82,#83,#84,#85,#86,#87,#88,#89,#90,#91,#92,
#93,#94,#95,#96,#97,#98,#99,#100,#101,#102,#103,#104));
#54=CLOSED_SHELL('',(#105));
#55=VERTEX_LOOP('',#277);
#56=VERTEX_LOOP('',#279);
#57=FACE_OUTER_BOUND('',#168,.T.);
#58=TOROIDAL_SURFACE('',#340,11.3135085425836,3.84325171042831);
#59=TOROIDAL_SURFACE('',#351,15.1,1.6);
#60=TOROIDAL_SURFACE('',#352,3.61620357632718,1.6);
#61=TOROIDAL_SURFACE('',#353,13.1567602530119,2.);
#62=TOROIDAL_SURFACE('',#354,15.5,2.);
#63=TOROIDAL_SURFACE('',#358,8.69999999999999,0.4);
#64=TOROIDAL_SURFACE('',#362,8.69999999999999,0.4);
#65=CYLINDRICAL_SURFACE('',#338,15.1567602530119);
#66=CYLINDRICAL_SURFACE('',#347,14.5);
#67=CYLINDRICAL_SURFACE('',#350,13.5);
#68=CYLINDRICAL_SURFACE('',#360,8.29999999999999);
#69=CYLINDRICAL_SURFACE('',#368,8.);
#70=CYLINDRICAL_SURFACE('',#370,8.49999999999999);
#71=CYLINDRICAL_SURFACE('',#377,2.5);
#72=CONICAL_SURFACE('',#335,13.5,30.0000000000001);
#73=CONICAL_SURFACE('',#342,9.57004288690393,63.0223198428747);
#74=CONICAL_SURFACE('',#356,9.49907116054874,75.);
#75=CONICAL_SURFACE('',#371,8.,45.);
#76=CONICAL_SURFACE('',#372,8.49999999999999,45.);
#77=CONICAL_SURFACE('',#373,14.,45.);
#78=CONICAL_SURFACE('',#375,2.5,60.);
#79=CONICAL_SURFACE('',#378,3.6547,30.);
#80=ADVANCED_FACE('',(#109,#110),#106,.T.);
#81=ADVANCED_FACE('',(#111,#112),#72,.T.);
#82=ADVANCED_FACE('',(#113,#114),#65,.T.);
#83=ADVANCED_FACE('',(#115,#116),#58,.T.);
#84=ADVANCED_FACE('',(#117,#118),#73,.F.);
#85=ADVANCED_FACE('',(#57),#107,.T.);
#86=ADVANCED_FACE('',(#119,#120),#66,.T.);
#87=ADVANCED_FACE('',(#121,#122),#67,.T.);
#88=ADVANCED_FACE('',(#123,#124),#59,.F.);
#89=ADVANCED_FACE('',(#125,#126),#60,.F.);
#90=ADVANCED_FACE('',(#127,#128),#61,.T.);
#91=ADVANCED_FACE('',(#129,#130),#62,.F.);
#92=ADVANCED_FACE('',(#131,#132),#74,.F.);
#93=ADVANCED_FACE('',(#133,#134),#63,.F.);
#94=ADVANCED_FACE('',(#135,#136),#68,.T.);
#95=ADVANCED_FACE('',(#137,#138),#64,.F.);
#96=ADVANCED_FACE('',(#139,#140),#108,.F.);
#97=ADVANCED_FACE('',(#141,#142),#69,.T.);
#98=ADVANCED_FACE('',(#143,#144),#70,.T.);
#99=ADVANCED_FACE('',(#145,#146),#75,.T.);
#100=ADVANCED_FACE('',(#147,#148),#76,.T.);
#101=ADVANCED_FACE('',(#149,#150),#77,.T.);
#102=ADVANCED_FACE('',(#151,#152),#78,.F.);
#103=ADVANCED_FACE('',(#153,#154),#71,.F.);
#104=ADVANCED_FACE('',(#155,#156),#79,.F.);
#105=ADVANCED_FACE('',(#157),#31,.F.);
#106=PLANE('',#332);
#107=PLANE('',#344);
#108=PLANE('',#365);
#109=FACE_BOUND('',#158,.T.);
#110=FACE_BOUND('',#159,.T.);
#111=FACE_BOUND('',#160,.T.);
#112=FACE_BOUND('',#161,.T.);
#113=FACE_BOUND('',#162,.T.);
#114=FACE_BOUND('',#163,.T.);
#115=FACE_BOUND('',#164,.T.);
#116=FACE_BOUND('',#165,.T.);
#117=FACE_BOUND('',#166,.T.);
#118=FACE_BOUND('',#167,.T.);
#119=FACE_BOUND('',#169,.T.);
#120=FACE_BOUND('',#170,.T.);
#121=FACE_BOUND('',#171,.T.);
#122=FACE_BOUND('',#172,.T.);
#123=FACE_BOUND('',#173,.T.);
#124=FACE_BOUND('',#174,.T.);
#125=FACE_BOUND('',#175,.T.);
#126=FACE_BOUND('',#176,.T.);
#127=FACE_BOUND('',#177,.T.);
#128=FACE_BOUND('',#178,.T.);
#129=FACE_BOUND('',#179,.T.);
#130=FACE_BOUND('',#180,.T.);
#131=FACE_BOUND('',#181,.T.);
#132=FACE_BOUND('',#182,.T.);
#133=FACE_BOUND('',#183,.T.);
#134=FACE_BOUND('',#184,.T.);
#135=FACE_BOUND('',#185,.T.);
#136=FACE_BOUND('',#186,.T.);
#137=FACE_BOUND('',#187,.T.);
#138=FACE_BOUND('',#188,.T.);
#139=FACE_BOUND('',#189,.T.);
#140=FACE_BOUND('',#190,.T.);
#141=FACE_BOUND('',#191,.T.);
#142=FACE_BOUND('',#192,.T.);
#143=FACE_BOUND('',#193,.T.);
#144=FACE_BOUND('',#194,.T.);
#145=FACE_BOUND('',#195,.T.);
#146=FACE_BOUND('',#196,.T.);
#147=FACE_BOUND('',#197,.T.);
#148=FACE_BOUND('',#198,.T.);
#149=FACE_BOUND('',#199,.T.);
#150=FACE_BOUND('',#200,.T.);
#151=FACE_BOUND('',#201,.T.);
#152=FACE_BOUND('',#55,.T.);
#153=FACE_BOUND('',#202,.T.);
#154=FACE_BOUND('',#203,.T.);
#155=FACE_BOUND('',#204,.T.);
#156=FACE_BOUND('',#205,.T.);
#157=FACE_BOUND('',#56,.T.);
#158=EDGE_LOOP('',(#206));
#159=EDGE_LOOP('',(#207));
#160=EDGE_LOOP('',(#208));
#161=EDGE_LOOP('',(#209));
#162=EDGE_LOOP('',(#210));
#163=EDGE_LOOP('',(#211));
#164=EDGE_LOOP('',(#212));
#165=EDGE_LOOP('',(#213));
#166=EDGE_LOOP('',(#214));
#167=EDGE_LOOP('',(#215));
#168=EDGE_LOOP('',(#216));
#169=EDGE_LOOP('',(#217));
#170=EDGE_LOOP('',(#218));
#171=EDGE_LOOP('',(#219));
#172=EDGE_LOOP('',(#220));
#173=EDGE_LOOP('',(#221));
#174=EDGE_LOOP('',(#222));
#175=EDGE_LOOP('',(#223));
#176=EDGE_LOOP('',(#224));
#177=EDGE_LOOP('',(#225));
#178=EDGE_LOOP('',(#226));
#179=EDGE_LOOP('',(#227));
#180=EDGE_LOOP('',(#228));
#181=EDGE_LOOP('',(#229));
#182=EDGE_LOOP('',(#230));
#183=EDGE_LOOP('',(#231));
#184=EDGE_LOOP('',(#232));
#185=EDGE_LOOP('',(#233));
#186=EDGE_LOOP('',(#234));
#187=EDGE_LOOP('',(#235));
#188=EDGE_LOOP('',(#236));
#189=EDGE_LOOP('',(#237));
#190=EDGE_LOOP('',(#238));
#191=EDGE_LOOP('',(#239));
#192=EDGE_LOOP('',(#240));
#193=EDGE_LOOP('',(#241));
#194=EDGE_LOOP('',(#242));
#195=EDGE_LOOP('',(#243));
#196=EDGE_LOOP('',(#244));
#197=EDGE_LOOP('',(#245));
#198=EDGE_LOOP('',(#246));
#199=EDGE_LOOP('',(#247));
#200=EDGE_LOOP('',(#248));
#201=EDGE_LOOP('',(#249));
#202=EDGE_LOOP('',(#250));
#203=EDGE_LOOP('',(#251));
#204=EDGE_LOOP('',(#252));
#205=EDGE_LOOP('',(#253));
#206=ORIENTED_EDGE('',*,*,#280,.T.);
#207=ORIENTED_EDGE('',*,*,#281,.T.);
#208=ORIENTED_EDGE('',*,*,#282,.T.);
#209=ORIENTED_EDGE('',*,*,#283,.T.);
#210=ORIENTED_EDGE('',*,*,#284,.T.);
#211=ORIENTED_EDGE('',*,*,#285,.T.);
#212=ORIENTED_EDGE('',*,*,#286,.T.);
#213=ORIENTED_EDGE('',*,*,#285,.F.);
#214=ORIENTED_EDGE('',*,*,#287,.T.);
#215=ORIENTED_EDGE('',*,*,#286,.F.);
#216=ORIENTED_EDGE('',*,*,#288,.T.);
#217=ORIENTED_EDGE('',*,*,#289,.T.);
#218=ORIENTED_EDGE('',*,*,#290,.T.);
#219=ORIENTED_EDGE('',*,*,#291,.T.);
#220=ORIENTED_EDGE('',*,*,#292,.T.);
#221=ORIENTED_EDGE('',*,*,#292,.F.);
#222=ORIENTED_EDGE('',*,*,#290,.F.);
#223=ORIENTED_EDGE('',*,*,#288,.F.);
#224=ORIENTED_EDGE('',*,*,#287,.F.);
#225=ORIENTED_EDGE('',*,*,#284,.F.);
#226=ORIENTED_EDGE('',*,*,#282,.F.);
#227=ORIENTED_EDGE('',*,*,#283,.F.);
#228=ORIENTED_EDGE('',*,*,#291,.F.);
#229=ORIENTED_EDGE('',*,*,#293,.F.);
#230=ORIENTED_EDGE('',*,*,#281,.F.);
#231=ORIENTED_EDGE('',*,*,#294,.F.);
#232=ORIENTED_EDGE('',*,*,#293,.T.);
#233=ORIENTED_EDGE('',*,*,#295,.F.);
#234=ORIENTED_EDGE('',*,*,#294,.T.);
#235=ORIENTED_EDGE('',*,*,#296,.T.);
#236=ORIENTED_EDGE('',*,*,#295,.T.);
#237=ORIENTED_EDGE('',*,*,#297,.T.);
#238=ORIENTED_EDGE('',*,*,#298,.T.);
#239=ORIENTED_EDGE('',*,*,#299,.T.);
#240=ORIENTED_EDGE('',*,*,#300,.F.);
#241=ORIENTED_EDGE('',*,*,#301,.T.);
#242=ORIENTED_EDGE('',*,*,#296,.F.);
#243=ORIENTED_EDGE('',*,*,#298,.F.);
#244=ORIENTED_EDGE('',*,*,#299,.F.);
#245=ORIENTED_EDGE('',*,*,#300,.T.);
#246=ORIENTED_EDGE('',*,*,#301,.F.);
#247=ORIENTED_EDGE('',*,*,#289,.F.);
#248=ORIENTED_EDGE('',*,*,#280,.F.);
#249=ORIENTED_EDGE('',*,*,#302,.T.);
#250=ORIENTED_EDGE('',*,*,#302,.F.);
#251=ORIENTED_EDGE('',*,*,#303,.T.);
#252=ORIENTED_EDGE('',*,*,#303,.F.);
#253=ORIENTED_EDGE('',*,*,#297,.F.);
#254=VERTEX_POINT('',#485);
#255=VERTEX_POINT('',#487);
#256=VERTEX_POINT('',#490);
#257=VERTEX_POINT('',#492);
#258=VERTEX_POINT('',#495);
#259=VERTEX_POINT('',#497);
#260=VERTEX_POINT('',#500);
#261=VERTEX_POINT('',#503);
#262=VERTEX_POINT('',#506);
#263=VERTEX_POINT('',#509);
#264=VERTEX_POINT('',#511);
#265=VERTEX_POINT('',#514);
#266=VERTEX_POINT('',#516);
#267=VERTEX_POINT('',#523);
#268=VERTEX_POINT('',#526);
#269=VERTEX_POINT('',#529);
#270=VERTEX_POINT('',#532);
#271=VERTEX_POINT('',#535);
#272=VERTEX_POINT('',#537);
#273=VERTEX_POINT('',#540);
#274=VERTEX_POINT('',#542);
#275=VERTEX_POINT('',#545);
#276=VERTEX_POINT('',#551);
#277=VERTEX_POINT('',#552);
#278=VERTEX_POINT('',#555);
#279=VERTEX_POINT('',#558);
#280=EDGE_CURVE('',#254,#254,#304,.T.);
#281=EDGE_CURVE('',#255,#255,#305,.T.);
#282=EDGE_CURVE('',#256,#256,#306,.T.);
#283=EDGE_CURVE('',#257,#257,#307,.T.);
#284=EDGE_CURVE('',#258,#258,#308,.T.);
#285=EDGE_CURVE('',#259,#259,#309,.T.);
#286=EDGE_CURVE('',#260,#260,#310,.T.);
#287=EDGE_CURVE('',#261,#261,#311,.T.);
#288=EDGE_CURVE('',#262,#262,#312,.T.);
#289=EDGE_CURVE('',#263,#263,#313,.T.);
#290=EDGE_CURVE('',#264,#264,#314,.T.);
#291=EDGE_CURVE('',#265,#265,#315,.T.);
#292=EDGE_CURVE('',#266,#266,#316,.T.);
#293=EDGE_CURVE('',#267,#267,#317,.T.);
#294=EDGE_CURVE('',#268,#268,#318,.T.);
#295=EDGE_CURVE('',#269,#269,#319,.T.);
#296=EDGE_CURVE('',#270,#270,#320,.T.);
#297=EDGE_CURVE('',#271,#271,#321,.T.);
#298=EDGE_CURVE('',#272,#272,#322,.T.);
#299=EDGE_CURVE('',#273,#273,#323,.T.);
#300=EDGE_CURVE('',#274,#274,#324,.T.);
#301=EDGE_CURVE('',#275,#275,#325,.T.);
#302=EDGE_CURVE('',#276,#276,#326,.T.);
#303=EDGE_CURVE('',#278,#278,#327,.T.);
#304=CIRCLE('',#330,14.);
#305=CIRCLE('',#331,9.49907116054874);
#306=CIRCLE('',#333,14.8888110605808);
#307=CIRCLE('',#334,13.7679491924311);
#308=CIRCLE('',#336,15.1567602530119);
#309=CIRCLE('',#337,15.1567602530119);
#310=CIRCLE('',#339,9.57004288690393);
#311=CIRCLE('',#341,4.34203296749568);
#312=CIRCLE('',#343,3.61620357632718);
#313=CIRCLE('',#345,14.5);
#314=CIRCLE('',#346,14.5);
#315=CIRCLE('',#348,13.5);
#316=CIRCLE('',#349,13.5);
#317=CIRCLE('',#355,8.803527618041);
#318=CIRCLE('',#357,8.29999999999999);
#319=CIRCLE('',#359,8.29999999999999);
#320=CIRCLE('',#361,8.49999999999999);
#321=CIRCLE('',#363,3.6547);
#322=CIRCLE('',#364,6.5);
#323=CIRCLE('',#366,8.);
#324=CIRCLE('',#367,8.);
#325=CIRCLE('',#369,8.49999999999999);
#326=CIRCLE('',#374,2.5);
#327=CIRCLE('',#376,2.5);
#328=CIRCLE('',#379,5.);
#329=AXIS2_PLACEMENT_3D('',#483,#380,#381);
#330=AXIS2_PLACEMENT_3D('',#484,#382,#383);
#331=AXIS2_PLACEMENT_3D('',#486,#384,#385);
#332=AXIS2_PLACEMENT_3D('',#488,#386,#387);
#333=AXIS2_PLACEMENT_3D('',#489,#388,#389);
#334=AXIS2_PLACEMENT_3D('',#491,#390,#391);
#335=AXIS2_PLACEMENT_3D('',#493,#392,#393);
#336=AXIS2_PLACEMENT_3D('',#494,#394,#395);
#337=AXIS2_PLACEMENT_3D('',#496,#396,#397);
#338=AXIS2_PLACEMENT_3D('',#498,#398,#399);
#339=AXIS2_PLACEMENT_3D('',#499,#400,#401);
#340=AXIS2_PLACEMENT_3D('',#501,#402,#403);
#341=AXIS2_PLACEMENT_3D('',#502,#404,#405);
#342=AXIS2_PLACEMENT_3D('',#504,#406,#407);
#343=AXIS2_PLACEMENT_3D('',#505,#408,#409);
#344=AXIS2_PLACEMENT_3D('',#507,#410,#411);
#345=AXIS2_PLACEMENT_3D('',#508,#412,#413);
#346=AXIS2_PLACEMENT_3D('',#510,#414,#415);
#347=AXIS2_PLACEMENT_3D('',#512,#416,#417);
#348=AXIS2_PLACEMENT_3D('',#513,#418,#419);
#349=AXIS2_PLACEMENT_3D('',#515,#420,#421);
#350=AXIS2_PLACEMENT_3D('',#517,#422,#423);
#351=AXIS2_PLACEMENT_3D('',#518,#424,#425);
#352=AXIS2_PLACEMENT_3D('',#519,#426,#427);
#353=AXIS2_PLACEMENT_3D('',#520,#428,#429);
#354=AXIS2_PLACEMENT_3D('',#521,#430,#431);
#355=AXIS2_PLACEMENT_3D('',#522,#432,#433);
#356=AXIS2_PLACEMENT_3D('',#524,#434,#435);
#357=AXIS2_PLACEMENT_3D('',#525,#436,#437);
#358=AXIS2_PLACEMENT_3D('',#527,#438,#439);
#359=AXIS2_PLACEMENT_3D('',#528,#440,#441);
#360=AXIS2_PLACEMENT_3D('',#530,#442,#443);
#361=AXIS2_PLACEMENT_3D('',#531,#444,#445);
#362=AXIS2_PLACEMENT_3D('',#533,#446,#447);
#363=AXIS2_PLACEMENT_3D('',#534,#448,#449);
#364=AXIS2_PLACEMENT_3D('',#536,#450,#451);
#365=AXIS2_PLACEMENT_3D('',#538,#452,#453);
#366=AXIS2_PLACEMENT_3D('',#539,#454,#455);
#367=AXIS2_PLACEMENT_3D('',#541,#456,#457);
#368=AXIS2_PLACEMENT_3D('',#543,#458,#459);
#369=AXIS2_PLACEMENT_3D('',#544,#460,#461);
#370=AXIS2_PLACEMENT_3D('',#546,#462,#463);
#371=AXIS2_PLACEMENT_3D('',#547,#464,#465);
#372=AXIS2_PLACEMENT_3D('',#548,#466,#467);
#373=AXIS2_PLACEMENT_3D('',#549,#468,#469);
#374=AXIS2_PLACEMENT_3D('',#550,#470,#471);
#375=AXIS2_PLACEMENT_3D('',#553,#472,#473);
#376=AXIS2_PLACEMENT_3D('',#554,#474,#475);
#377=AXIS2_PLACEMENT_3D('',#556,#476,#477);
#378=AXIS2_PLACEMENT_3D('',#557,#478,#479);
#379=AXIS2_PLACEMENT_3D('',#559,#480,#481);
#380=DIRECTION('',(0.,0.,1.));
#381=DIRECTION('',(1.,0.,0.));
#382=DIRECTION('',(0.,0.,1.));
#383=DIRECTION('',(1.,0.,0.));
#384=DIRECTION('',(0.,0.,-1.));
#385=DIRECTION('',(-1.,0.,0.));
#386=DIRECTION('',(0.,0.,1.));
#387=DIRECTION('',(1.,0.,0.));
#388=DIRECTION('',(0.,0.,1.));
#389=DIRECTION('',(1.,0.,0.));
#390=DIRECTION('',(0.,0.,-1.));
#391=DIRECTION('',(-1.,0.,0.));
#392=DIRECTION('',(0.,0.,-1.));
#393=DIRECTION('',(-1.,0.,-1.52670863422834E-016));
#394=DIRECTION('',(0.,0.,-1.));
#395=DIRECTION('',(-1.,0.,0.));
#396=DIRECTION('',(0.,0.,1.));
#397=DIRECTION('',(1.,0.,0.));
#398=DIRECTION('',(0.,0.,1.));
#399=DIRECTION('',(1.,0.,0.));
#400=DIRECTION('',(0.,0.,1.));
#401=DIRECTION('',(1.,0.,0.));
#402=DIRECTION('',(0.,0.,1.));
#403=DIRECTION('',(1.,0.,0.));
#404=DIRECTION('',(0.,0.,1.));
#405=DIRECTION('',(-1.,0.,0.));
#406=DIRECTION('',(0.,0.,-1.));
#407=DIRECTION('',(-1.,0.,2.46051086534283E-017));
#408=DIRECTION('',(0.,0.,-1.));
#409=DIRECTION('',(-1.,0.,0.));
#410=DIRECTION('',(0.,0.,-1.));
#411=DIRECTION('',(-1.,0.,0.));
#412=DIRECTION('',(0.,0.,-1.));
#413=DIRECTION('',(1.,0.,0.));
#414=DIRECTION('',(0.,0.,1.));
#415=DIRECTION('',(1.,0.,0.));
#416=DIRECTION('',(0.,0.,1.));
#417=DIRECTION('',(1.,0.,0.));
#418=DIRECTION('',(0.,0.,1.));
#419=DIRECTION('',(1.,0.,0.));
#420=DIRECTION('',(0.,0.,-1.));
#421=DIRECTION('',(1.,0.,0.));
#422=DIRECTION('',(0.,0.,1.));
#423=DIRECTION('',(1.,0.,0.));
#424=DIRECTION('',(0.,0.,1.));
#425=DIRECTION('',(1.,0.,0.));
#426=DIRECTION('',(0.,0.,-1.));
#427=DIRECTION('',(-1.,0.,0.));
#428=DIRECTION('',(0.,0.,-1.));
#429=DIRECTION('',(-1.,0.,0.));
#430=DIRECTION('',(0.,0.,1.));
#431=DIRECTION('',(1.,0.,0.));
#432=DIRECTION('',(0.,0.,1.));
#433=DIRECTION('',(-1.,0.,0.));
#434=DIRECTION('',(0.,0.,1.));
#435=DIRECTION('',(1.,0.,-7.44485567601516E-019));
#436=DIRECTION('',(0.,0.,1.));
#437=DIRECTION('',(-1.,0.,0.));
#438=DIRECTION('',(0.,0.,-1.));
#439=DIRECTION('',(-1.,0.,0.));
#440=DIRECTION('',(0.,0.,1.));
#441=DIRECTION('',(-1.,0.,0.));
#442=DIRECTION('',(0.,0.,-1.));
#443=DIRECTION('',(-1.,0.,0.));
#444=DIRECTION('',(0.,0.,-1.));
#445=DIRECTION('',(-1.,0.,0.));
#446=DIRECTION('',(0.,0.,-1.));
#447=DIRECTION('',(-1.,0.,0.));
#448=DIRECTION('',(0.,0.,-1.));
#449=DIRECTION('',(-1.,0.,0.));
#450=DIRECTION('',(0.,0.,1.));
#451=DIRECTION('',(-1.,0.,0.));
#452=DIRECTION('',(0.,0.,-1.));
#453=DIRECTION('',(-1.,0.,0.));
#454=DIRECTION('',(0.,0.,-1.));
#455=DIRECTION('',(-1.,0.,0.));
#456=DIRECTION('',(0.,0.,-1.));
#457=DIRECTION('',(-1.,0.,0.));
#458=DIRECTION('',(0.,0.,-1.));
#459=DIRECTION('',(-1.,0.,0.));
#460=DIRECTION('',(0.,0.,-1.));
#461=DIRECTION('',(-1.,0.,0.));
#462=DIRECTION('',(0.,0.,-1.));
#463=DIRECTION('',(-1.,0.,0.));
#464=DIRECTION('',(0.,0.,-1.));
#465=DIRECTION('',(-1.,0.,-3.44191165868415E-017));
#466=DIRECTION('',(0.,0.,-1.));
#467=DIRECTION('',(-1.,0.,-4.81628729076357E-017));
#468=DIRECTION('',(0.,0.,-1.));
#469=DIRECTION('',(-1.,0.,-4.37957800641087E-019));
#470=DIRECTION('',(0.,0.,1.));
#471=DIRECTION('',(-1.,0.,0.));
#472=DIRECTION('',(0.,0.,1.));
#473=DIRECTION('',(1.,0.,-1.20011945576262E-017));
#474=DIRECTION('',(0.,0.,1.));
#475=DIRECTION('',(-1.,0.,0.));
#476=DIRECTION('',(0.,0.,-1.));
#477=DIRECTION('',(-1.,0.,0.));
#478=DIRECTION('',(0.,0.,1.));
#479=DIRECTION('',(1.,0.,-1.55257916083938E-016));
#480=DIRECTION('',(0.0450255473518916,-0.991539546845938,-0.121745747877344));
#481=DIRECTION('',(0.998970569790715,0.0453629881292538,-9.71445146547012E-017));
#482=DIRECTION('',(0.,0.,-1.));
#483=CARTESIAN_POINT('',(0.,0.,0.));
#484=CARTESIAN_POINT('',(0.,0.,4.44089209850063E-016));
#485=CARTESIAN_POINT('',(14.,0.,4.44089209850063E-016));
#486=CARTESIAN_POINT('',(0.,0.,2.78552988517526E-015));
#487=CARTESIAN_POINT('',(-9.49907116054874,0.,2.78552988517526E-015));
#488=CARTESIAN_POINT('',(0.,0.,4.44089209850063E-016));
#489=CARTESIAN_POINT('',(0.,0.,-34.6462025881397));
#490=CARTESIAN_POINT('',(14.8888110605808,0.,-34.6462025881397));
#491=CARTESIAN_POINT('',(0.,0.,-32.704812884238));
#492=CARTESIAN_POINT('',(-13.7679491924311,0.,-32.704812884238));
#493=CARTESIAN_POINT('',(0.,0.,-32.2407112691002));
#494=CARTESIAN_POINT('',(0.,0.,-35.6462025881397));
#495=CARTESIAN_POINT('',(-15.1567602530119,0.,-35.6462025881397));
#496=CARTESIAN_POINT('',(0.,0.,-36.8103042032775));
#497=CARTESIAN_POINT('',(15.1567602530119,0.,-36.8103042032775));
#498=CARTESIAN_POINT('',(0.,0.,0.));
#499=CARTESIAN_POINT('',(0.,0.,-40.2353459865519));
#500=CARTESIAN_POINT('',(9.57004288690393,0.,-40.2353459865519));
#501=CARTESIAN_POINT('',(0.,0.,-36.8103042032775));
#502=CARTESIAN_POINT('',(0.,0.,-37.5741067028294));
#503=CARTESIAN_POINT('',(-4.34203296749568,0.,-37.5741067028294));
#504=CARTESIAN_POINT('',(0.,0.,-40.2353459865519));
#505=CARTESIAN_POINT('',(0.,0.,-37.4));
#506=CARTESIAN_POINT('',(-3.61620357632718,0.,-37.4));
#507=CARTESIAN_POINT('',(4.,0.,-37.4));
#508=CARTESIAN_POINT('',(0.,0.,-0.5));
#509=CARTESIAN_POINT('',(14.5,0.,-0.5));
#510=CARTESIAN_POINT('',(0.,0.,-12.));
#511=CARTESIAN_POINT('',(14.5,0.,-12.));
#512=CARTESIAN_POINT('',(0.,0.,0.));
#513=CARTESIAN_POINT('',(0.,0.,-31.704812884238));
#514=CARTESIAN_POINT('',(13.5,0.,-31.704812884238));
#515=CARTESIAN_POINT('',(0.,0.,-13.4832396974191));
#516=CARTESIAN_POINT('',(13.5,0.,-13.4832396974191));
#517=CARTESIAN_POINT('',(0.,0.,0.));
#518=CARTESIAN_POINT('',(0.,0.,-13.4832396974191));
#519=CARTESIAN_POINT('',(0.,0.,-39.));
#520=CARTESIAN_POINT('',(0.,0.,-35.6462025881397));
#521=CARTESIAN_POINT('',(0.,0.,-31.704812884238));
#522=CARTESIAN_POINT('',(0.,0.,-0.186370330515627));
#523=CARTESIAN_POINT('',(-8.803527618041,0.,-0.186370330515627));
#524=CARTESIAN_POINT('',(0.,0.,2.78552988517526E-015));
#525=CARTESIAN_POINT('',(0.,0.,0.2));
#526=CARTESIAN_POINT('',(-8.29999999999999,0.,0.2));
#527=CARTESIAN_POINT('',(0.,0.,0.200000000000001));
#528=CARTESIAN_POINT('',(0.,0.,1.15358983848622));
#529=CARTESIAN_POINT('',(-8.29999999999999,0.,1.15358983848622));
#530=CARTESIAN_POINT('',(0.,0.,0.));
#531=CARTESIAN_POINT('',(0.,0.,1.5));
#532=CARTESIAN_POINT('',(-8.49999999999999,0.,1.5));
#533=CARTESIAN_POINT('',(0.,0.,1.15358983848622));
#534=CARTESIAN_POINT('',(0.,0.,23.));
#535=CARTESIAN_POINT('',(-3.6547,0.,23.));
#536=CARTESIAN_POINT('',(0.,0.,23.));
#537=CARTESIAN_POINT('',(-6.5,0.,23.));
#538=CARTESIAN_POINT('',(0.,0.,23.));
#539=CARTESIAN_POINT('',(0.,0.,21.5));
#540=CARTESIAN_POINT('',(-8.,0.,21.5));
#541=CARTESIAN_POINT('',(0.,0.,6.));
#542=CARTESIAN_POINT('',(-8.,0.,6.));
#543=CARTESIAN_POINT('',(0.,0.,-42.));
#544=CARTESIAN_POINT('',(0.,0.,5.5));
#545=CARTESIAN_POINT('',(-8.49999999999999,0.,5.5));
#546=CARTESIAN_POINT('',(0.,0.,-42.));
#547=CARTESIAN_POINT('',(0.,0.,21.5));
#548=CARTESIAN_POINT('',(0.,0.,5.5));
#549=CARTESIAN_POINT('',(0.,0.,4.44089209850063E-016));
#550=CARTESIAN_POINT('',(0.,0.,-23.));
#551=CARTESIAN_POINT('',(-2.5,0.,-23.));
#552=CARTESIAN_POINT('',(0.,0.,-24.4433756729741));
#553=CARTESIAN_POINT('',(0.,0.,-23.));
#554=CARTESIAN_POINT('',(0.,0.,21.0000009325002));
#555=CARTESIAN_POINT('',(-2.5,0.,21.0000009325002));
#556=CARTESIAN_POINT('',(0.,0.,-23.));
#557=CARTESIAN_POINT('',(0.,0.,23.));
#558=CARTESIAN_POINT('',(15.8499651437867,-0.381287154986861,-37.0371948624819));
#559=CARTESIAN_POINT('',(10.8551122948331,-0.60810209563313,-37.0371948624819));
#560=CARTESIAN_POINT('',(0.,0.,23.));
#561=MECHANICAL_DESIGN_GEOMETRIC_PRESENTATION_REPRESENTATION('',(#35,#36),
#562);
#562=(
GEOMETRIC_REPRESENTATION_CONTEXT(3)
GLOBAL_UNCERTAINTY_ASSIGNED_CONTEXT((#563))
GLOBAL_UNIT_ASSIGNED_CONTEXT((#569,#565,#564))
REPRESENTATION_CONTEXT('125E3R165M16_ISRC10_C_blank',
'TOP_LEVEL_ASSEMBLY_PART')
);
#563=UNCERTAINTY_MEASURE_WITH_UNIT(LENGTH_MEASURE(2.E-005),#569,
'DISTANCE_ACCURACY_VALUE','Maximum Tolerance applied to model');
#564=(
NAMED_UNIT(*)
SI_UNIT($,.STERADIAN.)
SOLID_ANGLE_UNIT()
);
#565=(
CONVERSION_BASED_UNIT('DEGREE',#567)
NAMED_UNIT(#566)
PLANE_ANGLE_UNIT()
);
#566=DIMENSIONAL_EXPONENTS(0.,0.,0.,0.,0.,0.,0.);
#567=PLANE_ANGLE_MEASURE_WITH_UNIT(PLANE_ANGLE_MEASURE(0.0174532925),#568);
#568=(
NAMED_UNIT(*)
PLANE_ANGLE_UNIT()
SI_UNIT($,.RADIAN.)
);
#569=(
LENGTH_UNIT()
NAMED_UNIT(*)
SI_UNIT(.MILLI.,.METRE.)
);
ENDSEC;
END-ISO-10303-21;
