  0
SECTION
  2
HEADER
  9
$ACADVER
  1
AC1015
  9
$ACADMAINTVER
 70
    20
  9
$DWGCODEPAGE
  3
ANSI_1250
  9
$INSBASE
 10
0.0
 20
0.0
 30
0.0
  9
$EXTMIN
 10
162.7959811000234
 20
117.872275
 30
0.0
  9
$EXTMAX
 10
277.14995
 20
208.1698448999766
 30
0.0
  9
$LIMMIN
 10
-0.5
 20
-0.5
  9
$LIMMAX
 10
5.0
 20
5.0
  9
$ORTHOMODE
 70
     0
  9
$REGENMODE
 70
     1
  9
$FILLMODE
 70
     1
  9
$QTEXTMODE
 70
     0
  9
$MIRRTEXT
 70
     1
  9
$LTSCALE
 40
1.0
  9
$ATTMODE
 70
     1
  9
$TEXTSIZE
 40
0.2
  9
$TRACEWID
 40
0.05
  9
$TEXTSTYLE
  7
Standard
  9
$CLAYER
  8
0
  9
$CELTYPE
  6
BYLAYER
  9
$CECOLOR
 62
   256
  9
$CELTSCALE
 40
1.0
  9
$DISPSILH
 70
     0
  9
$DIMSCALE
 40
1.0
  9
$DIMASZ
 40
0.18
  9
$DIMEXO
 40
0.0625
  9
$DIMDLI
 40
0.38
  9
$DIMRND
 40
0.0
  9
$DIMDLE
 40
0.0
  9
$DIMEXE
 40
0.18
  9
$DIMTP
 40
0.0
  9
$DIMTM
 40
0.0
  9
$DIMTXT
 40
0.18
  9
$DIMCEN
 40
0.09
  9
$DIMTSZ
 40
0.0
  9
$DIMTOL
 70
     0
  9
$DIMLIM
 70
     0
  9
$DIMTIH
 70
     1
  9
$DIMTOH
 70
     1
  9
$DIMSE1
 70
     0
  9
$DIMSE2
 70
     0
  9
$DIMTAD
 70
     0
  9
$DIMZIN
 70
     0
  9
$DIMBLK
  1

  9
$DIMASO
 70
     1
  9
$DIMSHO
 70
     1
  9
$DIMPOST
  1

  9
$DIMAPOST
  1

  9
$DIMALT
 70
     0
  9
$DIMALTD
 70
     2
  9
$DIMALTF
 40
25.4
  9
$DIMLFAC
 40
1.0
  9
$DIMTOFL
 70
     0
  9
$DIMTVP
 40
0.0
  9
$DIMTIX
 70
     0
  9
$DIMSOXD
 70
     0
  9
$DIMSAH
 70
     0
  9
$DIMBLK1
  1

  9
$DIMBLK2
  1

  9
$DIMSTYLE
  2
Standard
  9
$DIMCLRD
 70
     0
  9
$DIMCLRE
 70
     0
  9
$DIMCLRT
 70
     0
  9
$DIMTFAC
 40
1.0
  9
$DIMGAP
 40
0.09
  9
$DIMJUST
 70
     0
  9
$DIMSD1
 70
     0
  9
$DIMSD2
 70
     0
  9
$DIMTOLJ
 70
     1
  9
$DIMTZIN
 70
     0
  9
$DIMALTZ
 70
     0
  9
$DIMALTTZ
 70
     0
  9
$DIMUPT
 70
     0
  9
$DIMDEC
 70
     4
  9
$DIMTDEC
 70
     4
  9
$DIMALTU
 70
     2
  9
$DIMALTTD
 70
     2
  9
$DIMTXSTY
  7
Standard
  9
$DIMAUNIT
 70
     0
  9
$DIMADEC
 70
     0
  9
$DIMALTRND
 40
0.0
  9
$DIMAZIN
 70
     0
  9
$DIMDSEP
 70
    46
  9
$DIMATFIT
 70
     3
  9
$DIMFRAC
 70
     0
  9
$DIMLDRBLK
  1

  9
$DIMLUNIT
 70
     2
  9
$DIMLWD
 70
    -2
  9
$DIMLWE
 70
    -2
  9
$DIMTMOVE
 70
     0
  9
$LUNITS
 70
     2
  9
$LUPREC
 70
     4
  9
$SKETCHINC
 40
0.1
  9
$FILLETRAD
 40
0.5
  9
$AUNITS
 70
     0
  9
$AUPREC
 70
     0
  9
$MENU
  1
.
  9
$ELEVATION
 40
0.0
  9
$PELEVATION
 40
0.0
  9
$THICKNESS
 40
0.0
  9
$LIMCHECK
 70
     0
  9
$CHAMFERA
 40
0.0
  9
$CHAMFERB
 40
0.0
  9
$CHAMFERC
 40
0.0
  9
$CHAMFERD
 40
0.0
  9
$SKPOLY
 70
     0
  9
$TDCREATE
 40
2457920.579404480
  9
$TDUCREATE
 40
2457920.496071146
  9
$TDUPDATE
 40
2457920.580259954
  9
$TDUUPDATE
 40
2457920.496926621
  9
$TDINDWG
 40
0.0007150231
  9
$TDUSRTIMER
 40
0.0007150116
  9
$USRTIMER
 70
     1
  9
$ANGBASE
 50
0.0
  9
$ANGDIR
 70
     0
  9
$PDMODE
 70
     0
  9
$PDSIZE
 40
0.0
  9
$PLINEWID
 40
0.0
  9
$SPLFRAME
 70
     0
  9
$SPLINETYPE
 70
     6
  9
$SPLINESEGS
 70
     8
  9
$HANDSEED
  5
3C3
  9
$SURFTAB1
 70
     6
  9
$SURFTAB2
 70
     6
  9
$SURFTYPE
 70
     6
  9
$SURFU
 70
     6
  9
$SURFV
 70
     6
  9
$UCSBASE
  2

  9
$UCSNAME
  2

  9
$UCSORG
 10
0.0
 20
0.0
 30
0.0
  9
$UCSXDIR
 10
1.0
 20
0.0
 30
0.0
  9
$UCSYDIR
 10
0.0
 20
1.0
 30
0.0
  9
$UCSORTHOREF
  2

  9
$UCSORTHOVIEW
 70
     0
  9
$UCSORGTOP
 10
0.0
 20
0.0
 30
0.0
  9
$UCSORGBOTTOM
 10
0.0
 20
0.0
 30
0.0
  9
$UCSORGLEFT
 10
0.0
 20
0.0
 30
0.0
  9
$UCSORGRIGHT
 10
0.0
 20
0.0
 30
0.0
  9
$UCSORGFRONT
 10
0.0
 20
0.0
 30
0.0
  9
$UCSORGBACK
 10
0.0
 20
0.0
 30
0.0
  9
$PUCSBASE
  2

  9
$PUCSNAME
  2

  9
$PUCSORG
 10
0.0
 20
0.0
 30
0.0
  9
$PUCSXDIR
 10
1.0
 20
0.0
 30
0.0
  9
$PUCSYDIR
 10
0.0
 20
1.0
 30
0.0
  9
$PUCSORTHOREF
  2

  9
$PUCSORTHOVIEW
 70
     0
  9
$PUCSORGTOP
 10
0.0
 20
0.0
 30
0.0
  9
$PUCSORGBOTTOM
 10
0.0
 20
0.0
 30
0.0
  9
$PUCSORGLEFT
 10
0.0
 20
0.0
 30
0.0
  9
$PUCSORGRIGHT
 10
0.0
 20
0.0
 30
0.0
  9
$PUCSORGFRONT
 10
0.0
 20
0.0
 30
0.0
  9
$PUCSORGBACK
 10
0.0
 20
0.0
 30
0.0
  9
$USERI1
 70
     0
  9
$USERI2
 70
     0
  9
$USERI3
 70
     0
  9
$USERI4
 70
     0
  9
$USERI5
 70
     0
  9
$USERR1
 40
0.0
  9
$USERR2
 40
0.0
  9
$USERR3
 40
0.0
  9
$USERR4
 40
0.0
  9
$USERR5
 40
0.0
  9
$WORLDVIEW
 70
     1
  9
$SHADEDGE
 70
     3
  9
$SHADEDIF
 70
    70
  9
$TILEMODE
 70
     1
  9
$MAXACTVP
 70
    64
  9
$PINSBASE
 10
0.0
 20
0.0
 30
0.0
  9
$PLIMCHECK
 70
     0
  9
$PEXTMIN
 10
-0.5
 20
-0.5
 30
-0.5
  9
$PEXTMAX
 10
5.0
 20
5.0
 30
5.0
  9
$PLIMMIN
 10
-0.5
 20
-0.5
  9
$PLIMMAX
 10
5.0
 20
5.0
  9
$UNITMODE
 70
     0
  9
$VISRETAIN
 70
     1
  9
$PLINEGEN
 70
     0
  9
$PSLTSCALE
 70
     1
  9
$TREEDEPTH
 70
  3020
  9
$CMLSTYLE
  2
Standard
  9
$CMLJUST
 70
     0
  9
$CMLSCALE
 40
1.0
  9
$PROXYGRAPHICS
 70
     1
  9
$MEASUREMENT
 70
     1
  9
$CELWEIGHT
370
    13
  9
$ENDCAPS
280
     0
  9
$JOINSTYLE
280
     0
  9
$LWDISPLAY
290
     1
  9
$INSUNITS
 70
     4
  9
$HYPERLINKBASE
  1

  9
$STYLESHEET
  1

  9
$XEDIT
290
     1
  9
$CEPSNTYPE
380
     0
  9
$PSTYLEMODE
290
     1
  9
$FINGERPRINTGUID
  2
{754160A6-E958-4CC8-8312-0EE1B66BBA64}
  9
$VERSIONGUID
  2
{8301788D-AC2B-4536-AD1E-18C027B9F48D}
  9
$EXTNAMES
290
     1
  9
$PSVPSCALE
 40
0.0
  9
$OLESTARTUP
290
     0
  0
ENDSEC
  0
SECTION
  2
CLASSES
  0
CLASS
  1
ACDBDICTIONARYWDFLT
  2
AcDbDictionaryWithDefault
  3
ObjectDBX Classes
 90
        0
280
     0
281
     0
  0
CLASS
  1
VISUALSTYLE
  2
AcDbVisualStyle
  3
ObjectDBX Classes
 90
     4095
280
     0
281
     0
  0
CLASS
  1
MATERIAL
  2
AcDbMaterial
  3
ObjectDBX Classes
 90
     1153
280
     0
281
     0
  0
CLASS
  1
SCALE
  2
AcDbScale
  3
ObjectDBX Classes
 90
     1153
280
     0
281
     0
  0
CLASS
  1
SUN
  2
AcDbSun
  3
SCENEOE
 90
    33921
280
     0
281
     0
  0
CLASS
  1
DICTIONARYVAR
  2
AcDbDictionaryVar
  3
ObjectDBX Classes
 90
        0
280
     0
281
     0
  0
CLASS
  1
ACDBPLACEHOLDER
  2
AcDbPlaceHolder
  3
ObjectDBX Classes
 90
        0
280
     0
281
     0
  0
CLASS
  1
LAYOUT
  2
AcDbLayout
  3
ObjectDBX Classes
 90
        0
280
     0
281
     0
  0
CLASS
  1
TABLESTYLE
  2
AcDbTableStyle
  3
ObjectDBX Classes
 90
     4095
280
     0
281
     0
  0
CLASS
  1
MLEADERSTYLE
  2
AcDbMLeaderStyle
  3
ACDB_MLEADERSTYLE_CLASS
 90
     4095
280
     0
281
     0
  0
CLASS
  1
ACDBSECTIONVIEWSTYLE
  2
AcDbSectionViewStyle
  3
ObjectDBX Classes
 90
     1025
280
     0
281
     0
  0
CLASS
  1
ACDBDETAILVIEWSTYLE
  2
AcDbDetailViewStyle
  3
ObjectDBX Classes
 90
     1025
280
     0
281
     0
  0
CLASS
  1
SORTENTSTABLE
  2
AcDbSortentsTable
  3
ObjectDBX Classes
 90
        0
280
     0
281
     0
  0
CLASS
  1
CELLSTYLEMAP
  2
AcDbCellStyleMap
  3
ObjectDBX Classes
 90
     1152
280
     0
281
     0
  0
ENDSEC
  0
SECTION
  2
TABLES
  0
TABLE
  2
VPORT
  5
8
330
0
100
AcDbSymbolTable
 70
    17
  0
VPORT
  5
29
330
8
100
AcDbSymbolTableRecord
100
AcDbViewportTableRecord
  2
DUMMY
 70
     0
 10
0.0
 20
0.0
 11
1.0
 21
1.0
 12
10.429907
 22
4.5
 13
0.0
 23
0.0
 14
0.5
 24
0.5
 15
0.5
 25
0.5
 16
0.0
 26
0.0
 36
1.0
 17
0.0
 27
0.0
 37
0.0
 40
9.0
 41
1.972972999999999
 42
50.0
 43
0.0
 44
0.0
 50
0.0
 51
0.0
 71
     0
 72
   100
 73
     1
 74
     3
 75
     0
 76
     0
 77
     0
 78
     0
281
     0
 65
     1
110
0.0
120
0.0
130
0.0
111
1.0
121
0.0
131
0.0
112
0.0
122
1.0
132
0.0
 79
     0
146
0.0
  0
VPORT
  5
23D
330
8
100
AcDbSymbolTableRecord
100
AcDbViewportTableRecord
  2
*ACTIVE
 70
     0
 10
0.0
 20
0.0
 11
1.0
 21
1.0
 12
225.0044837844344
 22
180.8125978113656
 13
0.0
 23
0.0
 14
0.5
 24
0.5
 15
0.5
 25
0.5
 16
0.0
 26
0.0
 36
1.0
 17
0.0
 27
0.0
 37
0.0
 40
162.1153471032123
 41
2.037154989384288
 42
50.0
 43
208.038376
 44
-208.038376
 50
0.0
 51
0.0
 71
     0
 72
   100
 73
     1
 74
     3
 75
     0
 76
     0
 77
     0
 78
     0
281
     0
 65
     1
110
0.0
120
0.0
130
0.0
111
1.0
121
0.0
131
0.0
112
0.0
122
1.0
132
0.0
 79
     0
146
0.0
1001
ACAD_NAV_VCDISPLAY
1070
     3
  0
VPORT
  5
23F
330
8
100
AcDbSymbolTableRecord
100
AcDbViewportTableRecord
  2
L1
 70
     0
 10
0.0
 20
0.0
 11
1.0
 21
1.0
 12
220.12729
 22
162.429233
 13
0.0
 23
0.0
 14
0.5
 24
0.5
 15
0.5
 25
0.5
 16
0.0
 26
0.0
 36
1.0
 17
0.0
 27
0.0
 37
0.0
 40
264.583333
 41
0.067112
 42
50.0
 43
208.038376
 44
-208.038376
 50
0.0
 51
0.0
 71
     0
 72
   100
 73
     1
 74
     3
 75
     0
 76
     0
 77
     0
 78
     0
281
     0
 65
     1
110
0.0
120
0.0
130
0.0
111
1.0
121
0.0
131
0.0
112
0.0
122
1.0
132
0.0
 79
     0
146
0.0
  0
VPORT
  5
240
330
8
100
AcDbSymbolTableRecord
100
AcDbViewportTableRecord
  2
L2
 70
     0
 10
0.0
 20
0.0
 11
0.5
 21
1.0
 12
0.0
 22
0.0
 13
0.0
 23
0.0
 14
0.5
 24
0.5
 15
0.5
 25
0.5
 16
0.0
 26
-1.0
 36
0.0
 17
0.0
 27
0.0
 37
0.0
 40
1602.038428
 41
0.011084
 42
50.0
 43
823.3602069999999
 44
-823.3602069999999
 50
0.0
 51
0.0
 71
     0
 72
   100
 73
     1
 74
     3
 75
     0
 76
     0
 77
     0
 78
     0
281
     0
 65
     1
110
0.0
120
0.0
130
0.0
111
1.0
121
0.0
131
0.0
112
0.0
122
1.0
132
0.0
 79
     0
146
0.0
  0
VPORT
  5
241
330
8
100
AcDbSymbolTableRecord
100
AcDbViewportTableRecord
  2
L2
 70
     0
 10
0.5
 20
0.0
 11
1.0
 21
1.0
 12
0.0
 22
0.0
 13
0.0
 23
0.0
 14
0.5
 24
0.5
 15
0.5
 25
0.5
 16
1.0
 26
0.0
 36
0.0
 17
0.0
 27
0.0
 37
0.0
 40
1602.038428
 41
0.011084
 42
50.0
 43
811.8699809999998
 44
-811.8699809999998
 50
0.0
 51
0.0
 71
     0
 72
   100
 73
     1
 74
     3
 75
     0
 76
     0
 77
     0
 78
     0
281
     0
 65
     1
110
0.0
120
0.0
130
0.0
111
1.0
121
0.0
131
0.0
112
0.0
122
1.0
132
0.0
 79
     0
146
0.0
  0
VPORT
  5
242
330
8
100
AcDbSymbolTableRecord
100
AcDbViewportTableRecord
  2
L3
 70
     0
 10
0.0
 20
0.5
 11
1.0
 21
1.0
 12
220.12729
 22
162.429233
 13
0.0
 23
0.0
 14
0.5
 24
0.5
 15
0.5
 25
0.5
 16
0.0
 26
0.0
 36
1.0
 17
0.0
 27
0.0
 37
0.0
 40
264.583333
 41
0.067112
 42
50.0
 43
208.038376
 44
-208.038376
 50
0.0
 51
0.0
 71
     0
 72
   100
 73
     1
 74
     3
 75
     0
 76
     0
 77
     0
 78
     0
281
     0
 65
     1
110
0.0
120
0.0
130
0.0
111
1.0
121
0.0
131
0.0
112
0.0
122
1.0
132
0.0
 79
     0
146
0.0
  0
VPORT
  5
243
330
8
100
AcDbSymbolTableRecord
100
AcDbViewportTableRecord
  2
L3
 70
     0
 10
0.0
 20
0.0
 11
1.0
 21
0.5
 12
0.0
 22
0.0
 13
0.0
 23
0.0
 14
0.5
 24
0.5
 15
0.5
 25
0.5
 16
0.0
 26
-1.0
 36
0.0
 17
0.0
 27
0.0
 37
0.0
 40
1602.038428
 41
0.011084
 42
50.0
 43
823.3602069999999
 44
-823.3602069999999
 50
0.0
 51
0.0
 71
     0
 72
   100
 73
     1
 74
     3
 75
     0
 76
     0
 77
     0
 78
     0
281
     0
 65
     1
110
0.0
120
0.0
130
0.0
111
1.0
121
0.0
131
0.0
112
0.0
122
1.0
132
0.0
 79
     0
146
0.0
  0
VPORT
  5
244
330
8
100
AcDbSymbolTableRecord
100
AcDbViewportTableRecord
  2
L4
 70
     0
 10
0.0
 20
0.5
 11
0.5
 21
1.0
 12
220.12729
 22
162.429233
 13
0.0
 23
0.0
 14
0.5
 24
0.5
 15
0.5
 25
0.5
 16
0.0
 26
0.0
 36
1.0
 17
0.0
 27
0.0
 37
0.0
 40
264.583333
 41
0.067112
 42
50.0
 43
208.038376
 44
-208.038376
 50
0.0
 51
0.0
 71
     0
 72
   100
 73
     1
 74
     3
 75
     0
 76
     0
 77
     0
 78
     0
281
     0
 65
     1
110
0.0
120
0.0
130
0.0
111
1.0
121
0.0
131
0.0
112
0.0
122
1.0
132
0.0
 79
     0
146
0.0
  0
VPORT
  5
245
330
8
100
AcDbSymbolTableRecord
100
AcDbViewportTableRecord
  2
L4
 70
     0
 10
0.0
 20
0.0
 11
0.5
 21
0.5
 12
0.0
 22
0.0
 13
0.0
 23
0.0
 14
0.5
 24
0.5
 15
0.5
 25
0.5
 16
0.0
 26
-1.0
 36
0.0
 17
0.0
 27
0.0
 37
0.0
 40
1602.038428
 41
0.011084
 42
50.0
 43
823.3602069999999
 44
-823.3602069999999
 50
0.0
 51
0.0
 71
     0
 72
   100
 73
     1
 74
     3
 75
     0
 76
     0
 77
     0
 78
     0
281
     0
 65
     1
110
0.0
120
0.0
130
0.0
111
1.0
121
0.0
131
0.0
112
0.0
122
1.0
132
0.0
 79
     0
146
0.0
  0
VPORT
  5
246
330
8
100
AcDbSymbolTableRecord
100
AcDbViewportTableRecord
  2
L4
 70
     0
 10
0.5
 20
0.0
 11
1.0
 21
0.5
 12
0.0
 22
0.0
 13
0.0
 23
0.0
 14
0.5
 24
0.5
 15
0.5
 25
0.5
 16
1.0
 26
0.0
 36
0.0
 17
0.0
 27
0.0
 37
0.0
 40
1602.038428
 41
0.011084
 42
50.0
 43
811.8699809999998
 44
-811.8699809999998
 50
0.0
 51
0.0
 71
     0
 72
   100
 73
     1
 74
     3
 75
     0
 76
     0
 77
     0
 78
     0
281
     0
 65
     1
110
0.0
120
0.0
130
0.0
111
1.0
121
0.0
131
0.0
112
0.0
122
1.0
132
0.0
 79
     0
146
0.0
  0
VPORT
  5
247
330
8
100
AcDbSymbolTableRecord
100
AcDbViewportTableRecord
  2
L4
 70
     0
 10
0.5
 20
0.5
 11
1.0
 21
1.0
 12
0.0
 22
0.0
 13
0.0
 23
0.0
 14
0.5
 24
0.5
 15
0.5
 25
0.5
 16
0.5773502691896259
 26
-0.5773502691896259
 36
0.5773502691896259
 17
0.0
 27
0.0
 37
0.0
 40
1571.617191
 41
0.011298
 42
50.0
 43
818.286245
 44
-818.286245
 50
0.0
 51
0.0
 71
     0
 72
   100
 73
     1
 74
     3
 75
     0
 76
     0
 77
     0
 78
     0
281
     0
 65
     1
110
0.0
120
0.0
130
0.0
111
1.0
121
0.0
131
0.0
112
0.0
122
1.0
132
0.0
 79
     0
146
0.0
  0
VPORT
  5
248
330
8
100
AcDbSymbolTableRecord
100
AcDbViewportTableRecord
  2
L6
 70
     0
 10
0.0
 20
0.5
 11
0.333333
 21
1.0
 12
0.0
 22
0.0
 13
0.0
 23
0.0
 14
0.5
 24
0.5
 15
0.5
 25
0.5
 16
0.7188730927569434
 26
-0.5850486126764433
 36
0.3754192287502549
 17
0.0
 27
0.0
 37
0.0
 40
1658.494684
 41
0.010707
 42
50.0
 43
858.6703250000001
 44
-858.6703250000001
 50
0.0
 51
0.0
 71
     0
 72
   100
 73
     1
 74
     3
 75
     0
 76
     0
 77
     0
 78
     0
281
     0
 65
     1
110
0.0
120
0.0
130
0.0
111
1.0
121
0.0
131
0.0
112
0.0
122
1.0
132
0.0
 79
     0
146
0.0
  0
VPORT
  5
249
330
8
100
AcDbSymbolTableRecord
100
AcDbViewportTableRecord
  2
L6
 70
     0
 10
0.0
 20
0.0
 11
0.333333
 21
0.5
 12
0.0
 22
0.0
 13
0.0
 23
0.0
 14
0.5
 24
0.5
 15
0.5
 25
0.5
 16
-1.0
 26
0.0
 36
0.0
 17
0.0
 27
0.0
 37
0.0
 40
1602.038428
 41
0.011084
 42
50.0
 43
811.8699809999998
 44
-811.8699809999998
 50
0.0
 51
0.0
 71
     0
 72
   100
 73
     1
 74
     3
 75
     0
 76
     0
 77
     0
 78
     0
281
     0
 65
     1
110
0.0
120
0.0
130
0.0
111
1.0
121
0.0
131
0.0
112
0.0
122
1.0
132
0.0
 79
     0
146
0.0
  0
VPORT
  5
24A
330
8
100
AcDbSymbolTableRecord
100
AcDbViewportTableRecord
  2
L6
 70
     0
 10
0.333333
 20
0.5
 11
0.666667
 21
1.0
 12
220.12729
 22
162.429233
 13
0.0
 23
0.0
 14
0.5
 24
0.5
 15
0.5
 25
0.5
 16
0.0
 26
0.0
 36
1.0
 17
0.0
 27
0.0
 37
0.0
 40
264.583333
 41
0.067112
 42
50.0
 43
208.038376
 44
-208.038376
 50
0.0
 51
0.0
 71
     0
 72
   100
 73
     1
 74
     3
 75
     0
 76
     0
 77
     0
 78
     0
281
     0
 65
     1
110
0.0
120
0.0
130
0.0
111
1.0
121
0.0
131
0.0
112
0.0
122
1.0
132
0.0
 79
     0
146
0.0
  0
VPORT
  5
24B
330
8
100
AcDbSymbolTableRecord
100
AcDbViewportTableRecord
  2
L6
 70
     0
 10
0.333333
 20
0.0
 11
0.666667
 21
0.5
 12
0.0
 22
0.0
 13
0.0
 23
0.0
 14
0.5
 24
0.5
 15
0.5
 25
0.5
 16
0.0
 26
-1.0
 36
0.0
 17
0.0
 27
0.0
 37
0.0
 40
1602.038428
 41
0.011084
 42
50.0
 43
823.3602069999999
 44
-823.3602069999999
 50
0.0
 51
0.0
 71
     0
 72
   100
 73
     1
 74
     3
 75
     0
 76
     0
 77
     0
 78
     0
281
     0
 65
     1
110
0.0
120
0.0
130
0.0
111
1.0
121
0.0
131
0.0
112
0.0
122
1.0
132
0.0
 79
     0
146
0.0
  0
VPORT
  5
24C
330
8
100
AcDbSymbolTableRecord
100
AcDbViewportTableRecord
  2
L6
 70
     0
 10
0.666667
 20
0.5
 11
1.0
 21
1.0
 12
0.0
 22
0.0
 13
0.0
 23
0.0
 14
0.5
 24
0.5
 15
0.5
 25
0.5
 16
0.5773502691896259
 26
-0.5773502691896259
 36
0.5773502691896259
 17
0.0
 27
0.0
 37
0.0
 40
1571.617191
 41
0.011298
 42
50.0
 43
818.286245
 44
-818.286245
 50
0.0
 51
0.0
 71
     0
 72
   100
 73
     1
 74
     3
 75
     0
 76
     0
 77
     0
 78
     0
281
     0
 65
     1
110
0.0
120
0.0
130
0.0
111
1.0
121
0.0
131
0.0
112
0.0
122
1.0
132
0.0
 79
     0
146
0.0
  0
VPORT
  5
24D
330
8
100
AcDbSymbolTableRecord
100
AcDbViewportTableRecord
  2
L6
 70
     0
 10
0.666667
 20
0.0
 11
1.0
 21
0.5
 12
0.0
 22
0.0
 13
0.0
 23
0.0
 14
0.5
 24
0.5
 15
0.5
 25
0.5
 16
1.0
 26
0.0
 36
0.0
 17
0.0
 27
0.0
 37
0.0
 40
1602.038428
 41
0.011084
 42
50.0
 43
811.8699809999998
 44
-811.8699809999998
 50
0.0
 51
0.0
 71
     0
 72
   100
 73
     1
 74
     3
 75
     0
 76
     0
 77
     0
 78
     0
281
     0
 65
     1
110
0.0
120
0.0
130
0.0
111
1.0
121
0.0
131
0.0
112
0.0
122
1.0
132
0.0
 79
     0
146
0.0
  0
ENDTAB
  0
TABLE
  2
LTYPE
  5
5
330
0
100
AcDbSymbolTable
 70
     7
  0
LTYPE
  5
14
330
5
100
AcDbSymbolTableRecord
100
AcDbLinetypeTableRecord
  2
BYBLOCK
 70
     0
  3

 72
    65
 73
     0
 40
0.0
  0
LTYPE
  5
15
330
5
100
AcDbSymbolTableRecord
100
AcDbLinetypeTableRecord
  2
BYLAYER
 70
     0
  3

 72
    65
 73
     0
 40
0.0
  0
LTYPE
  5
16
330
5
100
AcDbSymbolTableRecord
100
AcDbLinetypeTableRecord
  2
CONTINUOUS
 70
     0
  3
Solid line
 72
    65
 73
     0
 40
0.0
  0
LTYPE
  5
6A
330
5
100
AcDbSymbolTableRecord
100
AcDbLinetypeTableRecord
  2
CENTER2
 70
     0
  3
Center (.5x) ___ _ ___ _ ___ _ ___ _ ___ _ ___
 72
    65
 73
     4
 40
28.575
 49
19.05
 74
     4
 75
     0
340
0
 46
0.0
 50
0.0
 44
0.0
 45
0.0
 49
-3.174999999999999
 74
     4
 75
     0
340
0
 46
0.0
 50
0.0
 44
0.0
 45
0.0
 49
3.174999999999999
 74
     4
 75
     0
340
0
 46
0.0
 50
0.0
 44
0.0
 45
0.0
 49
-3.174999999999999
 74
     4
 75
     0
340
0
 46
0.0
 50
0.0
 44
0.0
 45
0.0
  0
LTYPE
  5
6B
330
5
100
AcDbSymbolTableRecord
100
AcDbLinetypeTableRecord
  2
DASHDOT
 70
     0
  3
_._._._._._._._._._._._._._._._.
 72
    65
 73
     4
 40
70.0
 49
31.0
 74
     4
 75
     0
340
0
 46
0.0
 50
0.0
 44
0.0
 45
0.0
 49
-13.0
 74
     4
 75
     0
340
0
 46
0.0
 50
0.0
 44
0.0
 45
0.0
 49
13.0
 74
     4
 75
     0
340
0
 46
0.0
 50
0.0
 44
0.0
 45
0.0
 49
-13.0
 74
     4
 75
     0
340
0
 46
0.0
 50
0.0
 44
0.0
 45
0.0
  0
LTYPE
  5
6C
330
5
100
AcDbSymbolTableRecord
100
AcDbLinetypeTableRecord
  2
DASHED
 70
     0
  3
__ __ __ __ __ __ __ __ __
 72
    65
 73
     2
 40
25.72
 49
12.86
 74
     4
 75
     0
340
0
 46
0.0
 50
0.0
 44
0.0
 45
0.0
 49
-12.86
 74
     4
 75
     0
340
0
 46
0.0
 50
0.0
 44
0.0
 45
0.0
  0
LTYPE
  5
6D
330
5
100
AcDbSymbolTableRecord
100
AcDbLinetypeTableRecord
  2
DOT
 70
     0
  3
.........................
 72
    65
 73
     2
 40
10.0
 49
0.0
 74
     4
 75
     0
340
0
 46
0.0
 50
0.0
 44
0.0
 45
0.0
 49
-10.0
 74
     4
 75
     0
340
0
 46
0.0
 50
0.0
 44
0.0
 45
0.0
  0
LTYPE
  5
6E
330
5
100
AcDbSymbolTableRecord
100
AcDbLinetypeTableRecord
  2
PHANTOM
 70
     0
  3
____ _ _ ____ _ _ _____ _ _ ____
 72
    65
 73
     6
 40
50.5
 49
18.0
 74
     4
 75
     0
340
0
 46
0.0
 50
0.0
 44
0.0
 45
0.0
 49
-6.5
 74
     4
 75
     0
340
0
 46
0.0
 50
0.0
 44
0.0
 45
0.0
 49
6.5
 74
     4
 75
     0
340
0
 46
0.0
 50
0.0
 44
0.0
 45
0.0
 49
-6.5
 74
     4
 75
     0
340
0
 46
0.0
 50
0.0
 44
0.0
 45
0.0
 49
6.5
 74
     4
 75
     0
340
0
 46
0.0
 50
0.0
 44
0.0
 45
0.0
 49
-6.5
 74
     4
 75
     0
340
0
 46
0.0
 50
0.0
 44
0.0
 45
0.0
  0
ENDTAB
  0
TABLE
  2
LAYER
  5
2
330
0
100
AcDbSymbolTable
 70
    19
  0
LAYER
  5
10
102
{ACAD_XDICTIONARY
360
363
102
}
330
2
100
AcDbSymbolTableRecord
100
AcDbLayerTableRecord
  2
0
 70
     0
 62
     7
  6
CONTINUOUS
370
    -3
390
F
  0
LAYER
  5
355
102
{ACAD_XDICTIONARY
360
365
102
}
330
2
100
AcDbSymbolTableRecord
100
AcDbLayerTableRecord
  2
1
 70
     0
 62
     4
  6
CONTINUOUS
370
    -3
390
F
  0
LAYER
  5
356
102
{ACAD_XDICTIONARY
360
367
102
}
330
2
100
AcDbSymbolTableRecord
100
AcDbLayerTableRecord
  2
2
 70
     0
 62
     7
  6
CONTINUOUS
370
    -3
390
F
  0
LAYER
  5
357
102
{ACAD_XDICTIONARY
360
369
102
}
330
2
100
AcDbSymbolTableRecord
100
AcDbLayerTableRecord
  2
4
 70
     0
 62
     2
  6
CENTER2
370
    -3
390
F
  0
LAYER
  5
358
102
{ACAD_XDICTIONARY
360
36B
102
}
330
2
100
AcDbSymbolTableRecord
100
AcDbLayerTableRecord
  2
SK1
 70
     0
 62
     4
  6
CONTINUOUS
370
    -3
390
F
  0
LAYER
  5
359
102
{ACAD_XDICTIONARY
360
36D
102
}
330
2
100
AcDbSymbolTableRecord
100
AcDbLayerTableRecord
  2
SK2
 70
     0
 62
     7
  6
CONTINUOUS
370
    -3
390
F
  0
LAYER
  5
35B
102
{ACAD_XDICTIONARY
360
36F
102
}
330
2
100
AcDbSymbolTableRecord
100
AcDbLayerTableRecord
  2
SK4
 70
     0
 62
     2
  6
CENTER2
370
    -3
390
F
  0
LAYER
  5
35C
102
{ACAD_XDICTIONARY
360
371
102
}
330
2
100
AcDbSymbolTableRecord
100
AcDbLayerTableRecord
  2
SK6
 70
     0
 62
     5
  6
CONTINUOUS
370
    -3
390
F
  0
LAYER
  5
35D
102
{ACAD_XDICTIONARY
360
373
102
}
330
2
100
AcDbSymbolTableRecord
100
AcDbLayerTableRecord
  2
CUT
 70
     0
 62
     1
  6
CONTINUOUS
370
    -3
390
F
  0
LAYER
  5
35E
102
{ACAD_XDICTIONARY
360
375
102
}
330
2
100
AcDbSymbolTableRecord
100
AcDbLayerTableRecord
  2
NOCUT
 70
     0
 62
     7
  6
CONTINUOUS
370
    -3
390
F
  0
LAYER
  5
35F
102
{ACAD_XDICTIONARY
360
377
102
}
330
2
100
AcDbSymbolTableRecord
100
AcDbLayerTableRecord
  2
80
 70
     0
 62
     6
  6
CONTINUOUS
370
    -3
390
F
  0
LAYER
  5
360
102
{ACAD_XDICTIONARY
360
379
102
}
330
2
100
AcDbSymbolTableRecord
100
AcDbLayerTableRecord
  2
81
 70
     0
 62
     3
  6
CONTINUOUS
370
    -3
390
F
  0
ENDTAB
  0
TABLE
  2
STYLE
  5
3
330
0
100
AcDbSymbolTable
 70
     2
  0
STYLE
  5
11
330
3
100
AcDbSymbolTableRecord
100
AcDbTextStyleTableRecord
  2
Standard
 70
     0
 40
0.0
 41
1.0
 50
0.0
 71
     0
 42
0.2
  3
txt
  4

  0
STYLE
  5
207
330
3
100
AcDbSymbolTableRecord
100
AcDbTextStyleTableRecord
  2
cesky
 70
     0
 40
0.0
 41
1.0
 50
0.0
 71
     0
 42
0.2
  3
Monospac821 BT
  4

1001
ACAD
1000
Monospac821 BT
1071
        0
  0
ENDTAB
  0
TABLE
  2
VIEW
  5
6
330
0
100
AcDbSymbolTable
 70
     0
  0
ENDTAB
  0
TABLE
  2
UCS
  5
7
330
0
100
AcDbSymbolTable
 70
     0
  0
ENDTAB
  0
TABLE
  2
APPID
  5
9
330
0
100
AcDbSymbolTable
 70
     4
  0
APPID
  5
12
330
9
100
AcDbSymbolTableRecord
100
AcDbRegAppTableRecord
  2
ACAD
 70
     0
  0
APPID
  5
361
330
9
100
AcDbSymbolTableRecord
100
AcDbRegAppTableRecord
  2
ACAD_EXEMPT_FROM_CAD_STANDARDS
 70
     0
  0
APPID
  5
382
330
9
100
AcDbSymbolTableRecord
100
AcDbRegAppTableRecord
  2
ACAD_NAV_VCDISPLAY
 70
     0
  0
APPID
  5
3BE
330
9
100
AcDbSymbolTableRecord
100
AcDbRegAppTableRecord
  2
ACAD_MLEADERVER
 70
     0
  0
ENDTAB
  0
TABLE
  2
DIMSTYLE
  5
A
330
0
100
AcDbSymbolTable
 70
     1
100
AcDbDimStyleTable
 71
     0
  0
DIMSTYLE
105
27
330
A
100
AcDbSymbolTableRecord
100
AcDbDimStyleTableRecord
  2
Standard
 70
     0
340
11
  0
ENDTAB
  0
TABLE
  2
BLOCK_RECORD
  5
1
330
0
100
AcDbSymbolTable
 70
     3
  0
BLOCK_RECORD
  5
1F
102
{ACAD_XDICTIONARY
360
2BD
102
}
330
1
100
AcDbSymbolTableRecord
100
AcDbBlockTableRecord
  2
*Model_Space
340
22
  0
BLOCK_RECORD
  5
1B
330
1
100
AcDbSymbolTableRecord
100
AcDbBlockTableRecord
  2
*Paper_Space
340
1E
  0
BLOCK_RECORD
  5
23
330
1
100
AcDbSymbolTableRecord
100
AcDbBlockTableRecord
  2
*Paper_Space0
340
26
  0
BLOCK_RECORD
  5
222
330
1
100
AcDbSymbolTableRecord
100
AcDbBlockTableRecord
  2
DimnDraft3D1
340
0
  0
BLOCK_RECORD
  5
22D
330
1
100
AcDbSymbolTableRecord
100
AcDbBlockTableRecord
  2
DimnDraft3D2
340
0
  0
ENDTAB
  0
ENDSEC
  0
SECTION
  2
BLOCKS
  0
BLOCK
  5
20
330
1F
100
AcDbEntity
  8
0
100
AcDbBlockBegin
  2
*Model_Space
 70
     0
 10
0.0
 20
0.0
 30
0.0
  3
*Model_Space
  1
*Model_Space
  0
ENDBLK
  5
21
330
1F
100
AcDbEntity
  8
0
100
AcDbBlockEnd
  0
BLOCK
  5
1C
330
1B
100
AcDbEntity
 67
     1
  8
0
100
AcDbBlockBegin
  2
*Paper_Space
 70
     0
 10
0.0
 20
0.0
 30
0.0
  3
*Paper_Space
  1
*Paper_Space
  0
ENDBLK
  5
1D
330
1B
100
AcDbEntity
 67
     1
  8
0
100
AcDbBlockEnd
  0
BLOCK
  5
24
330
23
100
AcDbEntity
 67
     1
  8
0
100
AcDbBlockBegin
  2
*Paper_Space0
 70
     0
 10
0.0
 20
0.0
 30
0.0
  3
*Paper_Space0
  1
*Paper_Space0
  0
ENDBLK
  5
25
330
23
100
AcDbEntity
 67
     1
  8
0
100
AcDbBlockEnd
  0
BLOCK
  5
22A
330
222
100
AcDbEntity
  8
0
100
AcDbBlockBegin
  2
DimnDraft3D1
 70
     0
 10
0.0
 20
0.0
 30
0.0
  3
DimnDraft3D1
  1
DimnDraft3D1
  0
ENDBLK
  5
22B
330
222
100
AcDbEntity
  8
0
100
AcDbBlockEnd
  0
BLOCK
  5
235
330
22D
100
AcDbEntity
  8
0
100
AcDbBlockBegin
  2
DimnDraft3D2
 70
     0
 10
0.0
 20
0.0
 30
0.0
  3
DimnDraft3D2
  1
DimnDraft3D2
  0
ENDBLK
  5
236
330
22D
100
AcDbEntity
  8
0
100
AcDbBlockEnd
  0
ENDSEC
  0
SECTION
  2
ENTITIES
  0
POINT
  5
6F
330
1F
100
AcDbEntity
  8
SK6
 60
     1
100
AcDbPoint
 10
252.505716
 20
189.06458
 30
0.0
  0
POINT
  5
71
330
1F
100
AcDbEntity
  8
SK4
 60
     1
100
AcDbPoint
 10
187.505714
 20
173.2145379999999
 30
0.0
  0
POINT
  5
72
330
1F
100
AcDbEntity
  8
SK4
 60
     1
100
AcDbPoint
 10
210.505714
 20
173.2145379999999
 30
0.0
  0
POINT
  5
73
330
1F
100
AcDbEntity
  8
4
 60
     1
100
AcDbPoint
 10
210.505714
 20
173.2145379999999
 30
0.0
  0
POINT
  5
74
330
1F
100
AcDbEntity
  8
4
 60
     1
100
AcDbPoint
 10
251.15927
 20
173.2145379999999
 30
0.0
  0
LINE
  5
85
330
1F
100
AcDbEntity
  8
1
100
AcDbLine
 10
213.505714
 20
161.764538
 30
0.0
 11
213.505714
 21
158.7145379999999
 31
0.0
  0
LINE
  5
87
330
1F
100
AcDbEntity
  8
SK1
100
AcDbLine
 10
189.005714
 20
165.214538
 30
0.0
 11
189.005714
 21
181.214538
 31
0.0
  0
LINE
  5
88
330
1F
100
AcDbEntity
  8
SK1
100
AcDbLine
 10
205.005714
 20
164.7145379999999
 30
0.0
 11
205.005714
 21
181.7145379999999
 31
0.0
  0
LINE
  5
89
330
1F
100
AcDbEntity
  8
1
100
AcDbLine
 10
211.005714
 20
187.7145379999999
 30
0.0
 11
211.005714
 21
158.7145379999999
 31
0.0
  0
LINE
  5
8A
330
1F
100
AcDbEntity
  8
SK1
100
AcDbLine
 10
204.505714
 20
165.214538
 30
0.0
 11
204.505714
 21
181.214538
 31
0.0
  0
LINE
  5
8B
330
1F
100
AcDbEntity
  8
1
100
AcDbLine
 10
225.005714
 20
162.2645379999999
 30
0.0
 11
223.988954
 21
162.2645379999999
 31
0.0
  0
LINE
  5
8C
330
1F
100
AcDbEntity
  8
1
100
AcDbLine
 10
222.505714
 20
162.2645379999999
 30
0.0
 11
222.505714
 21
184.164538
 31
0.0
  0
LINE
  5
8D
330
1F
100
AcDbEntity
  8
SK1
100
AcDbLine
 10
209.005714
 20
164.7145379999999
 30
0.0
 11
209.005714
 21
181.7145379999999
 31
0.0
  0
LINE
  5
8E
330
1F
100
AcDbEntity
  8
1
100
AcDbLine
 10
244.557953
 20
168.925267
 30
0.0
 11
245.199088
 21
168.697824
 31
0.0
  0
LINE
  5
90
330
1F
100
AcDbEntity
  8
1
100
AcDbLine
 10
251.20927
 20
170.506572
 30
0.0
 11
251.20927
 21
171.91473
 31
0.0
  0
LINE
  5
91
330
1F
100
AcDbEntity
  8
1
100
AcDbLine
 10
245.541018
 20
168.669392
 30
0.0
 11
248.57814
 21
169.000128
 31
0.0
  0
LINE
  5
92
330
1F
100
AcDbEntity
  8
1
100
AcDbLine
 10
248.920069
 20
169.10303
 30
0.0
 11
251.067639
 21
170.3326139999999
 31
0.0
  0
LINE
  5
93
330
1F
100
AcDbEntity
  8
1
100
AcDbLine
 10
251.067639
 20
165.58968
 30
0.0
 11
250.698626
 21
165.828114
 31
0.0
  0
LINE
  5
94
330
1F
100
AcDbEntity
  8
1
100
AcDbLine
 10
251.20927
 20
163.740866
 30
0.0
 11
251.20927
 21
165.389442
 31
0.0
  0
LINE
  5
95
330
1F
100
AcDbEntity
  8
1
100
AcDbLine
 10
251.15927
 20
171.291307
 30
0.0
 11
251.15927
 21
180.237895
 31
0.0
  0
LINE
  5
96
330
1F
100
AcDbEntity
  8
1
100
AcDbLine
 10
251.266509
 20
171.803597
 30
0.0
 11
251.200641
 21
171.956066
 31
0.0
  0
LINE
  5
97
330
1F
100
AcDbEntity
  8
1
100
AcDbLine
 10
252.116224
 20
166.282429
 30
0.0
 11
252.445846
 21
167.389805
 31
0.0
  0
LINE
  5
98
330
1F
100
AcDbEntity
  8
1
100
AcDbLine
 10
225.505714
 20
159.7145379999999
 30
0.0
 11
242.210527
 21
159.7145379999999
 31
0.0
  0
LINE
  5
99
330
1F
100
AcDbEntity
  8
1
100
AcDbLine
 10
243.51088
 20
180.581325
 30
0.0
 11
243.056865
 21
181.040798
 31
0.0
  0
LINE
  5
9A
330
1F
100
AcDbEntity
  8
1
100
AcDbLine
 10
245.274954
 20
164.649204
 30
0.0
 11
250.20891
 21
165.106466
 31
0.0
  0
LINE
  5
9B
330
1F
100
AcDbEntity
  8
1
100
AcDbLine
 10
248.136366
 20
183.29019
 30
0.0
 11
247.97609
 21
183.230915
 31
0.0
  0
LINE
  5
9D
330
1F
100
AcDbEntity
  8
1
100
AcDbLine
 10
246.763474
 20
185.027331
 30
0.0
 11
246.923749
 21
185.086606
 31
0.0
  0
LINE
  5
9E
330
1F
100
AcDbEntity
  8
1
100
AcDbLine
 10
246.673856
 20
183.320552
 30
0.0
 11
246.562566
 21
183.279393
 31
0.0
  0
LINE
  5
9F
330
1F
100
AcDbEntity
  8
1
100
AcDbLine
 10
242.580122
 20
184.083413
 30
0.0
 11
242.580231
 21
184.0437149999999
 31
0.0
  0
LINE
  5
A0
330
1F
100
AcDbEntity
  8
1
100
AcDbLine
 10
248.23278
 20
184.999482
 30
0.0
 11
248.386259
 21
185.056244
 31
0.0
  0
LINE
  5
A1
330
1F
100
AcDbEntity
  8
1
100
AcDbLine
 10
244.264485
 20
174.866616
 30
0.0
 11
244.264485
 21
175.439041
 31
0.0
  0
LINE
  5
A2
330
1F
100
AcDbEntity
  8
1
100
AcDbLine
 10
242.80584
 20
186.561932
 30
0.0
 11
242.80584
 21
185.58528
 31
0.0
  0
LINE
  5
A3
330
1F
100
AcDbEntity
  8
1
100
AcDbLine
 10
242.80584
 20
182.536296
 30
0.0
 11
242.80584
 21
182.392381
 31
0.0
  0
LINE
  5
A4
330
1F
100
AcDbEntity
  8
1
100
AcDbLine
 10
225.505714
 20
159.7145379999999
 30
0.0
 11
225.505714
 21
161.764538
 31
0.0
  0
LINE
  5
A5
330
1F
100
AcDbEntity
  8
1
100
AcDbLine
 10
222.505714
 20
162.2645379999999
 30
0.0
 11
214.005714
 21
162.2645379999999
 31
0.0
  0
LINE
  5
A6
330
1F
100
AcDbEntity
  8
1
100
AcDbLine
 10
242.607609
 20
186.65834
 30
0.0
 11
242.537087
 21
186.661579
 31
0.0
  0
LINE
  5
A7
330
1F
100
AcDbEntity
  8
SK1
100
AcDbLine
 10
188.177746
 20
180.386538
 30
0.0
 11
204.505714
 21
180.386538
 31
0.0
  0
LINE
  5
A8
330
1F
100
AcDbEntity
  8
SK1
100
AcDbLine
 10
188.177746
 20
166.0425379999999
 30
0.0
 11
204.505714
 21
166.0425379999999
 31
0.0
  0
LINE
  5
A9
330
1F
100
AcDbEntity
  8
SK1
100
AcDbLine
 10
189.005714
 20
181.214538
 30
0.0
 11
187.505714
 21
179.714538
 31
0.0
  0
LINE
  5
AA
330
1F
100
AcDbEntity
  8
SK1
100
AcDbLine
 10
205.005714
 20
181.7145379999999
 30
0.0
 11
204.505714
 21
181.214538
 31
0.0
  0
LINE
  5
AB
330
1F
100
AcDbEntity
  8
1
100
AcDbLine
 10
210.505714
 20
159.214538
 30
0.0
 11
211.005714
 21
158.7145379999999
 31
0.0
  0
LINE
  5
AC
330
1F
100
AcDbEntity
  8
SK1
100
AcDbLine
 10
204.505714
 20
181.214538
 30
0.0
 11
189.005714
 21
181.214538
 31
0.0
  0
LINE
  5
AD
330
1F
100
AcDbEntity
  8
1
100
AcDbLine
 10
243.210527
 20
159.446589
 30
0.0
 11
244.5291
 21
158.685311
 31
0.0
  0
LINE
  5
AE
330
1F
100
AcDbEntity
  8
SK1
100
AcDbLine
 10
205.005714
 20
164.7145379999999
 30
0.0
 11
209.005714
 21
164.7145379999999
 31
0.0
  0
LINE
  5
AF
330
1F
100
AcDbEntity
  8
1
100
AcDbLine
 10
251.15927
 20
162.021972
 30
0.0
 11
251.15927
 21
164.520625
 31
0.0
  0
LINE
  5
B0
330
1F
100
AcDbEntity
  8
SK1
100
AcDbLine
 10
210.305714
 20
181.514538
 30
0.0
 11
209.352125
 21
181.514538
 31
0.0
  0
LINE
  5
B1
330
1F
100
AcDbEntity
  8
1
100
AcDbLine
 10
251.15927
 20
161.90103
 30
0.0
 11
251.15927
 21
162.0219699999999
 31
0.0
  0
LINE
  5
B2
330
1F
100
AcDbEntity
  8
1
100
AcDbLine
 10
242.210527
 20
186.714538
 30
0.0
 11
225.505714
 21
186.714538
 31
0.0
  0
LINE
  5
B3
330
1F
100
AcDbEntity
  8
SK1
100
AcDbLine
 10
189.005714
 20
165.214538
 30
0.0
 11
204.505714
 21
165.214538
 31
0.0
  0
LINE
  5
B4
330
1F
100
AcDbEntity
  8
1
100
AcDbLine
 10
242.580122
 20
184.083413
 30
0.0
 11
242.580232
 21
184.043237
 31
0.0
  0
LINE
  5
B6
330
1F
100
AcDbEntity
  8
SK1
100
AcDbLine
 10
209.352125
 20
164.914538
 30
0.0
 11
210.305714
 21
164.914538
 31
0.0
  0
LINE
  5
B7
330
1F
100
AcDbEntity
  8
1
100
AcDbLine
 10
211.005714
 20
187.7145379999999
 30
0.0
 11
210.505714
 21
187.214538
 31
0.0
  0
LINE
  5
B8
330
1F
100
AcDbEntity
  8
SK1
100
AcDbLine
 10
187.505714
 20
166.714538
 30
0.0
 11
189.005714
 21
165.214538
 31
0.0
  0
LINE
  5
B9
330
1F
100
AcDbEntity
  8
SK1
100
AcDbLine
 10
209.005714
 20
181.7145379999999
 30
0.0
 11
205.005714
 21
181.7145379999999
 31
0.0
  0
LINE
  5
BA
330
1F
100
AcDbEntity
  8
SK1
100
AcDbLine
 10
204.505714
 20
165.214538
 30
0.0
 11
205.005714
 21
164.7145379999999
 31
0.0
  0
LINE
  5
BB
330
1F
100
AcDbEntity
  8
1
100
AcDbLine
 10
225.505714
 20
184.664538
 30
0.0
 11
225.505714
 21
186.714538
 31
0.0
  0
LINE
  5
BC
330
1F
100
AcDbEntity
  8
1
100
AcDbLine
 10
223.988954
 20
184.164538
 30
0.0
 11
225.005714
 21
184.164538
 31
0.0
  0
LINE
  5
BD
330
1F
100
AcDbEntity
  8
1
100
AcDbLine
 10
243.096751
 20
181.101128
 30
0.0
 11
243.616098
 21
180.575538
 31
0.0
  0
LINE
  5
BE
330
1F
100
AcDbEntity
  8
1
100
AcDbLine
 10
242.80584
 20
168.144458
 30
0.0
 11
242.80584
 21
168.698869
 31
0.0
  0
LINE
  5
BF
330
1F
100
AcDbEntity
  8
1
100
AcDbLine
 10
242.607609
 20
186.6583379999999
 30
0.0
 11
242.607609
 21
184.622227
 31
0.0
  0
LINE
  5
C0
330
1F
100
AcDbEntity
  8
1
100
AcDbLine
 10
242.607609
 20
183.534214
 30
0.0
 11
242.607609
 21
182.292368
 31
0.0
  0
LINE
  5
C1
330
1F
100
AcDbEntity
  8
1
100
AcDbLine
 10
242.537087
 20
182.306644
 30
0.0
 11
242.537087
 21
186.661579
 31
0.0
  0
LINE
  5
C2
330
1F
100
AcDbEntity
  8
1
100
AcDbLine
 10
214.005714
 20
184.164538
 30
0.0
 11
222.505714
 21
184.164538
 31
0.0
  0
LINE
  5
C3
330
1F
100
AcDbEntity
  8
1
100
AcDbLine
 10
213.505714
 20
187.7145379999999
 30
0.0
 11
213.505714
 21
184.664538
 31
0.0
  0
LINE
  5
C4
330
1F
100
AcDbEntity
  8
SK1
100
AcDbLine
 10
187.505714
 20
166.714538
 30
0.0
 11
187.505714
 21
179.714538
 31
0.0
  0
LINE
  5
C5
330
1F
100
AcDbEntity
  8
1
100
AcDbLine
 10
210.505714
 20
187.214538
 30
0.0
 11
210.505714
 21
159.214538
 31
0.0
  0
LINE
  5
C6
330
1F
100
AcDbEntity
  8
1
100
AcDbLine
 10
213.505714
 20
187.7145379999999
 30
0.0
 11
211.005714
 21
187.7145379999999
 31
0.0
  0
LINE
  5
C7
330
1F
100
AcDbEntity
  8
1
100
AcDbLine
 10
246.675247
 20
186.307634
 30
0.0
 11
246.613023
 21
186.284621
 31
0.0
  0
LINE
  5
C8
330
1F
100
AcDbEntity
  8
1
100
AcDbLine
 10
251.196024
 20
163.681084
 30
0.0
 11
251.261563
 21
163.823217
 31
0.0
  0
LINE
  5
C9
330
1F
100
AcDbEntity
  8
1
100
AcDbLine
 10
243.754083
 20
180.864373
 30
0.0
 11
243.783315
 21
180.830067
 31
0.0
  0
LINE
  5
CA
330
1F
100
AcDbEntity
  8
1
100
AcDbLine
 10
245.244147
 20
175.434484
 30
0.0
 11
245.054921
 21
175.243783
 31
0.0
  0
LINE
  5
CB
330
1F
100
AcDbEntity
  8
1
100
AcDbLine
 10
248.278003
 20
181.782639
 30
0.0
 11
248.340227
 21
181.805652
 31
0.0
  0
LINE
  5
CC
330
1F
100
AcDbEntity
  8
1
100
AcDbLine
 10
251.15927
 20
180.259301
 30
0.0
 11
251.15927
 21
180.628859
 31
0.0
  0
LINE
  5
CD
330
1F
100
AcDbEntity
  8
1
100
AcDbLine
 10
211.005714
 20
158.7145379999999
 30
0.0
 11
213.505714
 21
158.7145379999999
 31
0.0
  0
LINE
  5
CE
330
1F
100
AcDbEntity
  8
1
100
AcDbLine
 10
243.754219
 20
180.864214
 30
0.0
 11
243.783315
 21
180.830067
 31
0.0
  0
LINE
  5
CF
330
1F
100
AcDbEntity
  8
1
100
AcDbLine
 10
248.733308
 20
184.505795
 30
0.0
 11
248.581033
 21
184.449479
 31
0.0
  0
LINE
  5
D0
330
1F
100
AcDbEntity
  8
1
100
AcDbLine
 10
252.466303
 20
168.085912
 30
0.0
 11
252.174659
 21
169.12069
 31
0.0
  0
LINE
  5
D1
330
1F
100
AcDbEntity
  8
1
100
AcDbLine
 10
246.3010950000001
 20
183.861491
 30
0.0
 11
246.326808
 21
183.871
 31
0.0
  0
LINE
  5
D2
330
1F
100
AcDbEntity
  8
1
100
AcDbLine
 10
243.303482
 20
181.187032
 30
0.0
 11
243.924439
 21
180.55861
 31
0.0
  0
LINE
  5
D3
330
1F
100
AcDbEntity
  8
NOCUT
100
AcDbLine
 10
247.316019
 20
188.371299
 30
0.0
 11
246.151917
 21
188.371299
 31
0.0
  0
LINE
  5
D5
330
1F
100
AcDbEntity
  8
NOCUT
100
AcDbLine
 10
233.505714
 20
175.714538
 30
0.0
 11
189.505713
 21
175.714538
 31
0.0
  0
LINE
  5
D6
330
1F
100
AcDbEntity
  8
NOCUT
100
AcDbLine
 10
242.210527
 20
186.714538
 30
0.0
 11
223.988954
 21
186.714538
 31
0.0
  0
LINE
  5
D7
330
1F
100
AcDbEntity
  8
NOCUT
100
AcDbLine
 10
210.505714
 20
187.214538
 30
0.0
 11
210.505714
 21
182.71361
 31
0.0
  0
LINE
  5
D8
330
1F
100
AcDbEntity
  8
NOCUT
100
AcDbLine
 10
187.505714
 20
169.559838
 30
0.0
 11
189.505713
 21
170.714538
 31
0.0
  0
LINE
  5
D9
330
1F
100
AcDbEntity
  8
NOCUT
100
AcDbLine
 10
187.505714
 20
166.714538
 30
0.0
 11
189.005714
 21
165.214538
 31
0.0
  0
LINE
  5
DA
330
1F
100
AcDbEntity
  8
NOCUT
100
AcDbLine
 10
248.079821
 20
177.556571
 30
0.0
 11
250.74106
 21
182.784581
 31
0.0
  0
LINE
  5
DB
330
1F
100
AcDbEntity
  8
NOCUT
100
AcDbLine
 10
204.505714
 20
165.214538
 30
0.0
 11
189.005714
 21
165.214538
 31
0.0
  0
LINE
  5
DC
330
1F
100
AcDbEntity
  8
NOCUT
100
AcDbLine
 10
187.505714
 20
176.869238
 30
0.0
 11
187.505714
 21
179.714538
 31
0.0
  0
LINE
  5
DD
330
1F
100
AcDbEntity
  8
NOCUT
100
AcDbLine
 10
222.505714
 20
187.7145379999999
 30
0.0
 11
211.005714
 21
187.7145379999999
 31
0.0
  0
LINE
  5
DE
330
1F
100
AcDbEntity
  8
NOCUT
100
AcDbLine
 10
233.505714
 20
170.714538
 30
0.0
 11
234.94909
 21
173.2145379999999
 31
0.0
  0
LINE
  5
DF
330
1F
100
AcDbEntity
  8
NOCUT
100
AcDbLine
 10
205.005714
 20
181.7145379999999
 30
0.0
 11
204.505714
 21
181.214538
 31
0.0
  0
LINE
  5
E0
330
1F
100
AcDbEntity
  8
NOCUT
100
AcDbLine
 10
189.505713
 20
175.714538
 30
0.0
 11
187.505714
 21
176.869238
 31
0.0
  0
LINE
  5
E1
330
1F
100
AcDbEntity
  8
NOCUT
100
AcDbLine
 10
211.005714
 20
187.7145379999999
 30
0.0
 11
210.505714
 21
187.214538
 31
0.0
  0
LINE
  5
E2
330
1F
100
AcDbEntity
  8
NOCUT
100
AcDbLine
 10
205.005714
 20
181.7145379999999
 30
0.0
 11
209.005714
 21
181.7145379999999
 31
0.0
  0
LINE
  5
E3
330
1F
100
AcDbEntity
  8
NOCUT
100
AcDbLine
 10
245.151917
 20
188.10335
 30
0.0
 11
243.210527
 21
186.982488
 31
0.0
  0
LINE
  5
E4
330
1F
100
AcDbEntity
  8
NOCUT
100
AcDbLine
 10
234.94909
 20
173.2145379999999
 30
0.0
 11
233.505714
 21
175.714538
 31
0.0
  0
LINE
  5
E5
330
1F
100
AcDbEntity
  8
NOCUT
100
AcDbLine
 10
204.505714
 20
165.214538
 30
0.0
 11
205.005714
 21
164.7145379999999
 31
0.0
  0
LINE
  5
E6
330
1F
100
AcDbEntity
  8
NOCUT
100
AcDbLine
 10
210.505714
 20
182.71361
 30
0.0
 11
210.692085
 21
182.018066
 31
0.0
  0
LINE
  5
E7
330
1F
100
AcDbEntity
  8
NOCUT
100
AcDbLine
 10
247.905714
 20
169.598335
 30
0.0
 11
247.905714
 21
176.830742
 31
0.0
  0
LINE
  5
E8
330
1F
100
AcDbEntity
  8
NOCUT
100
AcDbLine
 10
189.505713
 20
170.714538
 30
0.0
 11
233.505714
 21
170.714538
 31
0.0
  0
LINE
  5
E9
330
1F
100
AcDbEntity
  8
NOCUT
100
AcDbLine
 10
210.305714
 20
181.514538
 30
0.0
 11
209.352125
 21
181.514538
 31
0.0
  0
LINE
  5
EA
330
1F
100
AcDbEntity
  8
NOCUT
100
AcDbLine
 10
187.505714
 20
166.714538
 30
0.0
 11
187.505714
 21
169.559838
 31
0.0
  0
LINE
  5
EB
330
1F
100
AcDbEntity
  8
NOCUT
100
AcDbLine
 10
250.74106
 20
163.644496
 30
0.0
 11
248.079821
 21
168.872506
 31
0.0
  0
LINE
  5
EC
330
1F
100
AcDbEntity
  8
NOCUT
100
AcDbLine
 10
209.005714
 20
164.7145379999999
 30
0.0
 11
205.005714
 21
164.7145379999999
 31
0.0
  0
LINE
  5
ED
330
1F
100
AcDbEntity
  8
NOCUT
100
AcDbLine
 10
189.005714
 20
181.214538
 30
0.0
 11
204.505714
 21
181.214538
 31
0.0
  0
LINE
  5
EE
330
1F
100
AcDbEntity
  8
NOCUT
100
AcDbLine
 10
189.005714
 20
181.214538
 30
0.0
 11
187.505714
 21
179.714538
 31
0.0
  0
LINE
  5
EF
330
1F
100
AcDbEntity
  8
NOCUT
100
AcDbLine
 10
211.005714
 20
158.7145379999999
 30
0.0
 11
222.505714
 21
158.7145379999999
 31
0.0
  0
LINE
  5
F0
330
1F
100
AcDbEntity
  8
1
100
AcDbLine
 10
188.177746
 20
166.0425379999999
 30
0.0
 11
204.505714
 21
166.0425379999999
 31
0.0
  0
LINE
  5
F1
330
1F
100
AcDbEntity
  8
NOCUT
100
AcDbLine
 10
210.505714
 20
159.214538
 30
0.0
 11
211.005714
 21
158.7145379999999
 31
0.0
  0
LINE
  5
F2
330
1F
100
AcDbEntity
  8
NOCUT
100
AcDbLine
 10
243.210527
 20
159.446589
 30
0.0
 11
245.151917
 21
158.325727
 31
0.0
  0
LINE
  5
F3
330
1F
100
AcDbEntity
  8
NOCUT
100
AcDbLine
 10
210.505714
 20
163.715467
 30
0.0
 11
210.505714
 21
159.214538
 31
0.0
  0
LINE
  5
F4
330
1F
100
AcDbEntity
  8
NOCUT
100
AcDbLine
 10
209.352125
 20
164.914538
 30
0.0
 11
210.305714
 21
164.914538
 31
0.0
  0
LINE
  5
F5
330
1F
100
AcDbEntity
  8
NOCUT
100
AcDbLine
 10
210.692085
 20
164.411011
 30
0.0
 11
210.505714
 21
163.715467
 31
0.0
  0
LINE
  5
F6
330
1F
100
AcDbEntity
  8
NOCUT
100
AcDbLine
 10
223.988954
 20
159.7145379999999
 30
0.0
 11
242.210527
 21
159.7145379999999
 31
0.0
  0
LINE
  5
F7
330
1F
100
AcDbEntity
  8
1
100
AcDbLine
 10
188.177746
 20
180.386538
 30
0.0
 11
204.505714
 21
180.386538
 31
0.0
  0
LINE
  5
F8
330
1F
100
AcDbEntity
  8
NOCUT
100
AcDbLine
 10
246.151917
 20
158.057778
 30
0.0
 11
247.316019
 21
158.057778
 31
0.0
  0
LINE
  5
F9
102
{ACAD_REACTORS
330
238
102
}
330
1F
100
AcDbEntity
  8
81
100
AcDbLine
 10
252.505716
 20
186.06458
 30
0.0
 11
252.505716
 21
192.06458
 31
0.0
  0
LINE
  5
FA
102
{ACAD_REACTORS
330
238
102
}
330
1F
100
AcDbEntity
  8
81
100
AcDbLine
 10
249.505716
 20
189.06458
 30
0.0
 11
255.505716
 21
189.06458
 31
0.0
  0
LINE
  5
FB
102
{ACAD_REACTORS
330
239
102
}
330
1F
100
AcDbEntity
  8
80
100
AcDbLine
 10
209.005714
 20
173.2145379999999
 30
0.0
 11
212.005714
 21
173.2145379999999
 31
0.0
  0
LINE
  5
FC
102
{ACAD_REACTORS
330
239
102
}
330
1F
100
AcDbEntity
  8
80
100
AcDbLine
 10
210.505714
 20
171.714538
 30
0.0
 11
210.505714
 21
174.714538
 31
0.0
  0
LINE
  5
FD
102
{ACAD_REACTORS
330
23A
102
}
330
1F
100
AcDbEntity
  8
2
100
AcDbLine
 10
210.505714
 20
201.736196
 30
0.0
 11
252.505716
 21
201.736196
 31
0.0
  0
LINE
  5
FE
102
{ACAD_REACTORS
330
23A
102
}
330
1F
100
AcDbEntity
  8
2
100
AcDbLine
 10
252.505716
 20
190.06458
 30
0.0
 11
252.505716
 21
203.736196
 31
0.0
  0
LINE
  5
FF
102
{ACAD_REACTORS
330
23A
102
}
330
1F
100
AcDbEntity
  8
2
100
AcDbLine
 10
210.505714
 20
188.214538
 30
0.0
 11
210.505714
 21
203.736196
 31
0.0
  0
LINE
  5
100
330
1F
100
AcDbEntity
  8
2
 60
     1
100
AcDbLine
 10
252.505716
 20
201.736196
 30
0.0
 11
250.005717
 21
201.295378
 31
0.0
  0
LINE
  5
101
330
1F
100
AcDbEntity
  8
2
 60
     1
100
AcDbLine
 10
250.005717
 20
201.295378
 30
0.0
 11
250.005714
 21
202.177013
 31
0.0
  0
LINE
  5
102
330
1F
100
AcDbEntity
  8
2
 60
     1
100
AcDbLine
 10
250.005714
 20
202.177013
 30
0.0
 11
252.505716
 21
201.736196
 31
0.0
  0
LINE
  5
103
330
1F
100
AcDbEntity
  8
2
 60
     1
100
AcDbLine
 10
210.505714
 20
201.736196
 30
0.0
 11
213.005713
 21
202.177013
 31
0.0
  0
LINE
  5
104
330
1F
100
AcDbEntity
  8
2
 60
     1
100
AcDbLine
 10
213.005713
 20
202.177013
 30
0.0
 11
213.005716
 21
201.295378
 31
0.0
  0
LINE
  5
105
330
1F
100
AcDbEntity
  8
2
 60
     1
100
AcDbLine
 10
213.005716
 20
201.295378
 30
0.0
 11
210.505714
 21
201.736196
 31
0.0
  0
LINE
  5
106
102
{ACAD_REACTORS
330
23B
102
}
330
1F
100
AcDbEntity
  8
2
100
AcDbLine
 10
261.255716
 20
192.897833
 30
0.0
 11
238.792909
 21
192.897833
 31
0.0
  0
LINE
  5
107
102
{ACAD_REACTORS
330
23B
102
}
330
1F
100
AcDbEntity
  8
2
100
AcDbLine
 10
247.542909
 20
190.06458
 30
0.0
 11
247.542909
 21
194.897833
 31
0.0
  0
LINE
  5
108
102
{ACAD_REACTORS
330
23B
102
}
330
1F
100
AcDbEntity
  8
2
100
AcDbLine
 10
252.505716
 20
190.06458
 30
0.0
 11
252.505716
 21
194.897833
 31
0.0
  0
LINE
  5
109
330
1F
100
AcDbEntity
  8
2
 60
     1
100
AcDbLine
 10
247.542909
 20
192.897833
 30
0.0
 11
245.042911
 21
192.457016
 31
0.0
  0
LINE
  5
10A
330
1F
100
AcDbEntity
  8
2
 60
     1
100
AcDbLine
 10
245.042911
 20
192.457016
 30
0.0
 11
245.042908
 21
193.33865
 31
0.0
  0
LINE
  5
10B
330
1F
100
AcDbEntity
  8
2
 60
     1
100
AcDbLine
 10
245.042908
 20
193.33865
 30
0.0
 11
247.542909
 21
192.897833
 31
0.0
  0
LINE
  5
10C
330
1F
100
AcDbEntity
  8
2
 60
     1
100
AcDbLine
 10
252.505716
 20
192.897833
 30
0.0
 11
255.005714
 21
193.33865
 31
0.0
  0
LINE
  5
10D
330
1F
100
AcDbEntity
  8
2
 60
     1
100
AcDbLine
 10
255.005714
 20
193.33865
 30
0.0
 11
255.005717
 21
192.457016
 31
0.0
  0
LINE
  5
10E
330
1F
100
AcDbEntity
  8
2
 60
     1
100
AcDbLine
 10
255.005717
 20
192.457016
 30
0.0
 11
252.505716
 21
192.897833
 31
0.0
  0
LINE
  5
10F
102
{ACAD_REACTORS
330
23C
102
}
330
1F
100
AcDbEntity
  8
2
100
AcDbLine
 10
265.302591
 20
189.06458
 30
0.0
 11
265.302591
 21
162.386748
 31
0.0
  0
LINE
  5
110
102
{ACAD_REACTORS
330
23C
102
}
330
1F
100
AcDbEntity
  8
2
100
AcDbLine
 10
248.515473
 20
189.06458
 30
0.0
 11
267.302591
 21
189.06458
 31
0.0
  0
LINE
  5
111
330
1F
100
AcDbEntity
  8
2
 60
     1
100
AcDbLine
 10
265.302591
 20
189.06458
 30
0.0
 11
265.743409
 21
186.564582
 31
0.0
  0
LINE
  5
112
330
1F
100
AcDbEntity
  8
2
 60
     1
100
AcDbLine
 10
265.743409
 20
186.564582
 30
0.0
 11
264.861774
 21
186.564578
 31
0.0
  0
LINE
  5
113
330
1F
100
AcDbEntity
  8
2
 60
     1
100
AcDbLine
 10
264.861774
 20
186.564578
 30
0.0
 11
265.302591
 21
189.06458
 31
0.0
  0
ARC
  5
114
330
1F
100
AcDbEntity
  8
1
100
AcDbCircle
 10
250.807509
 20
164.032586
 30
0.0
 40
0.5
100
AcDbArc
 50
335.245167
 51
339.528354
  0
ARC
  5
115
330
1F
100
AcDbEntity
  8
1
100
AcDbCircle
 10
-242.210527
 20
188.7145379999999
 30
0.0
 40
2.0
210
0.0
220
0.0
230
-1.0
100
AcDbArc
 50
261.162815
 51
270.0
  0
ARC
  5
116
330
1F
100
AcDbEntity
  8
1
100
AcDbCircle
 10
247.316019
 20
161.90103
 30
0.0
 40
3.843251710428311
100
AcDbArc
 50
306.539392
 51
307.515891
  0
ARC
  5
117
330
1F
100
AcDbEntity
  8
1
100
AcDbCircle
 10
247.316019
 20
161.90103
 30
0.0
 40
3.843251710428311
100
AcDbArc
 50
350.336163
 51
0.0
  0
ARC
  5
118
330
1F
100
AcDbEntity
  8
SK1
100
AcDbCircle
 10
-210.305714
 20
181.914538
 30
0.0
 40
0.4000000000000005
210
0.0
220
0.0
230
-1.0
100
AcDbArc
 50
239.99907
 51
270.0
  0
ARC
  5
119
330
1F
100
AcDbEntity
  8
SK1
100
AcDbCircle
 10
-210.305714
 20
164.514538
 30
0.0
 40
0.4000000000000005
210
0.0
220
0.0
230
-1.0
100
AcDbArc
 50
90.0
 51
120.00093
  0
ARC
  5
11A
330
1F
100
AcDbEntity
  8
SK1
100
AcDbCircle
 10
-209.352125
 20
181.914538
 30
0.0
 40
0.4000000000000002
210
0.0
220
0.0
230
-1.0
100
AcDbArc
 50
270.0
 51
330.0
  0
ARC
  5
11B
330
1F
100
AcDbEntity
  8
SK1
100
AcDbCircle
 10
-209.352125
 20
164.514538
 30
0.0
 40
0.4000000000000002
210
0.0
220
0.0
230
-1.0
100
AcDbArc
 50
30.0
 51
90.0
  0
ARC
  5
11C
330
1F
100
AcDbEntity
  8
1
100
AcDbCircle
 10
-242.210527
 20
157.7145379999999
 30
0.0
 40
2.0
210
0.0
220
0.0
230
-1.0
100
AcDbArc
 50
90.0
 51
120.0
  0
ARC
  5
11D
330
1F
100
AcDbEntity
  8
1
100
AcDbCircle
 10
250.807509
 20
171.605306
 30
0.0
 40
0.5
100
AcDbArc
 50
19.980531
 51
23.364646
  0
ARC
  5
11E
330
1F
100
AcDbEntity
  8
1
100
AcDbCircle
 10
243.386295
 20
182.378441
 30
0.0
 40
0.5
100
AcDbArc
 50
200.811791
 51
203.790576
  0
ARC
  5
11F
330
1F
100
AcDbEntity
  8
1
100
AcDbCircle
 10
243.386295
 20
182.378441
 30
0.0
 40
0.5
100
AcDbArc
 50
200.811791
 51
203.790576
  0
ARC
  5
120
330
1F
100
AcDbEntity
  8
NOCUT
100
AcDbCircle
 10
249.505714
 20
176.830742
 30
0.0
 40
1.6
100
AcDbArc
 50
153.02232
 51
180.0
  0
ARC
  5
121
330
1F
100
AcDbEntity
  8
NOCUT
100
AcDbCircle
 10
242.210527
 20
188.7145379999999
 30
0.0
 40
2.0
100
AcDbArc
 50
270.0
 51
300.0
  0
ARC
  5
122
330
1F
100
AcDbEntity
  8
NOCUT
100
AcDbCircle
 10
247.316019
 20
161.90103
 30
0.0
 40
3.843251710428311
100
AcDbArc
 50
270.0
 51
26.97768
  0
ARC
  5
123
330
1F
100
AcDbEntity
  8
NOCUT
100
AcDbCircle
 10
-210.305714
 20
181.914538
 30
0.0
 40
0.4000000000000005
210
0.0
220
0.0
230
-1.0
100
AcDbArc
 50
165.0
 51
270.0
  0
ARC
  5
124
330
1F
100
AcDbEntity
  8
NOCUT
100
AcDbCircle
 10
-209.352125
 20
181.914538
 30
0.0
 40
0.4000000000000002
210
0.0
220
0.0
230
-1.0
100
AcDbArc
 50
270.0
 51
330.0
  0
ARC
  5
125
330
1F
100
AcDbEntity
  8
NOCUT
100
AcDbCircle
 10
223.988954
 20
188.314538
 30
0.0
 40
1.6
100
AcDbArc
 50
202.024313
 51
270.0
  0
ARC
  5
126
330
1F
100
AcDbEntity
  8
NOCUT
100
AcDbCircle
 10
249.505714
 20
169.598335
 30
0.0
 40
1.6
100
AcDbArc
 50
180.0
 51
206.97768
  0
ARC
  5
127
330
1F
100
AcDbEntity
  8
NOCUT
100
AcDbCircle
 10
246.151917
 20
186.371299
 30
0.0
 40
2.0
100
AcDbArc
 50
90.0
 51
120.0
  0
ARC
  5
128
330
1F
100
AcDbEntity
  8
NOCUT
100
AcDbCircle
 10
247.316019
 20
184.528047
 30
0.0
 40
3.843251710428311
100
AcDbArc
 50
333.02232
 51
90.0
  0
ARC
  5
129
330
1F
100
AcDbEntity
  8
NOCUT
100
AcDbCircle
 10
242.210527
 20
157.7145379999999
 30
0.0
 40
2.0
100
AcDbArc
 50
60.0
 51
90.0
  0
ARC
  5
12A
330
1F
100
AcDbEntity
  8
NOCUT
100
AcDbCircle
 10
223.988954
 20
158.114538
 30
0.0
 40
1.6
100
AcDbArc
 50
90.0
 51
157.975687
  0
ARC
  5
12B
330
1F
100
AcDbEntity
  8
NOCUT
100
AcDbCircle
 10
-209.352125
 20
164.514538
 30
0.0
 40
0.4000000000000002
210
0.0
220
0.0
230
-1.0
100
AcDbArc
 50
30.0
 51
90.0
  0
ARC
  5
12C
330
1F
100
AcDbEntity
  8
NOCUT
100
AcDbCircle
 10
246.151917
 20
160.057778
 30
0.0
 40
2.0
100
AcDbArc
 50
240.0
 51
270.0
  0
ARC
  5
12D
330
1F
100
AcDbEntity
  8
NOCUT
100
AcDbCircle
 10
-210.305714
 20
164.514538
 30
0.0
 40
0.4000000000000005
210
0.0
220
0.0
230
-1.0
100
AcDbArc
 50
90.0
 51
195.0
  0
ELLIPSE
  5
12E
330
1F
100
AcDbEntity
  8
1
100
AcDbEllipse
 10
246.249608
 20
175.655217
 30
0.0
 11
-1.337297537749501
 21
-0.1847573964124923
 31
0.0
210
0.0
220
0.0
230
0.9999999999999998
 40
0.4567770000000002
 41
0.0
 42
6.283185307179585
  0
ELLIPSE
  5
12F
330
1F
100
AcDbEntity
  8
1
100
AcDbEllipse
 10
248.356699
 20
185.136175
 30
0.0
 11
0.0295609020528463
 21
-0.0799304914657849
 31
0.0
210
0.0
220
0.0
230
1.0
 40
0.9915400000000001
 41
6.052714549785343
 42
6.711577685770195
  0
ELLIPSE
  5
130
330
1F
100
AcDbEntity
  8
1
100
AcDbEllipse
 10
248.321229
 20
184.643728
 30
0.0
 11
0.1697196246486053
 21
-0.4589093047735796
 31
0.0
210
0.0
220
0.0
230
0.9999999999999998
 40
0.9915399999999999
 41
1.087255514575545
 42
2.387523120597314
  0
ELLIPSE
  5
131
330
1F
100
AcDbEntity
  8
1
100
AcDbEllipse
 10
248.476324
 20
185.015111
 30
0.0
 11
0.0295609020528464
 21
-0.0799304914657852
 31
0.0
210
0.0
220
0.0
230
1.0
 40
0.9915399999999998
 41
2.387523120597351
 42
3.56998503218047
  0
ELLIPSE
  5
132
330
1F
100
AcDbEntity
  8
1
100
AcDbEllipse
 10
247.530058
 20
185.107863
 30
0.0
 11
0.1697196246486053
 21
-0.4589093047735796
 31
0.0
210
0.0
220
0.0
230
0.9999999999999998
 40
0.9915399999999999
 41
2.13445306577214
 42
3.434720671793903
  0
ELLIPSE
  5
133
330
1F
100
AcDbEntity
  8
1
100
AcDbEllipse
 10
248.321229
 20
183.724263
 30
0.0
 11
0.1697196246486053
 21
-0.4589093047735796
 31
0.0
210
0.0
220
0.0
230
0.9999999999999998
 40
0.9915399999999999
 41
0.0400579633789443
 42
1.340325569400719
  0
ELLIPSE
  5
134
330
1F
100
AcDbEntity
  8
1
100
AcDbEllipse
 10
247.287299
 20
185.43052
 30
0.0
 11
0.0295609020528464
 21
-0.0799304914657852
 31
0.0
210
0.0
220
0.0
230
1.0
 40
0.9915399999999998
 41
3.434720671793912
 42
4.61718258337703
  0
ELLIPSE
  5
135
330
1F
100
AcDbEntity
  8
1
100
AcDbEllipse
 10
249.082114
 20
184.179762
 30
0.0
 11
0.1697196246486052
 21
-0.4589093047735795
 31
0.0
210
0.0
220
0.0
230
1.0
 40
0.9915399999999999
 41
3.705249392567028
 42
5.005516998588811
  0
ELLIPSE
  5
136
330
1F
100
AcDbEntity
  8
1
100
AcDbEllipse
 10
246.435023
 20
175.279372
 30
0.0
 11
1.337297537749501
 21
0.1847573964124919
 31
0.0
210
0.0
220
0.0
230
0.9999999999999996
 40
0.4567770000000002
 41
0.5391755280218252
 42
2.96006638876625
  0
ELLIPSE
  5
137
330
1F
100
AcDbEntity
  8
1
100
AcDbEllipse
 10
247.445513
 20
184.03363
 30
0.0
 11
-0.8324898799608181
 21
2.250991026140001
 31
0.0
210
0.0
220
0.0
230
1.0
 40
0.9915400000000001
 41
1.219318846633224
 42
3.141580923478878
  0
ELLIPSE
  5
138
330
1F
100
AcDbEntity
  8
1
100
AcDbEllipse
 10
247.445513
 20
184.03363
 30
0.0
 11
-0.8324898799608181
 21
2.250991026140001
 31
0.0
210
0.0
220
0.0
230
1.0
 40
0.9915400000000001
 41
0.0000866379250548
 42
1.219319263716595
  0
ELLIPSE
  5
139
330
1F
100
AcDbEntity
  8
1
100
AcDbEllipse
 10
248.306086
 20
182.831281
 30
0.0
 11
0.1697196246486052
 21
-0.4589093047735795
 31
0.0
210
0.0
220
0.0
230
1.0
 40
0.9915399999999999
 41
2.658051841370435
 42
3.958319447392211
  0
ELLIPSE
  5
13A
330
1F
100
AcDbEntity
  8
1
100
AcDbEllipse
 10
247.542909
 20
167.26035
 30
0.0
 11
4.95295384351667
 21
0.6842866533795994
 31
0.0
210
0.0
220
0.0
230
0.9999999999999996
 40
0.4567770000000001
 41
3.220328970070482
 42
6.283185307179585
  0
ELLIPSE
  5
13B
330
1F
100
AcDbEntity
  8
1
100
AcDbEllipse
 10
247.542909
 20
167.26035
 30
0.0
 11
4.95295384351667
 21
0.6842866533795994
 31
0.0
210
0.0
220
0.0
230
0.9999999999999996
 40
0.4567770000000001
 41
0.0
 42
0.0630280295039079
  0
ELLIPSE
  5
13C
330
1F
100
AcDbEntity
  8
1
100
AcDbEllipse
 10
250.699935
 20
171.854315
 30
0.0
 11
-0.5082191937697484
 21
-0.0755705910787753
 31
0.0
210
0.0
220
0.0
230
1.0
 40
0.445858
 41
3.075391802211981
 42
3.522192978046181
  0
ELLIPSE
  5
13D
330
1F
100
AcDbEntity
  8
1
100
AcDbEllipse
 10
248.306086
 20
185.536879
 30
0.0
 11
0.1697196246486052
 21
-0.4589093047735795
 31
0.0
210
0.0
220
0.0
230
1.0
 40
0.9915399999999999
 41
4.752446943763634
 42
6.052714549785433
  0
ELLIPSE
  5
13E
330
1F
100
AcDbEntity
  8
1
100
AcDbEllipse
 10
247.530058
 20
183.268933
 30
0.0
 11
0.1697196246486053
 21
-0.4589093047735796
 31
0.0
210
0.0
220
0.0
230
0.9999999999999998
 40
0.9915399999999999
 41
5.276045719361936
 42
6.576313325383725
  0
ELLIPSE
  5
13F
330
1F
100
AcDbEntity
  8
1
100
AcDbEllipse
 10
248.356699
 20
183.231422
 30
0.0
 11
0.0295609020528462
 21
-0.0799304914657848
 31
0.0
210
0.0
220
0.0
230
1.0
 40
0.9915400000000001
 41
1.999188705385611
 42
2.658051841370542
  0
ELLIPSE
  5
140
330
1F
100
AcDbEntity
  8
1
100
AcDbEllipse
 10
247.469862
 20
184.042635
 30
0.0
 11
-0.9538946541217708
 21
2.579260550785417
 31
0.0
210
0.0
220
0.0
230
0.9999999999999998
 40
0.9915400000000001
 41
2.729737923153498
 42
6.283185307179585
  0
ELLIPSE
  5
141
330
1F
100
AcDbEntity
  8
1
100
AcDbEllipse
 10
247.469862
 20
184.042635
 30
0.0
 11
-0.9538946541217708
 21
2.579260550785417
 31
0.0
210
0.0
220
0.0
230
0.9999999999999998
 40
0.9915400000000001
 41
0.0
 42
0.4118313197171597
  0
ELLIPSE
  5
142
330
1F
100
AcDbEntity
  8
1
100
AcDbEllipse
 10
247.507737
 20
184.0566429999999
 30
0.0
 11
-0.8324898799608185
 21
2.250991026140002
 31
0.0
210
0.0
220
0.0
230
1.0
 40
0.9915400000000001
 41
0.0
 42
6.283185307179585
  0
ELLIPSE
  5
143
330
1F
100
AcDbEntity
  8
1
100
AcDbEllipse
 10
246.738887
 20
183.733068
 30
0.0
 11
0.1697196246486053
 21
-0.4589093047735796
 31
0.0
210
0.0
220
0.0
230
0.9999999999999998
 40
0.9915399999999999
 41
4.228848168165335
 42
5.529115774187116
  0
ELLIPSE
  5
144
330
1F
100
AcDbEntity
  8
1
100
AcDbEllipse
 10
247.123888
 20
182.993955
 30
0.0
 11
0.0295609020528462
 21
-0.0799304914657848
 31
0.0
210
0.0
220
0.0
230
1.0
 40
0.9915400000000001
 41
0.9519911541889896
 42
1.610854290173791
  0
ELLIPSE
  5
145
330
1F
100
AcDbEntity
  8
1
100
AcDbEllipse
 10
246.297247
 20
183.950931
 30
0.0
 11
0.0295609020528462
 21
-0.0799304914657848
 31
0.0
210
0.0
220
0.0
230
1.0
 40
0.9915400000000001
 41
6.187978910172003
 42
6.846842046156775
  0
ELLIPSE
  5
146
330
1F
100
AcDbEntity
  8
1
100
AcDbEllipse
 10
246.341033
 20
184.603806
 30
0.0
 11
0.0295609020528464
 21
-0.0799304914657852
 31
0.0
210
0.0
220
0.0
230
1.0
 40
0.9915399999999998
 41
4.481918222990494
 42
5.664380134573602
  0
ELLIPSE
  5
147
330
1F
100
AcDbEntity
  8
1
100
AcDbEllipse
 10
246.341033
 20
183.786221
 30
0.0
 11
0.0295609020528462
 21
-0.0799304914657849
 31
0.0
210
0.0
220
0.0
230
1.0
 40
0.9915400000000001
 41
3.046386256582123
 42
4.228848168165374
  0
ELLIPSE
  5
148
330
1F
100
AcDbEntity
  8
1
100
AcDbEllipse
 10
247.542909
 20
168.313614
 30
0.0
 11
-4.947832067319335
 21
0.7203872802919819
 31
0.0
210
0.0
220
0.0
230
1.0
 40
0.534763
 41
3.063739899230419
 42
3.141592614965363
  0
ELLIPSE
  5
149
330
1F
100
AcDbEntity
  8
1
100
AcDbEllipse
 10
247.542909
 20
168.313614
 30
0.0
 11
-4.947832067319335
 21
0.7203872802919819
 31
0.0
210
0.0
220
0.0
230
1.0
 40
0.534763
 41
3.141592614965359
 42
3.462722336231236
  0
ELLIPSE
  5
14A
330
1F
100
AcDbEntity
  8
1
100
AcDbEllipse
 10
246.297247
 20
184.439584
 30
0.0
 11
0.0295609020528463
 21
-0.0799304914657849
 31
0.0
210
0.0
220
0.0
230
1.0
 40
0.9915400000000001
 41
1.863924344999017
 42
2.52278748098389
  0
ELLIPSE
  5
14B
330
1F
100
AcDbEntity
  8
1
100
AcDbEllipse
 10
246.75403
 20
185.545515
 30
0.0
 11
0.1697196246486052
 21
-0.4589093047735795
 31
0.0
210
0.0
220
0.0
230
1.0
 40
0.9915399999999999
 41
5.799644494960254
 42
7.099912100982015
  0
ELLIPSE
  5
14C
330
1F
100
AcDbEntity
  8
1
100
AcDbEllipse
 10
250.699935
 20
163.799293
 30
0.0
 11
-0.5075984834331904
 21
0.0805484623133543
 31
0.0
210
0.0
220
0.0
230
1.0
 40
0.5216910000000001
 41
2.777386837116509
 42
3.224189062863841
  0
ELLIPSE
  5
14D
330
1F
100
AcDbEntity
  8
1
100
AcDbEllipse
 10
245.978002
 20
184.197034
 30
0.0
 11
0.1697196246486052
 21
-0.4589093047735795
 31
0.0
210
0.0
220
0.0
230
1.0
 40
0.9915399999999999
 41
0.5636567389772482
 42
1.863924344999018
  0
ELLIPSE
  5
14E
330
1F
100
AcDbEntity
  8
1
100
AcDbEllipse
 10
247.123888
 20
185.387361
 30
0.0
 11
0.0295609020528463
 21
-0.0799304914657849
 31
0.0
210
0.0
220
0.0
230
1.0
 40
0.9915400000000001
 41
0.8167267938023858
 42
1.475589929787236
  0
ELLIPSE
  5
14F
330
1F
100
AcDbEntity
  8
1
100
AcDbEllipse
 10
247.530735
 20
184.065148
 30
0.0
 11
-0.6243674099706144
 21
1.688243269605003
 31
0.0
210
0.0
220
0.0
230
1.0
 40
0.9915399999999999
 41
0.0
 42
6.283185307179585
  0
ELLIPSE
  5
150
330
1F
100
AcDbEntity
  8
1
100
AcDbEllipse
 10
247.542909
 20
184.069651
 30
0.0
 11
0.9648018905928596
 21
-2.608752911001933
 31
0.0
210
0.0
220
0.0
230
1.0
 40
0.9915399999999999
 41
0.0
 42
6.283185307179585
  0
ELLIPSE
  5
151
330
1F
100
AcDbEntity
  8
1
100
AcDbEllipse
 10
246.738887
 20
184.652532
 30
0.0
 11
0.1697196246486053
 21
-0.4589093047735796
 31
0.0
210
0.0
220
0.0
230
0.9999999999999998
 40
0.9915399999999999
 41
3.181650616968721
 42
4.481918222990512
  0
ELLIPSE
  5
152
330
1F
100
AcDbEntity
  8
1
100
AcDbEllipse
 10
246.583792
 20
185.025642
 30
0.0
 11
0.0295609020528462
 21
-0.0799304914657849
 31
0.0
210
0.0
220
0.0
230
1.0
 40
0.9915400000000001
 41
1.999188705385541
 42
3.1816506169687
  0
ELLIPSE
  5
153
330
1F
100
AcDbEntity
  8
1
100
AcDbEllipse
 10
246.75403
 20
182.839917
 30
0.0
 11
0.1697196246486052
 21
-0.4589093047735795
 31
0.0
210
0.0
220
0.0
230
1.0
 40
0.9915399999999999
 41
1.610854290173849
 42
2.911121896195582
  0
ELLIPSE
  5
154
330
1F
100
AcDbEntity
  8
1
100
AcDbEllipse
 10
250.917537
 20
114.798336
 30
0.0
 11
-19.05247080381688
 21
47.75744865992986
 31
0.0
210
0.0
220
0.0
230
1.0
 40
0.262583
 41
6.124049928300643
 42
6.272853826737359
  0
ELLIPSE
  5
155
330
1F
100
AcDbEntity
  8
1
100
AcDbEllipse
 10
247.542909
 20
184.069651
 30
0.0
 11
-1.734353916585039
 21
4.689564637791672
 31
0.0
210
0.0
220
0.0
230
0.9999999999999998
 40
0.9915399999999999
 41
1.219319013466579
 42
2.006185650798645
  0
ELLIPSE
  5
156
330
1F
100
AcDbEntity
  8
1
100
AcDbEllipse
 10
247.542909
 20
184.069651
 30
0.0
 11
-1.734353916585039
 21
4.689564637791672
 31
0.0
210
0.0
220
0.0
230
0.9999999999999998
 40
0.9915399999999999
 41
3.526814617576386
 42
6.283185307179585
  0
ELLIPSE
  5
157
330
1F
100
AcDbEntity
  8
1
100
AcDbEllipse
 10
247.542909
 20
184.069651
 30
0.0
 11
-1.734353916585039
 21
4.689564637791672
 31
0.0
210
0.0
220
0.0
230
0.9999999999999998
 40
0.9915399999999999
 41
0.0
 42
1.219318975166022
  0
ELLIPSE
  5
158
330
1F
100
AcDbEntity
  8
1
100
AcDbEllipse
 10
251.196978
 20
112.775702
 30
0.0
 11
-6.070415607998074
 21
51.85794275057722
 31
0.0
210
0.0
220
0.0
230
1.0
 40
0.3441969999999999
 41
6.274883381632752
 42
6.379703408572807
  0
ELLIPSE
  5
159
330
1F
100
AcDbEntity
  8
1
100
AcDbEllipse
 10
247.469862
 20
184.042635
 30
0.0
 11
-0.9538946541217708
 21
2.579260550785417
 31
0.0
210
0.0
220
0.0
230
0.9999999999999998
 40
0.9915400000000001
 41
2.729733528314569
 42
6.283185307179585
  0
ELLIPSE
  5
15A
330
1F
100
AcDbEntity
  8
1
100
AcDbEllipse
 10
247.469862
 20
184.042635
 30
0.0
 11
-0.9538946541217708
 21
2.579260550785417
 31
0.0
210
0.0
220
0.0
230
0.9999999999999998
 40
0.9915400000000001
 41
0.0
 42
0.411827291114111
  0
ELLIPSE
  5
15B
330
1F
100
AcDbEntity
  8
1
100
AcDbEllipse
 10
243.351006
 20
181.908778
 30
0.0
 11
-0.1286626470417497
 21
0.7429413766374509
 31
0.0
210
0.0
220
0.0
230
1.0
 40
0.9201389999999999
 41
0.7146014941391376
 42
0.9116382477431923
  0
ELLIPSE
  5
15C
330
1F
100
AcDbEntity
  8
1
100
AcDbEllipse
 10
243.266337
 20
181.916667
 30
0.0
 11
-0.7073595856342755
 21
-0.2387165956927743
 31
0.0
210
0.0
220
0.0
230
1.0
 40
0.003764
 41
5.691433626750646
 42
7.592867597545428
  0
ELLIPSE
  5
15D
330
1F
100
AcDbEntity
  8
1
100
AcDbEllipse
 10
247.542909
 20
184.069651
 30
0.0
 11
0.9648018905928596
 21
-2.608752911001933
 31
0.0
210
0.0
220
0.0
230
1.0
 40
0.9915399999999999
 41
0.0
 42
6.283185307179585
  0
ELLIPSE
  5
15E
330
1F
100
AcDbEntity
  8
1
100
AcDbEllipse
 10
247.567095
 20
183.879693
 30
0.0
 11
-6.069316582149525
 21
-2.524372819170488
 31
0.0
210
0.0
220
0.0
230
0.9999999999999998
 40
0.105734
 41
5.569076147287387
 42
5.623271447891283
  0
ELLIPSE
  5
15F
330
1F
100
AcDbEntity
  8
CUT
100
AcDbEllipse
 10
247.542909
 20
184.069651
 30
0.0
 11
1.734353916585039
 21
-4.689564637791672
 31
0.0
210
0.0
220
0.0
230
0.9999999999999998
 40
0.9915399999999999
 41
0.0
 42
6.283185307179585
  0
ELLIPSE
  5
160
330
1F
100
AcDbEntity
  8
1
100
AcDbEllipse
 10
245.381005
 20
172.270131
 30
0.0
 11
-1.641755577727406
 21
15.01281735376909
 31
0.0
210
0.0
220
0.0
230
1.0
 40
0.055701
 41
1.264089382754735
 42
1.390883071674932
  0
ELLIPSE
  5
161
330
1F
100
AcDbEntity
  8
1
100
AcDbEllipse
 10
246.249608
 20
175.655217
 30
0.0
 11
1.981181537406668
 21
0.2737146613518397
 31
0.0
210
0.0
220
0.0
230
0.9999999999999998
 40
0.4567770000000001
 41
0.1986609156111765
 42
3.078569226743685
  0
ELLIPSE
  5
162
330
1F
100
AcDbEntity
  8
1
100
AcDbEllipse
 10
247.567096
 20
183.879694
 30
0.0
 11
-5.876714510336077
 21
-2.992754148102901
 31
0.0
210
0.0
220
0.0
230
1.0
 40
0.10867
 41
0.6505694680140759
 42
0.7053461702746706
  0
ELLIPSE
  5
163
330
1F
100
AcDbEntity
  8
1
100
AcDbEllipse
 10
250.699935
 20
165.436279
 30
0.0
 11
-0.5081971368138532
 21
0.0648054233680816
 31
0.0
210
0.0
220
0.0
230
1.0
 40
0.5250310000000001
 41
3.208444934447214
 42
3.972656649184368
  0
ELLIPSE
  5
164
330
1F
100
AcDbEntity
  8
1
100
AcDbEllipse
 10
248.476324
 20
183.351154
 30
0.0
 11
0.0295609020528462
 21
-0.0799304914657849
 31
0.0
210
0.0
220
0.0
230
1.0
 40
0.9915400000000001
 41
5.140781358975369
 42
6.32324327055858
  0
ELLIPSE
  5
165
330
1F
100
AcDbEntity
  8
1
100
AcDbEllipse
 10
247.772817
 20
185.427819
 30
0.0
 11
0.0295609020528462
 21
-0.0799304914657849
 31
0.0
210
0.0
220
0.0
230
1.0
 40
0.9915400000000001
 41
0.9519911541889751
 42
2.134453065772081
  0
ELLIPSE
  5
166
330
1F
100
AcDbEntity
  8
1
100
AcDbEllipse
 10
250.699935
 20
170.456057
 30
0.0
 11
-0.5085438475742841
 21
-0.0633117803645933
 31
0.0
210
0.0
220
0.0
230
0.9999999999999996
 40
0.4481880000000001
 41
2.321640989481787
 42
3.085852704226323
  0
ELLIPSE
  5
167
330
1F
100
AcDbEntity
  8
1
100
AcDbEllipse
 10
245.551693
 20
168.906707
 30
0.0
 11
-0.4972924961429308
 21
-0.075921610369769
 31
0.0
210
0.0
220
0.0
230
1.0
 40
0.4651220000000001
 41
0.7142777530028662
 42
1.478489467741199
  0
ELLIPSE
  5
168
330
1F
100
AcDbEntity
  8
1
100
AcDbEllipse
 10
246.703417
 20
185.145374
 30
0.0
 11
0.0295609020528462
 21
-0.0799304914657848
 31
0.0
210
0.0
220
0.0
230
1.0
 40
0.9915400000000001
 41
5.140781358975296
 42
5.799644494960241
  0
ELLIPSE
  5
169
330
1F
100
AcDbEntity
  8
1
100
AcDbEllipse
 10
248.719083
 20
183.772989
 30
0.0
 11
0.0295609020528464
 21
-0.0799304914657852
 31
0.0
210
0.0
220
0.0
230
1.0
 40
0.9915399999999998
 41
1.340325569400681
 42
2.522787480983901
  0
ELLIPSE
  5
16A
330
1F
100
AcDbEntity
  8
1
100
AcDbEllipse
 10
248.567464
 20
169.235118
 30
0.0
 11
-0.4976695442568505
 21
-0.0631302694782951
 31
0.0
210
0.0
220
0.0
230
1.0
 40
0.467716
 41
1.532950936201149
 42
2.297162650935661
  0
ELLIPSE
  5
16B
330
1F
100
AcDbEntity
  8
1
100
AcDbEllipse
 10
248.762868
 20
183.937212
 30
0.0
 11
0.0295609020528463
 21
-0.0799304914657849
 31
0.0
210
0.0
220
0.0
230
1.0
 40
0.9915400000000001
 41
5.005516998588826
 42
5.664380134573626
  0
ELLIPSE
  5
16C
330
1F
100
AcDbEntity
  8
1
100
AcDbEllipse
 10
247.772817
 20
182.946276
 30
0.0
 11
0.0295609020528464
 21
-0.0799304914657852
 31
0.0
210
0.0
220
0.0
230
1.0
 40
0.9915399999999998
 41
0.2931280182040501
 42
1.475589929787256
  0
ELLIPSE
  5
16D
330
1F
100
AcDbEntity
  8
1
100
AcDbEllipse
 10
178.725018
 20
173.2145379999999
 30
0.0
 11
-123.5668207864046
 21
-13.49866035033734
 31
0.0
210
0.0
220
0.0
230
1.0
 40
0.055784
 41
2.14188069176243
 42
2.153164132284357
  0
ELLIPSE
  5
16E
330
1F
100
AcDbEntity
  8
1
100
AcDbEllipse
 10
247.936228
 20
185.382841
 30
0.0
 11
0.0295609020528462
 21
-0.0799304914657848
 31
0.0
210
0.0
220
0.0
230
1.0
 40
0.9915400000000001
 41
4.093583807778768
 42
4.752446943763611
  0
ELLIPSE
  5
16F
330
1F
100
AcDbEntity
  8
1
100
AcDbEllipse
 10
246.703417
 20
183.240621
 30
0.0
 11
0.0295609020528463
 21
-0.0799304914657849
 31
0.0
210
0.0
220
0.0
230
1.0
 40
0.9915400000000001
 41
2.911121896195638
 42
3.56998503218047
  0
ELLIPSE
  5
170
330
1F
100
AcDbEntity
  8
1
100
AcDbEllipse
 10
247.287299
 20
182.948977
 30
0.0
 11
0.0295609020528462
 21
-0.0799304914657849
 31
0.0
210
0.0
220
0.0
230
1.0
 40
0.9915400000000001
 41
4.093583807778751
 42
5.276045719361954
  0
ELLIPSE
  5
171
330
1F
100
AcDbEntity
  8
1
100
AcDbEllipse
 10
247.936228
 20
182.989435
 30
0.0
 11
0.0295609020528463
 21
-0.0799304914657849
 31
0.0
210
0.0
220
0.0
230
1.0
 40
0.9915400000000001
 41
3.958319447392267
 42
4.617182583377092
  0
ELLIPSE
  5
172
330
1F
100
AcDbEntity
  8
1
100
AcDbEllipse
 10
248.762868
 20
184.425865
 30
0.0
 11
0.0295609020528462
 21
-0.0799304914657848
 31
0.0
210
0.0
220
0.0
230
1.0
 40
0.9915400000000001
 41
3.046386256582205
 42
3.705249392567016
  0
ELLIPSE
  5
173
330
1F
100
AcDbEntity
  8
1
100
AcDbEllipse
 10
247.542909
 20
184.069651
 30
0.0
 11
-1.734353916585039
 21
4.689564637791672
 31
0.0
210
0.0
220
0.0
230
0.9999999999999998
 40
0.9915399999999999
 41
1.219319013466579
 42
2.006189857107071
  0
ELLIPSE
  5
174
330
1F
100
AcDbEntity
  8
1
100
AcDbEllipse
 10
247.542909
 20
184.069651
 30
0.0
 11
-1.734353916585039
 21
4.689564637791672
 31
0.0
210
0.0
220
0.0
230
0.9999999999999998
 40
0.9915399999999999
 41
3.526720534367638
 42
6.283185307179585
  0
ELLIPSE
  5
175
330
1F
100
AcDbEntity
  8
1
100
AcDbEllipse
 10
247.542909
 20
184.069651
 30
0.0
 11
-1.734353916585039
 21
4.689564637791672
 31
0.0
210
0.0
220
0.0
230
0.9999999999999998
 40
0.9915399999999999
 41
0.0
 42
1.219318975166022
  0
ELLIPSE
  5
176
330
1F
100
AcDbEntity
  8
1
100
AcDbEllipse
 10
248.719083
 20
184.590575
 30
0.0
 11
0.0295609020528462
 21
-0.0799304914657849
 31
0.0
210
0.0
220
0.0
230
1.0
 40
0.9915400000000001
 41
6.187978910172085
 42
7.370440821755168
  0
ELLIPSE
  5
177
330
1F
100
AcDbEntity
  8
1
100
AcDbEllipse
 10
246.583792
 20
183.361684
 30
0.0
 11
0.0295609020528464
 21
-0.0799304914657852
 31
0.0
210
0.0
220
0.0
230
1.0
 40
0.9915399999999998
 41
5.529115774187115
 42
6.711577685770288
  0
SPLINE
  5
178
330
1F
100
AcDbEntity
  8
1
100
AcDbSpline
210
0.0
220
0.0
230
1.0
 70
     8
 71
     3
 72
    12
 73
     8
 74
     0
 42
0.000000001
 43
0.0000000001
 40
0.0
 40
0.0
 40
0.0
 40
0.0
 40
0.1951175161283187
 40
0.3926605713512029
 40
0.5926451555264089
 40
0.7950866796406579
 40
1.0
 40
1.0
 40
1.0
 40
1.0
 10
243.2624580021895
 20
159.4911678055176
 30
0.0
 10
243.3859276324225
 20
159.4175348162846
 30
0.0
 10
243.6344017649035
 20
159.2693534935808
 30
0.0
 10
244.0136309537734
 20
159.0461932229255
 30
0.0
 10
244.4004732495231
 20
158.8203840096201
 30
0.0
 10
244.7949286927898
 20
158.5918055482128
 30
0.0
 10
245.061795268253
 20
158.438263829891
 30
0.0
 10
245.196038218381
 20
158.3610271313668
 30
0.0
  0
SPLINE
  5
179
330
1F
100
AcDbEntity
  8
1
100
AcDbSpline
210
0.0
220
0.0
230
1.0
 70
     8
 71
     3
 72
     9
 73
     5
 74
     0
 42
0.000000001
 43
0.0000000001
 40
0.0
 40
0.0
 40
0.0
 40
0.0
 40
0.5054955060231591
 40
1.0
 40
1.0
 40
1.0
 40
1.0
 10
243.7549421333535
 20
169.0605084754239
 30
0.0
 10
243.7436967552431
 20
169.0672435819471
 30
0.0
 10
243.7214505077962
 20
169.0805673532624
 30
0.0
 10
243.6968640948937
 20
169.0936464264803
 30
0.0
 10
243.6847060032227
 20
169.1001140869636
 30
0.0
  0
SPLINE
  5
17A
330
1F
100
AcDbEntity
  8
1
100
AcDbSpline
210
0.0
220
0.0
230
1.0
 70
     8
 71
     3
 72
    18
 73
    14
 74
     0
 42
0.000000001
 43
0.0000000001
 40
0.0
 40
0.0
 40
0.0
 40
0.0
 40
0.0589444140955437
 40
0.0589444140955437
 40
0.1216814531558409
 40
0.1216814531558409
 40
0.2471555312764344
 40
0.2471555312764344
 40
0.498103687517623
 40
0.498103687517623
 40
0.7490518437588114
 40
0.7490518437588114
 40
1.0
 40
1.0
 40
1.0
 40
1.0
 10
242.5802570105518
 20
184.0365368556511
 30
0.0
 10
242.5805606485364
 20
183.9664917948608
 30
0.0
 10
242.5824112229574
 20
183.8954828589378
 30
0.0
 10
242.588656848694
 20
183.757947862307
 30
0.0
 10
242.593196388377
 20
183.6906718319946
 30
0.0
 10
242.6087504535254
 20
183.5053103767501
 30
0.0
 10
242.6219171057383
 20
183.3984082769815
 30
0.0
 10
242.6632648739898
 20
183.1144720818329
 30
0.0
 10
242.6943110104633
 20
182.9647322307281
 30
0.0
 10
242.7577395448137
 20
182.6980198722043
 30
0.0
 10
242.7902794473308
 20
182.5829121733463
 30
0.0
 10
242.8563384953918
 20
182.3721660669412
 30
0.0
 10
242.8898750860139
 20
182.2769579013453
 30
0.0
 10
242.9237904958028
 20
182.1885091785358
 30
0.0
  0
SPLINE
  5
17B
330
1F
100
AcDbEntity
  8
1
100
AcDbSpline
210
0.0
220
0.0
230
1.0
 70
    24
 71
     1
 72
     4
 73
     2
 74
     0
 42
0.000000001
 43
0.0000000001
 40
0.0
 40
0.0
 40
1.0
 40
1.0
 10
245.2021302465679
 20
168.8280758050845
 30
0.0
 10
243.7855760380444
 20
169.0417966509461
 30
0.0
  0
SPLINE
  5
17C
330
1F
100
AcDbEntity
  8
1
100
AcDbSpline
210
0.0
220
0.0
230
1.0
 70
     8
 71
     2
 72
    20
 73
    17
 74
     0
 42
0.000000001
 43
0.0000000001
 40
0.0
 40
0.0
 40
0.0
 40
0.125
 40
0.125
 40
0.25
 40
0.25
 40
0.375
 40
0.375
 40
0.5
 40
0.5
 40
0.625
 40
0.625
 40
0.75
 40
0.75
 40
0.875
 40
0.875
 40
1.0
 40
1.0
 40
1.0
 10
247.3155754251873
 20
158.1064909709353
 30
0.0
 10
247.8629114993974
 20
158.1058374837599
 30
0.0
 10
248.3894240544707
 20
158.2609978204433
 30
0.0
 10
248.902934124375
 20
158.4123263966927
 30
0.0
 10
249.3501461730287
 20
158.6990655141244
 30
0.0
 10
249.782837089028
 20
158.9764941114708
 30
0.0
 10
250.1234455536296
 20
159.3621107907743
 30
0.0
 10
250.4526387525706
 20
159.7348037841015
 30
0.0
 10
250.6748039519069
 20
160.1883752044691
 30
0.0
 10
250.8877970556858
 20
160.6232209179205
 30
0.0
 10
250.9891027042255
 20
161.1086913180256
 30
0.0
 10
251.0858506130314
 20
161.5723204115105
 30
0.0
 10
251.0773677952385
 20
162.0629463462623
 30
0.0
 10
251.0691742511406
 20
162.5368413809196
 30
0.0
 10
250.9625061366102
 20
163.020287417747
 30
0.0
 10
250.8595454031926
 20
163.4869306947818
 30
0.0
 10
250.6686436800944
 20
163.9456277480492
 30
0.0
  0
SPLINE
  5
17D
330
1F
100
AcDbEntity
  8
1
100
AcDbSpline
210
0.0
220
0.0
230
1.0
 70
    24
 71
     1
 72
     4
 73
     2
 74
     0
 42
0.000000001
 43
0.0000000001
 40
0.0
 40
0.0
 40
1.0
 40
1.0
 10
242.7521352313442
 20
186.6143919263032
 30
0.0
 10
242.6478690322529
 20
186.6972777730606
 30
0.0
  0
SPLINE
  5
17E
330
1F
100
AcDbEntity
  8
1
100
AcDbSpline
210
0.0
220
0.0
230
1.0
 70
    24
 71
     1
 72
     4
 73
     2
 74
     0
 42
0.000000001
 43
0.0000000001
 40
0.0
 40
0.0
 40
1.0
 40
1.0
 10
247.3258509841125
 20
168.9618987125457
 30
0.0
 10
246.1617493689748
 20
168.8223329309095
 30
0.0
  0
SPLINE
  5
17F
330
1F
100
AcDbEntity
  8
1
100
AcDbSpline
210
0.0
220
0.0
230
1.0
 70
     8
 71
     3
 72
    10
 73
     6
 74
     0
 42
0.000000001
 43
0.0000000001
 40
0.0
 40
0.0
 40
0.0
 40
0.0
 40
0.4038553326413227
 40
0.4038553326413227
 40
1.0
 40
1.0
 40
1.0
 40
1.0
 10
248.4511789930852
 20
183.2668178978858
 30
0.0
 10
248.5104094496946
 20
183.3075711685823
 30
0.0
 10
248.5602485558641
 20
183.360985207626
 30
0.0
 10
248.6495720678677
 20
183.5160913721656
 30
0.0
 10
248.669874841117
 20
183.6237855077591
 30
0.0
 10
248.6546183769897
 20
183.7283919057039
 30
0.0
  0
SPLINE
  5
180
330
1F
100
AcDbEntity
  8
1
100
AcDbSpline
210
0.0
220
0.0
230
1.0
 70
     8
 71
     3
 72
     8
 73
     4
 74
     0
 42
0.000000001
 43
0.0000000001
 40
0.0
 40
0.0
 40
0.0
 40
0.0
 40
1.0
 40
1.0
 40
1.0
 40
1.0
 10
248.2131500559618
 20
184.9946251084605
 30
0.0
 10
248.2198220983333
 20
184.9954983260166
 30
0.0
 10
248.2264276523501
 20
184.9971473840323
 30
0.0
 10
248.2327408819565
 20
184.9994752114401
 30
0.0
  0
SPLINE
  5
181
330
1F
100
AcDbEntity
  8
1
100
AcDbSpline
210
0.0
220
0.0
230
1.0
 70
     8
 71
     3
 72
    10
 73
     6
 74
     0
 42
0.000000001
 43
0.0000000001
 40
0.0
 40
0.0
 40
0.0
 40
0.0
 40
0.2021441042171352
 40
0.2021441042171352
 40
1.0
 40
1.0
 40
1.0
 40
1.0
 10
247.9770647357581
 20
183.2312200752691
 30
0.0
 10
247.9515911407109
 20
183.2218578351185
 30
0.0
 10
247.9268656577487
 20
183.2103808162294
 30
0.0
 10
247.809915690312
 20
183.1431645855364
 30
0.0
 10
247.7404678736881
 20
183.0604084809156
 30
0.0
 10
247.703997523049
 20
182.9657546225771
 30
0.0
  0
SPLINE
  5
182
330
1F
100
AcDbEntity
  8
1
100
AcDbSpline
210
0.0
220
0.0
230
1.0
 70
     8
 71
     3
 72
    10
 73
     6
 74
     0
 42
0.000000001
 43
0.0000000001
 40
0.0
 40
0.0
 40
0.0
 40
0.0
 40
0.5000000000000001
 40
0.5000000000000001
 40
1.0
 40
1.0
 40
1.0
 40
1.0
 10
247.703997523049
 20
185.2933156357918
 30
0.0
 10
247.7404531551394
 20
185.195579699513
 30
0.0
 10
247.8095074093476
 20
185.1105692243485
 30
0.0
 10
247.9959867175666
 20
185.0010227085966
 30
0.0
 10
248.106699413641
 20
184.9806931571099
 30
0.0
 10
248.2131500559618
 20
184.9946251084605
 30
0.0
  0
SPLINE
  5
183
330
1F
100
AcDbEntity
  8
1
100
AcDbSpline
210
0.0
220
0.0
230
1.0
 70
     8
 71
     3
 72
    10
 73
     6
 74
     0
 42
0.000000001
 43
0.0000000001
 40
0.0
 40
0.0
 40
0.0
 40
0.0
 40
0.5
 40
0.5
 40
1.0
 40
1.0
 40
1.0
 40
1.0
 10
248.5413131521335
 20
184.4207337181045
 30
0.0
 10
248.4749775915124
 20
184.3367317520489
 30
0.0
 10
248.4362551476136
 20
184.231866036145
 30
0.0
 10
248.4361248120536
 20
184.015067480899
 30
0.0
 10
248.4749501667808
 20
183.9110781752836
 30
0.0
 10
248.5413131521336
 20
183.8290186561866
 30
0.0
  0
SPLINE
  5
184
330
1F
100
AcDbEntity
  8
1
100
AcDbSpline
210
0.0
220
0.0
230
1.0
 70
     8
 71
     3
 72
    10
 73
     6
 74
     0
 42
0.000000001
 43
0.0000000001
 40
0.0
 40
0.0
 40
0.0
 40
0.0
 40
0.786050357118056
 40
0.786050357118056
 40
1.0
 40
1.0
 40
1.0
 40
1.0
 10
247.6756413176977
 20
185.4404262942072
 30
0.0
 10
247.5936808473513
 20
185.5058359171728
 30
0.0
 10
247.4912264523733
 20
185.5422414068378
 30
0.0
 10
247.3558106568797
 20
185.5430354605136
 30
0.0
 10
247.3269640372229
 20
185.5405428698378
 30
0.0
 10
247.2985895217316
 20
185.5355244325629
 30
0.0
  0
SPLINE
  5
185
330
1F
100
AcDbEntity
  8
1
100
AcDbSpline
210
0.0
220
0.0
230
1.0
 70
     8
 71
     3
 72
    10
 73
     6
 74
     0
 42
0.000000001
 43
0.0000000001
 40
0.0
 40
0.0
 40
0.0
 40
0.0
 40
0.5
 40
0.5
 40
1.0
 40
1.0
 40
1.0
 40
1.0
 10
248.6546183769897
 20
184.5244898703044
 30
0.0
 10
248.6698744453601
 20
184.63038963538
 30
0.0
 10
248.6496593118279
 20
184.7387843963743
 30
0.0
 10
248.5432734064802
 20
184.9249629599362
 30
0.0
 10
248.4598311948904
 20
184.9977158961312
 30
0.0
 10
248.3606590250539
 20
185.0385657769454
 30
0.0
  0
SPLINE
  5
186
330
1F
100
AcDbEntity
  8
1
100
AcDbSpline
210
0.0
220
0.0
230
1.0
 70
     8
 71
     3
 72
     8
 73
     4
 74
     0
 42
0.000000001
 43
0.0000000001
 40
0.0
 40
0.0
 40
0.0
 40
0.0
 40
1.0
 40
1.0
 40
1.0
 40
1.0
 10
246.5385187977928
 20
185.0039429925381
 30
0.0
 10
246.6125620049075
 20
184.9926918503798
 30
0.0
 10
246.6900417072444
 20
185.000404731358
 30
0.0
 10
246.763381718423
 20
185.0273517093441
 30
0.0
  0
SPLINE
  5
187
330
1F
100
AcDbEntity
  8
1
100
AcDbSpline
210
0.0
220
0.0
230
1.0
 70
     8
 71
     3
 72
    10
 73
     6
 74
     0
 42
0.000000001
 43
0.0000000001
 40
0.0
 40
0.0
 40
0.0
 40
0.0
 40
0.8866507513455342
 40
0.8866507513455342
 40
1.0
 40
1.0
 40
1.0
 40
1.0
 10
246.4916871340087
 20
185.0293237922657
 30
0.0
 10
246.4851574708956
 20
185.0365400214506
 30
0.0
 10
246.4772901363896
 20
185.0426060343333
 30
0.0
 10
246.4676025005443
 20
185.0475667587021
 30
0.0
 10
246.4664893328349
 20
185.04810336639
 30
0.0
 10
246.4653619969201
 20
185.0486139839545
 30
0.0
  0
SPLINE
  5
188
330
1F
100
AcDbEntity
  8
1
100
AcDbSpline
210
0.0
220
0.0
230
1.0
 70
     8
 71
     3
 72
    18
 73
    14
 74
     0
 42
0.000000001
 43
0.0000000001
 40
0.0
 40
0.0
 40
0.0
 40
0.0
 40
0.0589444140903158
 40
0.0589444140903158
 40
0.1216814531509613
 40
0.1216814531509613
 40
0.2471555312722524
 40
0.2471555312722524
 40
0.4981036875148349
 40
0.4981036875148349
 40
0.7490518437574174
 40
0.7490518437574174
 40
1.0
 40
1.0
 40
1.0
 40
1.0
 10
242.5802570105519
 20
184.0365368556313
 30
0.0
 10
242.5805606485368
 20
183.9664917948474
 30
0.0
 10
242.5824112229577
 20
183.8954828589315
 30
0.0
 10
242.588656848694
 20
183.757947862307
 30
0.0
 10
242.593196388377
 20
183.6906718319946
 30
0.0
 10
242.6087504535254
 20
183.5053103767501
 30
0.0
 10
242.6219171057383
 20
183.3984082769815
 30
0.0
 10
242.6632648739898
 20
183.1144720818329
 30
0.0
 10
242.6943110104633
 20
182.9647322307281
 30
0.0
 10
242.7577395448136
 20
182.6980198722043
 30
0.0
 10
242.7902794473308
 20
182.5829121733463
 30
0.0
 10
242.8563384953918
 20
182.3721660669412
 30
0.0
 10
242.8898750860139
 20
182.2769579013453
 30
0.0
 10
242.9237904958028
 20
182.1885091785358
 30
0.0
  0
SPLINE
  5
189
330
1F
100
AcDbEntity
  8
1
100
AcDbSpline
210
0.0
220
0.0
230
1.0
 70
     8
 71
     3
 72
     8
 73
     4
 74
     0
 42
0.000000001
 43
0.0000000001
 40
0.0
 40
0.0
 40
0.0
 40
0.0
 40
1.0
 40
1.0
 40
1.0
 40
1.0
 10
248.3606590250539
 20
185.0385657769454
 30
0.0
 10
248.3563045522596
 20
185.0403594222285
 30
0.0
 10
248.3517726838305
 20
185.0417901863785
 30
0.0
 10
248.34716066255
 20
185.0428464197277
 30
0.0
  0
SPLINE
  5
18A
330
1F
100
AcDbEntity
  8
1
100
AcDbSpline
210
0.0
220
0.0
230
1.0
 70
     8
 71
     3
 72
     8
 73
     4
 74
     0
 42
0.000000001
 43
0.0000000001
 40
0.0
 40
0.0
 40
0.0
 40
0.0
 40
1.0
 40
1.0
 40
1.0
 40
1.0
 10
252.1653269090306
 20
169.1535800294077
 30
0.0
 10
252.1687683285221
 20
169.141571068656
 30
0.0
 10
252.1721786815111
 20
169.1295870451318
 30
0.0
 10
252.175553880609
 20
169.1176356422344
 30
0.0
  0
SPLINE
  5
18B
330
1F
100
AcDbEntity
  8
1
100
AcDbSpline
210
0.0
220
0.0
230
1.0
 70
     8
 71
     3
 72
    10
 73
     6
 74
     0
 42
0.000000001
 43
0.0000000001
 40
0.0
 40
0.0
 40
0.0
 40
0.0
 40
0.515224024567951
 40
0.515224024567951
 40
1.0
 40
1.0
 40
1.0
 40
1.0
 10
252.1361713265137
 20
166.3500966475299
 30
0.0
 10
252.1322255243144
 20
166.3365675199061
 30
0.0
 10
252.1282572627593
 20
166.3230522618368
 30
0.0
 10
252.1205228308807
 20
166.2968675821709
 30
0.0
 10
252.11675236429
 20
166.284171641052
 30
0.0
 10
252.1129616726078
 20
166.2714740158545
 30
0.0
  0
SPLINE
  5
18C
330
1F
100
AcDbEntity
  8
1
100
AcDbSpline
210
0.0
220
0.0
230
1.0
 70
     8
 71
     3
 72
    18
 73
    14
 74
     0
 42
0.000000001
 43
0.0000000001
 40
0.0
 40
0.0
 40
0.0
 40
0.0
 40
0.2802498587907203
 40
0.2802498587907203
 40
0.5604997175814406
 40
0.5604997175814406
 40
0.7006246469768007
 40
0.7006246469768007
 40
0.8407495763721607
 40
0.8407495763721607
 40
0.980874505767521
 40
0.980874505767521
 40
1.0
 40
1.0
 40
1.0
 40
1.0
 10
242.9237904958028
 20
182.1885091785359
 30
0.0
 10
242.9630042315004
 20
182.0988912472283
 30
0.0
 10
243.0073582675408
 20
182.0045268217769
 30
0.0
 10
243.1113832644961
 20
181.8017484053754
 30
0.0
 10
243.1705878323475
 20
181.693947933314
 30
0.0
 10
243.279103589511
 20
181.5144929498834
 30
0.0
 10
243.3186049857131
 20
181.451674946932
 30
0.0
 10
243.4080385612065
 20
181.3166046998346
 30
0.0
 10
243.4581326937185
 20
181.2440713264111
 30
0.0
 10
243.5741044670121
 20
181.0862155385821
 30
0.0
 10
243.6408390589497
 20
180.9995337693642
 30
0.0
 10
243.7328873673408
 20
180.8893669532951
 30
0.0
 10
243.7442592564557
 20
180.8758919335559
 30
0.0
 10
243.7559259977556
 20
180.8622150126307
 30
0.0
  0
SPLINE
  5
18D
330
1F
100
AcDbEntity
  8
1
100
AcDbSpline
210
0.0
220
0.0
230
1.0
 70
    24
 71
     1
 72
     4
 73
     2
 74
     0
 42
0.000000001
 43
0.0000000001
 40
0.0
 40
0.0
 40
1.0
 40
1.0
 10
242.6076087464779
 20
186.6583384215293
 30
0.0
 10
242.5149649800605
 20
186.7377920616773
 30
0.0
  0
SPLINE
  5
18E
330
1F
100
AcDbEntity
  8
1
100
AcDbSpline
210
0.0
220
0.0
230
1.0
 70
     8
 71
     2
 72
     6
 73
     3
 74
     0
 42
0.000000001
 43
0.0000000001
 40
0.0
 40
0.0
 40
0.0
 40
1.0
 40
1.0
 40
1.0
 10
242.2203596646785
 20
186.6371330958681
 30
0.0
 10
236.5151359565977
 20
186.632613626246
 30
0.0
 10
230.8717841683403
 20
186.5551226347072
 30
0.0
  0
SPLINE
  5
18F
330
1F
100
AcDbEntity
  8
1
100
AcDbSpline
210
0.0
220
0.0
230
1.0
 70
     8
 71
     3
 72
     8
 73
     4
 74
     0
 42
0.000000001
 43
0.0000000001
 40
0.0
 40
0.0
 40
0.0
 40
0.0
 40
1.0
 40
1.0
 40
1.0
 40
1.0
 10
242.210527264788
 20
166.3891561237808
 30
0.0
 10
242.3443337257403
 20
166.404475147856
 30
0.0
 10
242.4781365745407
 20
166.4130003920883
 30
0.0
 10
242.6092569158984
 20
166.4150041895227
 30
0.0
  0
SPLINE
  5
190
330
1F
100
AcDbEntity
  8
1
100
AcDbSpline
210
0.0
220
0.0
230
1.0
 70
    24
 71
     1
 72
     4
 73
     2
 74
     0
 42
0.000000001
 43
0.0000000001
 40
0.0
 40
0.0
 40
1.0
 40
1.0
 10
242.6092569158983
 20
166.4150041895227
 30
0.0
 10
242.6076089289302
 20
166.4085188057047
 30
0.0
  0
SPLINE
  5
191
330
1F
100
AcDbEntity
  8
1
100
AcDbSpline
210
0.0
220
0.0
230
1.0
 70
    24
 71
     1
 72
     4
 73
     2
 74
     0
 42
0.000000001
 43
0.0000000001
 40
0.0
 40
0.0
 40
1.0
 40
1.0
 10
242.5149652292029
 20
186.7377633663558
 30
0.0
 10
242.5370869335082
 20
186.6615789248092
 30
0.0
  0
SPLINE
  5
192
330
1F
100
AcDbEntity
  8
1
100
AcDbSpline
210
0.0
220
0.0
230
1.0
 70
    24
 71
     1
 72
     4
 73
     2
 74
     0
 42
0.000000001
 43
0.0000000001
 40
0.0
 40
0.0
 40
1.0
 40
1.0
 10
230.8619517680553
 20
165.2131551349169
 30
0.0
 10
230.8717841683403
 20
165.1898540645341
 30
0.0
  0
SPLINE
  5
193
330
1F
100
AcDbEntity
  8
1
100
AcDbSpline
210
0.0
220
0.0
230
1.0
 70
    24
 71
     1
 72
     4
 73
     2
 74
     0
 42
0.000000001
 43
0.0000000001
 40
0.0
 40
0.0
 40
1.0
 40
1.0
 10
243.0877407322953
 20
181.1114588084116
 30
0.0
 10
243.0967507953723
 20
181.1011277953374
 30
0.0
  0
SPLINE
  5
194
330
1F
100
AcDbEntity
  8
1
100
AcDbSpline
210
0.0
220
0.0
230
1.0
 70
     8
 71
     2
 72
     6
 73
     3
 74
     0
 42
0.000000001
 43
0.0000000001
 40
0.0
 40
0.0
 40
0.0
 40
1.0
 40
1.0
 40
1.0
 10
242.2203596636429
 20
166.3588196323351
 30
0.0
 10
236.5151359560844
 20
165.7542392450482
 30
0.0
 10
230.8717841683403
 20
165.1898540645341
 30
0.0
  0
SPLINE
  5
195
330
1F
100
AcDbEntity
  8
1
100
AcDbSpline
210
0.0
220
0.0
230
1.0
 70
     8
 71
     3
 72
    15
 73
    11
 74
     0
 42
0.000000001
 43
0.0000000001
 40
0.0
 40
0.0
 40
0.0
 40
0.0
 40
0.1394420594697866
 40
0.2746136907203351
 40
0.405588713848421
 40
0.5324387329002678
 40
0.6552340894400378
 40
0.7740449345659703
 40
0.8889424185707234
 40
1.0
 40
1.0
 40
1.0
 40
1.0
 10
243.210527264788
 20
159.4567989151909
 30
0.0
 10
243.1689874349263
 20
159.4804550298596
 30
0.0
 10
243.087179937005
 20
159.5270427881156
 30
0.0
 10
242.9595760370497
 20
159.5855795683086
 30
0.0
 10
242.8319066027983
 20
159.6346634452378
 30
0.0
 10
242.7044780535018
 20
159.6739704266102
 30
0.0
 10
242.5781689839427
 20
159.7041623787961
 30
0.0
 10
242.4535890932486
 20
159.7254686931338
 30
0.0
 10
242.3314115996147
 20
159.7391220134353
 30
0.0
 10
242.2503629266942
 20
159.7418373310488
 30
0.0
 10
242.210527264788
 20
159.7431719176684
 30
0.0
  0
SPLINE
  5
196
330
1F
100
AcDbEntity
  8
1
100
AcDbSpline
210
0.0
220
0.0
230
1.0
 70
     8
 71
     3
 72
    13
 73
     9
 74
     0
 42
0.000000001
 43
0.0000000001
 40
0.0
 40
0.0
 40
0.0
 40
0.0
 40
0.1263284250251984
 40
0.2515768130205855
 40
0.3763932929834689
 40
0.5014327100980837
 40
0.7527446150406521
 40
1.0
 40
1.0
 40
1.0
 40
1.0
 10
245.196038218381
 20
158.3610271313668
 30
0.0
 10
245.2319807384029
 20
158.3411857029623
 30
0.0
 10
245.3035584901023
 20
158.3016724792141
 30
0.0
 10
245.4165359426151
 20
158.2511537319646
 30
0.0
 10
245.5327964726367
 20
158.2074488513878
 30
0.0
 10
245.6927463181436
 20
158.1593333652379
 30
0.0
 10
245.8989498422856
 20
158.1159519406078
 30
0.0
 10
246.0678375395755
 20
158.1097610569877
 30
0.0
 10
246.1515943231714
 20
158.1066908007881
 30
0.0
  0
SPLINE
  5
197
330
1F
100
AcDbEntity
  8
1
100
AcDbSpline
210
0.0
220
0.0
230
1.0
 70
    24
 71
     1
 72
     4
 73
     2
 74
     0
 42
0.000000001
 43
0.0000000001
 40
0.0
 40
0.0
 40
1.0
 40
1.0
 10
245.196038218381
 20
158.3610271313668
 30
0.0
 10
245.1519169686898
 20
158.3278139433415
 30
0.0
  0
SPLINE
  5
198
330
1F
100
AcDbEntity
  8
1
100
AcDbSpline
210
0.0
220
0.0
230
1.0
 70
     8
 71
     3
 72
     8
 73
     4
 74
     0
 42
0.000000001
 43
0.0000000001
 40
0.0
 40
0.0
 40
0.0
 40
0.0
 40
1.0
 40
1.0
 40
1.0
 40
1.0
 10
232.0067178800058
 20
162.5602599469219
 30
0.0
 10
231.9798297853576
 20
162.5543449008068
 30
0.0
 10
231.9529366856558
 20
162.5484950791559
 30
0.0
 10
231.9260388607873
 20
162.542711173564
 30
0.0
  0
SPLINE
  5
199
330
1F
100
AcDbEntity
  8
1
100
AcDbSpline
210
0.0
220
0.0
230
1.0
 70
    24
 71
     1
 72
     4
 73
     2
 74
     0
 42
0.000000001
 43
0.0000000001
 40
0.0
 40
0.0
 40
1.0
 40
1.0
 10
243.0967507953723
 20
181.1011277953374
 30
0.0
 10
243.0568545294914
 20
181.0408070535586
 30
0.0
  0
SPLINE
  5
19A
330
1F
100
AcDbEntity
  8
1
100
AcDbSpline
210
0.0
220
0.0
230
1.0
 70
     8
 71
     3
 72
     8
 73
     4
 74
     0
 42
0.000000001
 43
0.0000000001
 40
0.0
 40
0.0
 40
0.0
 40
0.0
 40
1.0
 40
1.0
 40
1.0
 40
1.0
 10
246.1515943231714
 20
158.1066908007881
 30
0.0
 10
246.1606803168479
 20
158.106688357556
 30
0.0
 10
246.1697662834353
 20
158.1066827909277
 30
0.0
 10
246.1788522128155
 20
158.1066740998237
 30
0.0
  0
SPLINE
  5
19B
330
1F
100
AcDbEntity
  8
1
100
AcDbSpline
210
0.0
220
0.0
230
1.0
 70
     8
 71
     3
 72
     8
 73
     4
 74
     0
 42
0.000000001
 43
0.0000000001
 40
0.0
 40
0.0
 40
0.0
 40
0.0
 40
1.0
 40
1.0
 40
1.0
 40
1.0
 10
242.6076089289302
 20
182.2923677384554
 30
0.0
 10
242.5844860057306
 20
182.2981373933014
 30
0.0
 10
242.5609585229412
 20
182.3029025662393
 30
0.0
 10
242.5370898081967
 20
182.3066337058834
 30
0.0
  0
SPLINE
  5
19C
330
1F
100
AcDbEntity
  8
1
100
AcDbSpline
210
0.0
220
0.0
230
1.0
 70
     8
 71
     2
 72
     6
 73
     3
 74
     0
 42
0.000000001
 43
0.0000000001
 40
0.0
 40
0.0
 40
0.0
 40
1.0
 40
1.0
 40
1.0
 10
242.5370864681588
 20
166.3812357185681
 30
0.0
 10
242.3798644384959
 20
166.3757110930165
 30
0.0
 10
242.2203596498453
 20
166.3588178625838
 30
0.0
  0
SPLINE
  5
19D
330
1F
100
AcDbEntity
  8
1
100
AcDbSpline
210
0.0
220
0.0
230
1.0
 70
    24
 71
     1
 72
     4
 73
     2
 74
     0
 42
0.000000001
 43
0.0000000001
 40
0.0
 40
0.0
 40
1.0
 40
1.0
 10
250.6686436800944
 20
163.9456277480492
 30
0.0
 10
250.741060367102
 20
164.0180489404283
 30
0.0
  0
SPLINE
  5
19E
330
1F
100
AcDbEntity
  8
1
100
AcDbSpline
210
0.0
220
0.0
230
1.0
 70
     8
 71
     3
 72
    18
 73
    14
 74
     0
 42
0.000000001
 43
0.0000000001
 40
0.0
 40
0.0
 40
0.0
 40
0.0
 40
0.2499999999999993
 40
0.2499999999999993
 40
0.3749999999999994
 40
0.3749999999999994
 40
0.4999999999999997
 40
0.4999999999999997
 40
0.6249999999999997
 40
0.6249999999999997
 40
0.7499999999999999
 40
0.7499999999999999
 40
1.0
 40
1.0
 40
1.0
 40
1.0
 10
243.4347055683956
 20
164.1909311513074
 30
0.0
 10
242.6258208539371
 20
163.8577424841601
 30
0.0
 10
241.8046983798906
 20
163.5841538456133
 30
0.0
 10
240.5608160781655
 20
163.2427438552379
 30
0.0
 10
240.1413129622298
 20
163.1401837504637
 30
0.0
 10
239.3128414765537
 20
162.9616786637836
 30
0.0
 10
238.9051506303267
 20
162.8858161004904
 30
0.0
 10
238.1021875797329
 20
162.7599864387437
 30
0.0
 10
237.7069182788234
 20
162.7100278492289
 30
0.0
 10
236.9283767200311
 20
162.6372288964858
 30
0.0
 10
236.5437507511399
 20
162.6145095890493
 30
0.0
 10
235.4329990987078
 20
162.5914810513853
 30
0.0
 10
234.7414154588573
 20
162.6344715509147
 30
0.0
 10
234.0929899686511
 20
162.7451275755274
 30
0.0
  0
SPLINE
  5
19F
330
1F
100
AcDbEntity
  8
1
100
AcDbSpline
210
0.0
220
0.0
230
1.0
 70
     8
 71
     3
 72
    18
 73
    14
 74
     0
 42
0.000000001
 43
0.0000000001
 40
0.0
 40
0.0
 40
0.0
 40
0.0
 40
0.2804165271062691
 40
0.2804165271062691
 40
0.5608330542125385
 40
0.5608330542125385
 40
0.7010413177656727
 40
0.7010413177656727
 40
0.8412495813188069
 40
0.8412495813188069
 40
0.9814578448719403
 40
0.9814578448719403
 40
1.0
 40
1.0
 40
1.0
 40
1.0
 10
242.9237904958028
 20
182.1885091785359
 30
0.0
 10
242.9630042315004
 20
182.0988912472283
 30
0.0
 10
243.0073582675408
 20
182.0045268217769
 30
0.0
 10
243.1113832644961
 20
181.8017484053754
 30
0.0
 10
243.1705878323475
 20
181.693947933314
 30
0.0
 10
243.279103589511
 20
181.5144929498834
 30
0.0
 10
243.3186049857131
 20
181.451674946932
 30
0.0
 10
243.4080385612065
 20
181.3166046998346
 30
0.0
 10
243.4581326937185
 20
181.2440713264111
 30
0.0
 10
243.5741044670121
 20
181.0862155385821
 30
0.0
 10
243.6408390589497
 20
180.9995337693642
 30
0.0
 10
243.7325438215315
 20
180.8897781216114
 30
0.0
 10
243.7435527581358
 20
180.8767292195136
 30
0.0
 10
243.7548391565423
 20
180.863489532606
 30
0.0
  0
SPLINE
  5
1A0
330
1F
100
AcDbEntity
  8
1
100
AcDbSpline
210
0.0
220
0.0
230
1.0
 70
     8
 71
     2
 72
    11
 73
     8
 74
     0
 42
0.000000001
 43
0.0000000001
 40
0.0
 40
0.0
 40
0.0
 40
0.1588981559636087
 40
0.4392654373090725
 40
0.4392654373090725
 40
0.7196327186545362
 40
0.7196327186545362
 40
1.0
 40
1.0
 40
1.0
 10
250.3235019416891
 20
170.0285776990524
 30
0.0
 10
250.1598929860044
 20
169.9060981066152
 30
0.0
 10
249.6193678860295
 20
169.5877939678205
 30
0.0
 10
249.1957961582071
 20
169.4219254484108
 30
0.0
 10
248.7700472653048
 20
169.2552043623056
 30
0.0
 10
248.2960982379376
 20
169.1385551131592
 30
0.0
 10
247.8201475361236
 20
169.0214132080356
 30
0.0
 10
247.3258509841126
 20
168.9618987125457
 30
0.0
  0
SPLINE
  5
1A1
330
1F
100
AcDbEntity
  8
1
100
AcDbSpline
210
0.0
220
0.0
230
1.0
 70
     8
 71
     3
 72
    28
 73
    24
 74
     0
 42
0.000000001
 43
0.0000000001
 40
0.0
 40
0.0
 40
0.0
 40
0.0
 40
0.0247054544635717
 40
0.0494383119399998
 40
0.0742167915650883
 40
0.0990590120376423
 40
0.1239829529833227
 40
0.1490064178126226
 40
0.1741469984352581
 40
0.1994220421487185
 40
0.2248486209684273
 40
0.2504435036128332
 40
0.3727551867012385
 40
0.499651399459146
 40
0.5506880034087872
 40
0.6027051606747433
 40
0.655777330741258
 40
0.7099746221068863
 40
0.7653628681309418
 40
0.822003746678558
 40
0.8799549332316418
 40
0.9392702781520142
 40
1.0
 40
1.0
 40
1.0
 40
1.0
 10
232.0067163659884
 20
162.5602604536828
 30
0.0
 10
232.0577834244015
 20
162.501254112942
 30
0.0
 10
232.159974184236
 20
162.3831759822893
 30
0.0
 10
232.3208562897584
 20
162.21465592091
 30
0.0
 10
232.4875399591351
 20
162.0522882767095
 30
0.0
 10
232.6607171568204
 20
161.8966275439496
 30
0.0
 10
232.8404033585172
 20
161.7474315558826
 30
0.0
 10
233.0267989441971
 20
161.6046661443296
 30
0.0
 10
233.2200580892205
 20
161.468235067786
 30
0.0
 10
233.4203460779834
 20
161.3380512162993
 30
0.0
 10
233.6278392134506
 20
161.2140218929181
 30
0.0
 10
234.1126788556356
 20
160.9477355854002
 30
0.0
 10
234.9437501783347
 20
160.5954361359422
 30
0.0
 10
235.9558018809643
 20
160.3242052205904
 30
0.0
 10
236.7797179948562
 20
160.1666328632359
 30
0.0
 10
237.3573559491957
 20
160.0773236884459
 30
0.0
 10
237.964211433526
 20
160.0025995402971
 30
0.0
 10
238.6007135512934
 20
159.9412598423856
 30
0.0
 10
239.2671393003358
 20
159.892044401383
 30
0.0
 10
239.9635433979348
 20
159.8535746095631
 30
0.0
 10
240.6900550158734
 20
159.8245281121139
 30
0.0
 10
241.4455949511841
 20
159.8029819966006
 30
0.0
 10
241.9641134215368
 20
159.7937421548149
 30
0.0
 10
242.2264272618742
 20
159.7890678017851
 30
0.0
  0
SPLINE
  5
1A2
330
1F
100
AcDbEntity
  8
1
100
AcDbSpline
210
0.0
220
0.0
230
1.0
 70
     8
 71
     3
 72
    10
 73
     6
 74
     0
 42
0.000000001
 43
0.0000000001
 40
0.0
 40
0.0
 40
0.0
 40
0.0
 40
0.5
 40
0.5
 40
1.0
 40
1.0
 40
1.0
 40
1.0
 10
243.3034815862331
 20
181.1870320477546
 30
0.0
 10
243.2257585465841
 20
181.1985001530066
 30
0.0
 10
243.151123667464
 20
181.2224228865333
 30
0.0
 10
243.0060585786846
 20
181.296511522233
 30
0.0
 10
242.9363475743808
 20
181.3473199360609
 30
0.0
 10
242.8764294744565
 20
181.4069680558943
 30
0.0
  0
SPLINE
  5
1A3
330
1F
100
AcDbEntity
  8
1
100
AcDbSpline
210
0.0
220
0.0
230
1.0
 70
     8
 71
     3
 72
    18
 73
    14
 74
     0
 42
0.000000001
 43
0.0000000001
 40
0.0
 40
0.0
 40
0.0
 40
0.0
 40
0.055895254220654
 40
0.1100894265925394
 40
0.1625990965504056
 40
0.2134425052223474
 40
0.2626397610335667
 40
0.3102130737498764
 40
0.4819665969874204
 40
0.6527237398455183
 40
0.760869442212417
 40
0.8765529425550743
 40
1.0
 40
1.0
 40
1.0
 40
1.0
 10
242.6084319117538
 20
182.2787379166659
 30
0.0
 10
242.5929706276918
 20
182.2554959175194
 30
0.0
 10
242.5625185987941
 20
182.2097192519585
 30
0.0
 10
242.5270856529742
 20
182.136334225584
 30
0.0
 10
242.4998892413931
 20
182.0622398707133
 30
0.0
 10
242.4811791172476
 20
181.9880163557305
 30
0.0
 10
242.4703258611583
 20
181.9146734942966
 30
0.0
 10
242.4636528485187
 20
181.7799607924712
 30
0.0
 10
242.4983260548145
 20
181.5823042327181
 30
0.0
 10
242.6152017525339
 20
181.3822148878026
 30
0.0
 10
242.7603571262123
 20
181.246029538562
 30
0.0
 10
242.911254610271
 20
181.1549670578537
 30
0.0
 10
243.0276463896959
 20
181.12627760009
 30
0.0
 10
243.0877316536358
 20
181.1114671585746
 30
0.0
  0
SPLINE
  5
1A4
330
1F
100
AcDbEntity
  8
1
100
AcDbSpline
210
0.0
220
0.0
230
1.0
 70
     8
 71
     3
 72
     8
 73
     4
 74
     0
 42
0.000000001
 43
0.0000000001
 40
0.0
 40
0.0
 40
0.0
 40
0.0
 40
1.0
 40
1.0
 40
1.0
 40
1.0
 10
242.210527264788
 20
186.7142568241944
 30
0.0
 10
242.3124012682387
 20
186.7143436545871
 30
0.0
 10
242.4142743468897
 20
186.7222091279299
 30
0.0
 10
242.5149612228284
 20
186.7377627478357
 30
0.0
  0
SPLINE
  5
1A5
330
1F
100
AcDbEntity
  8
1
100
AcDbSpline
210
0.0
220
0.0
230
1.0
 70
     8
 71
     3
 72
    25
 73
    21
 74
     0
 42
0.000000001
 43
0.0000000001
 40
0.0
 40
0.0
 40
0.0
 40
0.0
 40
0.0279436404183128
 40
0.0558006199171113
 40
0.0835861112145654
 40
0.1113154043176243
 40
0.1390038822682731
 40
0.1666669961280476
 40
0.1943202393990294
 40
0.221979122090346
 40
0.2496591446460562
 40
0.3752489010882529
 40
0.5000949420054802
 40
0.624707134211158
 40
0.749453728118893
 40
0.799125319785524
 40
0.8489230063478167
 40
0.8989401840257942
 40
0.9492690248907011
 40
1.0
 40
1.0
 40
1.0
 40
1.0
 10
242.2105240837485
 20
159.7431730386879
 30
0.0
 10
242.08854808579
 20
159.7451280303194
 30
0.0
 10
241.8449743710126
 20
159.7490319506153
 30
0.0
 10
241.4828159238089
 20
159.756421815629
 30
0.0
 10
241.123825559618
 20
159.76514357269
 30
0.0
 10
240.7681816320711
 20
159.7754868606293
 30
0.0
 10
240.4158371142109
 20
159.7876311796833
 30
0.0
 10
240.066804437343
 20
159.8018036551391
 30
0.0
 10
239.7210828361709
 20
159.8182367993142
 30
0.0
 10
239.3786649849643
 20
159.8371794049043
 30
0.0
 10
238.6400066530026
 20
159.8844830181955
 30
0.0
 10
237.5384797893299
 20
159.9851161325841
 30
0.0
 10
236.151444556827
 20
160.209615673043
 30
0.0
 10
234.8817498472694
 20
160.5496719028702
 30
0.0
 10
233.9722796541974
 20
160.9361421315017
 30
0.0
 10
233.3509696011795
 20
161.2943496314749
 30
0.0
 10
232.9598669600715
 20
161.5600890342531
 30
0.0
 10
232.5915642177354
 20
161.8555966769444
 30
0.0
 10
232.2437840897416
 20
162.1797223485517
 30
0.0
 10
232.0322369459454
 20
162.4213887016101
 30
0.0
 10
231.9260424829642
 20
162.5427026939578
 30
0.0
  0
SPLINE
  5
1A6
330
1F
100
AcDbEntity
  8
1
100
AcDbSpline
210
0.0
220
0.0
230
1.0
 70
     8
 71
     3
 72
     8
 73
     4
 74
     0
 42
0.000000001
 43
0.0000000001
 40
0.0
 40
0.0
 40
0.0
 40
0.0
 40
1.0
 40
1.0
 40
1.0
 40
1.0
 10
242.6898515059709
 20
181.7238387390634
 30
0.0
 10
242.723825082696
 20
181.6040811080154
 30
0.0
 10
242.7889774563581
 20
181.4940260310606
 30
0.0
 10
242.8764294744565
 20
181.4069680558943
 30
0.0
  0
SPLINE
  5
1A7
330
1F
100
AcDbEntity
  8
1
100
AcDbSpline
210
0.0
220
0.0
230
1.0
 70
     8
 71
     3
 72
    10
 73
     6
 74
     0
 42
0.000000001
 43
0.0000000001
 40
0.0
 40
0.0
 40
0.0
 40
0.0
 40
0.5
 40
0.5
 40
1.0
 40
1.0
 40
1.0
 40
1.0
 10
246.1519169686898
 20
174.7119739542208
 30
0.0
 10
245.9768712632521
 20
174.6864780165112
 30
0.0
 10
245.8042551599118
 20
174.6737631310255
 30
0.0
 10
245.4639550236303
 20
174.6742787810813
 30
0.0
 10
245.3021380155665
 20
174.6876981207606
 30
0.0
 10
245.1519169686874
 20
174.7134826618903
 30
0.0
  0
SPLINE
  5
1A8
330
1F
100
AcDbEntity
  8
1
100
AcDbSpline
210
0.0
220
0.0
230
1.0
 70
     8
 71
     3
 72
     8
 73
     4
 74
     0
 42
0.000000001
 43
0.0000000001
 40
0.0
 40
0.0
 40
0.0
 40
0.0
 40
1.0
 40
1.0
 40
1.0
 40
1.0
 10
246.1792953714558
 20
158.0631552289419
 30
0.0
 10
246.1701692372005
 20
158.0631565169926
 30
0.0
 10
246.1610431029451
 20
158.0631578052748
 30
0.0
 10
246.1519169686898
 20
158.0631590937883
 30
0.0
  0
SPLINE
  5
1A9
330
1F
100
AcDbEntity
  8
1
100
AcDbSpline
210
0.0
220
0.0
230
1.0
 70
     8
 71
     3
 72
    14
 73
    10
 74
     0
 42
0.000000001
 43
0.0000000001
 40
0.0
 40
0.0
 40
0.0
 40
0.0
 40
0.25
 40
0.25
 40
0.5
 40
0.5
 40
0.75
 40
0.75
 40
1.0
 40
1.0
 40
1.0
 40
1.0
 10
245.151916968686
 20
179.8517225904015
 30
0.0
 10
245.2166095982238
 20
179.9194278051156
 30
0.0
 10
245.2861178480502
 20
179.9811563130405
 30
0.0
 10
245.4376367570015
 20
180.0890652963255
 30
0.0
 10
245.5199965719655
 20
180.1350304007575
 30
0.0
 10
245.6917030031289
 20
180.2021345012214
 30
0.0
 10
245.7837875742443
 20
180.2240758528263
 30
0.0
 10
245.9683545143231
 20
180.238741424962
 30
0.0
 10
246.0602941737579
 20
180.2320606853405
 30
0.0
 10
246.1519169686898
 20
180.2120604199253
 30
0.0
  0
SPLINE
  5
1AA
330
1F
100
AcDbEntity
  8
1
100
AcDbSpline
210
0.0
220
0.0
230
1.0
 70
     8
 71
     3
 72
    15
 73
    11
 74
     0
 42
0.000000001
 43
0.0000000001
 40
0.0
 40
0.0
 40
0.0
 40
0.0
 40
0.1394420594698138
 40
0.2746136907203771
 40
0.4055887138484822
 40
0.5324387329003258
 40
0.655234089440091
 40
0.7740449345660171
 40
0.8889424185707467
 40
1.0
 40
1.0
 40
1.0
 40
1.0
 10
243.2105272647881
 20
180.5525051887295
 30
0.0
 10
243.1689874349263
 20
180.5574455783986
 30
0.0
 10
243.0871799370049
 20
180.5671750577666
 30
0.0
 10
242.9595760370496
 20
180.5839666205115
 30
0.0
 10
242.8319066027983
 20
180.6021007786111
 30
0.0
 10
242.7044780535017
 20
180.6216650306886
 30
0.0
 10
242.5781689839426
 20
180.6424886172995
 30
0.0
 10
242.4535890932485
 20
180.6644515719656
 30
0.0
 10
242.3314115996147
 20
180.6872244227069
 30
0.0
 10
242.2503629266942
 20
180.7033538490827
 30
0.0
 10
242.210527264788
 20
180.7112815097427
 30
0.0
  0
SPLINE
  5
1AB
330
1F
100
AcDbEntity
  8
1
100
AcDbSpline
210
0.0
220
0.0
230
1.0
 70
     8
 71
     3
 72
    14
 73
    10
 74
     0
 42
0.000000001
 43
0.0000000001
 40
0.0
 40
0.0
 40
0.0
 40
0.0
 40
0.1389060036937444
 40
0.2790732942179722
 40
0.4205360983374759
 40
0.5633280546761342
 40
0.7074819103746849
 40
0.8530292123786788
 40
1.0
 40
1.0
 40
1.0
 40
1.0
 10
245.1519169686898
 20
168.8788767491075
 30
0.0
 10
245.1945321473162
 20
168.8729604539403
 30
0.0
 10
245.2801494566239
 20
168.8610741427805
 30
0.0
 10
245.4152306926348
 20
168.8495360663293
 30
0.0
 10
245.5551121939201
 20
168.8427272822732
 30
0.0
 10
245.6996093827819
 20
168.8412324524735
 30
0.0
 10
245.8478484082555
 20
168.8451962367355
 30
0.0
 10
245.9990987697054
 20
168.8542840258891
 30
0.0
 10
246.1008125784984
 20
168.864979594802
 30
0.0
 10
246.1519169686898
 20
168.8703534032704
 30
0.0
  0
SPLINE
  5
1AC
330
1F
100
AcDbEntity
  8
1
100
AcDbSpline
210
0.0
220
0.0
230
1.0
 70
     8
 71
     3
 72
    15
 73
    11
 74
     0
 42
0.000000001
 43
0.0000000001
 40
0.0
 40
0.0
 40
0.0
 40
0.0
 40
0.1207759960203391
 40
0.2424396384617995
 40
0.3651600662162856
 40
0.4890999275214529
 40
0.6144138626146477
 40
0.7412471751342358
 40
0.8697347167773742
 40
1.0
 40
1.0
 40
1.0
 40
1.0
 10
246.1519169686898
 20
180.4404958566619
 30
0.0
 10
246.1091926621578
 20
180.4403159317855
 30
0.0
 10
246.0234300456573
 20
180.43995475967
 30
0.0
 10
245.8949376660688
 20
180.4398497530645
 30
0.0
 10
245.7667449553836
 20
180.4399711934724
 30
0.0
 10
245.6394232742336
 20
180.440285994344
 30
0.0
 10
245.5135178425769
 20
180.4407160925602
 30
0.0
 10
245.3897422080315
 20
180.4411951457786
 30
0.0
 10
245.2682118061731
 20
180.441670817177
 30
0.0
 10
245.1908590632276
 20
180.4419174226689
 30
0.0
 10
245.1519169686898
 20
180.442041572557
 30
0.0
  0
SPLINE
  5
1AD
330
1F
100
AcDbEntity
  8
1
100
AcDbSpline
210
0.0
220
0.0
230
1.0
 70
     8
 71
     3
 72
    12
 73
     8
 74
     0
 42
0.000000001
 43
0.0000000001
 40
0.0
 40
0.0
 40
0.0
 40
0.0
 40
0.2086450220701219
 40
0.5012453142512629
 40
0.730404765852151
 40
0.9069623693225391
 40
1.0
 40
1.0
 40
1.0
 40
1.0
 10
251.2759314729515
 20
163.8577137607719
 30
0.0
 10
251.3387755396311
 20
164.0256314684323
 30
0.0
 10
251.4887862575115
 20
164.4319876562709
 30
0.0
 10
251.7054118772046
 20
165.0333696092959
 30
0.0
 10
251.9067548916496
 20
165.6204828512686
 30
0.0
 10
252.0465026071211
 20
166.0480541020071
 30
0.0
 10
252.1151911026706
 20
166.2809176510246
 30
0.0
 10
252.1383339382831
 20
166.3615442622681
 30
0.0
  0
SPLINE
  5
1AE
330
1F
100
AcDbEntity
  8
1
100
AcDbSpline
210
0.0
220
0.0
230
1.0
 70
    24
 71
     1
 72
     4
 73
     2
 74
     0
 42
0.000000001
 43
0.0000000001
 40
0.0
 40
0.0
 40
1.0
 40
1.0
 10
243.7855760376979
 20
169.0417966509314
 30
0.0
 10
243.7549421333535
 20
169.0605084754239
 30
0.0
  0
SPLINE
  5
1AF
330
1F
100
AcDbEntity
  8
1
100
AcDbSpline
210
0.0
220
0.0
230
1.0
 70
     8
 71
     3
 72
    14
 73
    10
 74
     0
 42
0.000000001
 43
0.0000000001
 40
0.0
 40
0.0
 40
0.0
 40
0.0
 40
0.25
 40
0.25
 40
0.5
 40
0.5
 40
0.75
 40
0.75
 40
1.0
 40
1.0
 40
1.0
 40
1.0
 10
225.50571438055
 20
161.7645384948721
 30
0.0
 10
225.50571438055
 20
161.8142118088552
 30
0.0
 10
225.4984874598557
 20
161.8640852221976
 30
0.0
 10
225.4672246071033
 20
161.9638953843851
 30
0.0
 10
225.4430862704326
 20
162.0143594579638
 30
0.0
 10
225.3703785869113
 20
162.111993096595
 30
0.0
 10
225.3220931240386
 20
162.1592253270424
 30
0.0
 10
225.1893560331866
 20
162.2358652904577
 30
0.0
 10
225.1008160605039
 20
162.2645384948721
 30
0.0
 10
225.00571438055
 20
162.2645384948721
 30
0.0
  0
SPLINE
  5
1B0
330
1F
100
AcDbEntity
  8
1
100
AcDbSpline
210
0.0
220
0.0
230
1.0
 70
     8
 71
     3
 72
    26
 73
    22
 74
     0
 42
0.000000001
 43
0.0000000001
 40
0.0
 40
0.0
 40
0.0
 40
0.0
 40
0.028979722661528
 40
0.0576604119244992
 40
0.0860311050110393
 40
0.1140802086500594
 40
0.1417956660084677
 40
0.1691651308791432
 40
0.1961761490842916
 40
0.2228163470793869
 40
0.2490736277788318
 40
0.3745797602211799
 40
0.4982669087313388
 40
0.6233399882895036
 40
0.747855940929706
 40
0.7901080194788753
 40
0.8321730212101902
 40
0.8741165349028873
 40
0.9160133978629772
 40
0.9579456465080346
 40
1.0
 40
1.0
 40
1.0
 40
1.0
 10
250.741060367102
 20
164.0180489404283
 30
0.0
 10
250.770083200971
 20
163.9464288110685
 30
0.0
 10
250.8278293904585
 20
163.8039275798039
 30
0.0
 10
250.9028035987255
 20
163.5878896176743
 30
0.0
 10
250.9686208940228
 20
163.3721134763526
 30
0.0
 10
251.0245146766316
 20
163.1567861978926
 30
0.0
 10
251.0707292238846
 20
162.9424202511215
 30
0.0
 10
251.1072772910199
 20
162.7294255863152
 30
0.0
 10
251.1342671252081
 20
162.518225884991
 30
0.0
 10
251.1518096875682
 20
162.3092015791995
 30
0.0
 10
251.1704967801958
 20
161.8416487469883
 30
0.0
 10
251.105785367127
 20
161.1162496997432
 30
0.0
 10
250.7861065243534
 20
160.1704996919474
 30
0.0
 10
250.2248680069636
 20
159.3199062339752
 30
0.0
 10
249.6007861140564
 20
158.7807436408859
 30
0.0
 10
249.085454669475
 20
158.483842397455
 30
0.0
 10
248.7549175704729
 20
158.333170176656
 30
0.0
 10
248.4096296732771
 20
158.2137203379334
 30
0.0
 10
248.0524911068637
 20
158.1277063682556
 30
0.0
 10
247.6866562824411
 20
158.0731277345164
 30
0.0
 10
247.4396841710738
 20
158.066359937342
 30
0.0
 10
247.3160185838275
 20
158.0629711190365
 30
0.0
  0
SPLINE
  5
1B1
330
1F
100
AcDbEntity
  8
1
100
AcDbSpline
210
0.0
220
0.0
230
1.0
 70
    24
 71
     1
 72
     4
 73
     2
 74
     0
 42
0.000000001
 43
0.0000000001
 40
0.0
 40
0.0
 40
1.0
 40
1.0
 10
242.6076089289302
 20
182.2923677384554
 30
0.0
 10
242.6084324728318
 20
182.2787503099393
 30
0.0
  0
SPLINE
  5
1B2
330
1F
100
AcDbEntity
  8
1
100
AcDbSpline
210
0.0
220
0.0
230
1.0
 70
     8
 71
     3
 72
    12
 73
     8
 74
     0
 42
0.000000001
 43
0.0000000001
 40
0.0
 40
0.0
 40
0.0
 40
0.0
 40
0.1677447931681595
 40
0.462122116083896
 40
0.7259563060247754
 40
0.9050711208874572
 40
1.0
 40
1.0
 40
1.0
 40
1.0
 10
251.1592742575181
 20
164.5299140222302
 30
0.0
 10
251.1591200782447
 20
164.587095705735
 30
0.0
 10
251.1478220231916
 20
164.7456567580575
 30
0.0
 10
251.0833157957712
 20
164.9981032529284
 30
0.0
 10
250.9602384786611
 20
165.2540313902816
 30
0.0
 10
250.8395782328118
 20
165.4378105212155
 30
0.0
 10
250.7664069409303
 20
165.5295302863079
 30
0.0
 10
250.741060367102
 20
165.5613020609705
 30
0.0
  0
SPLINE
  5
1B3
330
1F
100
AcDbEntity
  8
1
100
AcDbSpline
210
0.0
220
0.0
230
1.0
 70
     8
 71
     3
 72
     8
 73
     4
 74
     0
 42
0.000000001
 43
0.0000000001
 40
0.0
 40
0.0
 40
0.0
 40
0.0
 40
1.0
 40
1.0
 40
1.0
 40
1.0
 10
231.9956407349468
 20
162.6049191420868
 30
0.0
 10
231.9993311928059
 20
162.5900321379814
 30
0.0
 10
232.0030219403426
 20
162.5751450370115
 30
0.0
 10
232.0067129774553
 20
162.560257839117
 30
0.0
  0
SPLINE
  5
1B4
330
1F
100
AcDbEntity
  8
1
100
AcDbSpline
210
0.0
220
0.0
230
1.0
 70
     8
 71
     3
 72
    11
 73
     7
 74
     0
 42
0.000000001
 43
0.0000000001
 40
0.0
 40
0.0
 40
0.0
 40
0.0
 40
0.2177675092513477
 40
0.4570233295996931
 40
0.7177674869588286
 40
1.0
 40
1.0
 40
1.0
 40
1.0
 10
230.8619517680553
 20
165.213155134917
 30
0.0
 10
231.6856698333162
 20
165.2963363527303
 30
0.0
 10
233.4143867302086
 20
165.4709067340324
 30
0.0
 10
236.1295587577298
 20
165.7498779860466
 30
0.0
 10
239.0886878561558
 20
166.0577966438495
 30
0.0
 10
241.1428166768965
 20
166.2758266639446
 30
0.0
 10
242.2105272633579
 20
166.3891559538467
 30
0.0
  0
SPLINE
  5
1B5
330
1F
100
AcDbEntity
  8
1
100
AcDbSpline
210
0.0
220
0.0
230
1.0
 70
     8
 71
     3
 72
    13
 73
     9
 74
     0
 42
0.000000001
 43
0.0000000001
 40
0.0
 40
0.0
 40
0.0
 40
0.0
 40
0.1753930452685082
 40
0.3472785298104994
 40
0.5156686112388252
 40
0.6805762203888929
 40
0.8420151250480468
 40
1.0
 40
1.0
 40
1.0
 40
1.0
 10
231.9260390752312
 20
162.5427016253406
 30
0.0
 10
231.8110996284892
 20
162.6180892088691
 30
0.0
 10
231.5835193272253
 20
162.7673567532791
 30
0.0
 10
231.2493112676473
 20
163.0007622527002
 30
0.0
 10
230.9247348346645
 20
163.2377219358256
 30
0.0
 10
230.6101326953005
 20
163.4788416014955
 30
0.0
 10
230.3051027824122
 20
163.7226995735559
 30
0.0
 10
230.106816620316
 20
163.8905534232174
 30
0.0
 10
230.0087456045588
 20
163.9735728198361
 30
0.0
  0
SPLINE
  5
1B6
330
1F
100
AcDbEntity
  8
1
100
AcDbSpline
210
0.0
220
0.0
230
1.0
 70
     8
 71
     2
 72
     6
 73
     3
 74
     0
 42
0.000000001
 43
0.0000000001
 40
0.0
 40
0.0
 40
0.0
 40
1.0
 40
1.0
 40
1.0
 10
250.2076627535344
 20
165.1273292200265
 30
0.0
 10
250.1008582202557
 20
165.3642722007189
 30
0.0
 10
249.9999198613512
 20
165.591690169606
 30
0.0
  0
SPLINE
  5
1B7
330
1F
100
AcDbEntity
  8
1
100
AcDbSpline
210
0.0
220
0.0
230
1.0
 70
     8
 71
     3
 72
     8
 73
     4
 74
     0
 42
0.000000001
 43
0.0000000001
 40
0.0
 40
0.0
 40
0.0
 40
0.0
 40
1.0
 40
1.0
 40
1.0
 40
1.0
 10
232.0067178800058
 20
185.674835756728
 30
0.0
 10
231.9798297853576
 20
185.6868018433378
 30
0.0
 10
231.9529366856556
 20
185.6988122747351
 30
0.0
 10
231.9260388607873
 20
185.7108663768937
 30
0.0
  0
SPLINE
  5
1B8
330
1F
100
AcDbEntity
  8
1
100
AcDbSpline
210
0.0
220
0.0
230
1.0
 70
     8
 71
     3
 72
     8
 73
     4
 74
     0
 42
0.000000001
 43
0.0000000001
 40
0.0
 40
0.0
 40
0.0
 40
0.0
 40
1.0
 40
1.0
 40
1.0
 40
1.0
 10
247.3160185838273
 20
158.0629711190365
 30
0.0
 10
246.9371108463702
 20
158.0630319545738
 30
0.0
 10
246.5582031089132
 20
158.0630933245444
 30
0.0
 10
246.1792953714562
 20
158.0631552289419
 30
0.0
  0
SPLINE
  5
1B9
330
1F
100
AcDbEntity
  8
1
100
AcDbSpline
210
0.0
220
0.0
230
1.0
 70
     8
 71
     3
 72
     9
 73
     5
 74
     0
 42
0.000000001
 43
0.0000000001
 40
0.0
 40
0.0
 40
0.0
 40
0.0
 40
0.4890896536923894
 40
1.0
 40
1.0
 40
1.0
 40
1.0
 10
250.2859169617232
 20
165.1653847411667
 30
0.0
 10
250.3574734762448
 20
164.9775018956511
 30
0.0
 10
250.503778992997
 20
164.5933538277106
 30
0.0
 10
250.6608242966345
 20
164.2125867698316
 30
0.0
 10
250.741060367102
 20
164.0180489404283
 30
0.0
  0
SPLINE
  5
1BA
330
1F
100
AcDbEntity
  8
1
100
AcDbSpline
210
0.0
220
0.0
230
1.0
 70
    24
 71
     1
 72
     4
 73
     2
 74
     0
 42
0.000000001
 43
0.0000000001
 40
0.0
 40
0.0
 40
1.0
 40
1.0
 10
246.1788522128159
 20
158.1066740998237
 30
0.0
 10
247.315575425187
 20
158.1064909709353
 30
0.0
  0
SPLINE
  5
1BB
330
1F
100
AcDbEntity
  8
1
100
AcDbSpline
210
0.0
220
0.0
230
1.0
 70
     8
 71
     3
 72
    11
 73
     7
 74
     0
 42
0.000000001
 43
0.0000000001
 40
0.0
 40
0.0
 40
0.0
 40
0.0
 40
0.1747141419155711
 40
0.3473850829277982
 40
0.67710712879898
 40
1.0
 40
1.0
 40
1.0
 40
1.0
 10
245.1519169686898
 20
158.3278139433415
 30
0.0
 10
245.0369489710862
 20
158.3936082406534
 30
0.0
 10
244.8083574733191
 20
158.524427401468
 30
0.0
 10
244.3661502916834
 20
158.7790837108868
 30
0.0
 10
243.831317133384
 20
159.0892313669478
 30
0.0
 10
243.4160085797433
 20
159.3351341346128
 30
0.0
 10
243.2105272647881
 20
159.4567989151909
 30
0.0
  0
SPLINE
  5
1BC
330
1F
100
AcDbEntity
  8
1
100
AcDbSpline
210
0.0
220
0.0
230
1.0
 70
    24
 71
     3
 72
    16
 73
    12
 74
     0
 42
0.000000001
 43
0.0000000001
 40
0.0
 40
0.0
 40
0.0
 40
0.0
 40
0.25
 40
0.25
 40
0.5
 40
0.5
 40
0.625
 40
0.625
 40
0.75
 40
0.75
 40
1.0
 40
1.0
 40
1.0
 40
1.0
 10
222.5057143805499
 20
162.2645384948721
 30
0.0
 10
222.5555288518205
 20
162.2645384948721
 30
0.0
 10
222.6216359760434
 20
162.2645384948721
 30
0.0
 10
222.7863051755508
 20
162.2645384948722
 30
0.0
 10
222.8860295120067
 20
162.2645384948721
 30
0.0
 10
223.0670591295635
 20
162.2645384948721
 30
0.0
 10
223.1321760800897
 20
162.2645384948721
 30
0.0
 10
223.2744272872867
 20
162.2645384948721
 30
0.0
 10
223.3522522341762
 20
162.2645384948721
 30
0.0
 10
223.6002416868561
 20
162.2645384948721
 30
0.0
 10
223.7917838498489
 20
162.2645384948721
 30
0.0
 10
223.9889540779692
 20
162.2645384948721
 30
0.0
  0
SPLINE
  5
1BD
330
1F
100
AcDbEntity
  8
1
100
AcDbSpline
210
0.0
220
0.0
230
1.0
 70
    24
 71
     1
 72
     4
 73
     2
 74
     0
 42
0.000000001
 43
0.0000000001
 40
0.0
 40
0.0
 40
1.0
 40
1.0
 10
251.1502916926557
 20
180.2505390563396
 30
0.0
 10
251.0720927932327
 20
180.325416952414
 30
0.0
  0
SPLINE
  5
1BE
330
1F
100
AcDbEntity
  8
1
100
AcDbSpline
210
0.0
220
0.0
230
1.0
 70
     8
 71
     3
 72
    13
 73
     9
 74
     0
 42
0.000000001
 43
0.0000000001
 40
0.0
 40
0.0
 40
0.0
 40
0.0
 40
0.1243364641583634
 40
0.2489098181367158
 40
0.374297708619465
 40
0.5010666480578672
 40
0.7490322356418864
 40
1.0
 40
1.0
 40
1.0
 40
1.0
 10
242.2264270055232
 20
180.745420556968
 30
0.0
 10
242.2725566821443
 20
180.7367261376919
 30
0.0
 10
242.3649039231259
 20
180.719320734253
 30
0.0
 10
242.5019795302038
 20
180.6956772205385
 30
0.0
 10
242.6378442842221
 20
180.6737836471691
 30
0.0
 10
242.8142842628632
 20
180.647568151589
 30
0.0
 10
243.0283233558006
 20
180.6192898303642
 30
0.0
 10
243.184100672822
 20
180.6031293840211
 30
0.0
 10
243.2624580021895
 20
180.5950005406117
 30
0.0
  0
SPLINE
  5
1BF
330
1F
100
AcDbEntity
  8
1
100
AcDbSpline
210
0.0
220
0.0
230
1.0
 70
     8
 71
     3
 72
    10
 73
     6
 74
     0
 42
0.000000001
 43
0.0000000001
 40
0.0
 40
0.0
 40
0.0
 40
0.0
 40
0.5
 40
0.5
 40
1.0
 40
1.0
 40
1.0
 40
1.0
 10
246.1519169686898
 20
180.2120604199253
 30
0.0
 10
246.3870585089511
 20
180.1607315642747
 30
0.0
 10
246.6033054607999
 20
180.0695337700579
 30
0.0
 10
246.9985019930258
 20
179.8219270202832
 30
0.0
 10
247.1684971754047
 20
179.6712670286911
 30
0.0
 10
247.3160185838277
 20
179.4975153325784
 30
0.0
  0
SPLINE
  5
1C0
330
1F
100
AcDbEntity
  8
1
100
AcDbSpline
210
0.0
220
0.0
230
1.0
 70
     8
 71
     3
 72
     8
 73
     4
 74
     0
 42
0.000000001
 43
0.0000000001
 40
0.0
 40
0.0
 40
0.0
 40
0.0
 40
1.0
 40
1.0
 40
1.0
 40
1.0
 10
247.9704442926669
 20
177.7843279090619
 30
0.0
 10
248.0510769699983
 20
176.9070838267994
 30
0.0
 10
248.1390024398499
 20
176.005922902746
 30
0.0
 10
248.234730281594
 20
175.0791739623559
 30
0.0
  0
SPLINE
  5
1C1
330
1F
100
AcDbEntity
  8
1
100
AcDbSpline
210
0.0
220
0.0
230
1.0
 70
    24
 71
     1
 72
     4
 73
     2
 74
     0
 42
0.000000001
 43
0.0000000001
 40
0.0
 40
0.0
 40
1.0
 40
1.0
 10
242.2264270055232
 20
180.745420556968
 30
0.0
 10
242.210527264788
 20
180.7112815097427
 30
0.0
  0
SPLINE
  5
1C2
330
1F
100
AcDbEntity
  8
1
100
AcDbSpline
210
0.0
220
0.0
230
1.0
 70
    24
 71
     1
 72
     4
 73
     2
 74
     0
 42
0.000000001
 43
0.0000000001
 40
0.0
 40
0.0
 40
1.0
 40
1.0
 10
243.2624580021894
 20
180.5950005406117
 30
0.0
 10
243.210527264788
 20
180.5525051887295
 30
0.0
  0
SPLINE
  5
1C3
330
1F
100
AcDbEntity
  8
1
100
AcDbSpline
210
0.0
220
0.0
230
1.0
 70
     8
 71
     3
 72
    16
 73
    12
 74
     0
 42
0.000000001
 43
0.0000000001
 40
0.0
 40
0.0
 40
0.0
 40
0.0
 40
0.2499999999999997
 40
0.2499999999999997
 40
0.4999999999999993
 40
0.4999999999999993
 40
0.6250000000000002
 40
0.6250000000000002
 40
0.7500000000000013
 40
0.7500000000000013
 40
1.0
 40
1.0
 40
1.0
 40
1.0
 10
244.0881144618643
 20
176.7156337279536
 30
0.0
 10
244.0629783873706
 20
176.9902258079323
 30
0.0
 10
244.0670076566824
 20
177.2678426206712
 30
0.0
 10
244.132111513619
 20
177.8288125452852
 30
0.0
 10
244.1928899795192
 20
178.1058545454266
 30
0.0
 10
244.3255487520083
 20
178.5097544016173
 30
0.0
 10
244.376802664662
 20
178.6428020756319
 30
0.0
 10
244.4944405033397
 20
178.9056371760639
 30
0.0
 10
244.5610287358963
 20
179.0355141897341
 30
0.0
 10
244.7792651992872
 20
179.4090345282875
 30
0.0
 10
244.9502928902591
 20
179.640709347943
 30
0.0
 10
245.1519169686898
 20
179.8517225903968
 30
0.0
  0
SPLINE
  5
1C4
330
1F
100
AcDbEntity
  8
1
100
AcDbSpline
210
0.0
220
0.0
230
1.0
 70
     8
 71
     3
 72
    12
 73
     8
 74
     0
 42
0.000000001
 43
0.0000000001
 40
0.0
 40
0.0
 40
0.0
 40
0.0
 40
0.2052367522330888
 40
0.4077926859693686
 40
0.6077313061955391
 40
0.805113926893307
 40
1.0
 40
1.0
 40
1.0
 40
1.0
 10
245.1519169686898
 20
180.442041572557
 30
0.0
 10
245.0169044884134
 20
180.4446033180006
 30
0.0
 10
244.7486430714291
 20
180.4496933471688
 30
0.0
 10
244.3523305043921
 20
180.4662024253092
 30
0.0
 10
243.9639899594957
 20
180.4887530261602
 30
0.0
 10
243.5835270785944
 20
180.5170231333452
 30
0.0
 10
243.3343318782883
 20
180.54072812614
 30
0.0
 10
243.210527264788
 20
180.5525051887295
 30
0.0
  0
SPLINE
  5
1C5
330
1F
100
AcDbEntity
  8
1
100
AcDbSpline
210
0.0
220
0.0
230
1.0
 70
     8
 71
     3
 72
    25
 73
    21
 74
     0
 42
0.000000001
 43
0.0000000001
 40
0.0
 40
0.0
 40
0.0
 40
0.0
 40
0.0279436404212503
 40
0.0558006199222496
 40
0.0835861112211687
 40
0.1113154043249581
 40
0.1390038822756048
 40
0.1666669961346481
 40
0.1943202394041749
 40
0.2219791220933182
 40
0.2496591446461453
 40
0.3752489011278444
 40
0.5000949420058537
 40
0.624707134217069
 40
0.7494537281185249
 40
0.7991253197682546
 40
0.8489230063220308
 40
0.8989401840000047
 40
0.9492690248734959
 40
1.0
 40
1.0
 40
1.0
 40
1.0
 10
242.2105240837485
 20
180.7112958312934
 30
0.0
 10
242.0885480857771
 20
180.7355839010543
 30
0.0
 10
241.8449743709773
 20
180.7840847165866
 30
0.0
 10
241.4828159237446
 20
180.8651757019604
 30
0.0
 10
241.1238255595345
 20
180.9520909150789
 30
0.0
 10
240.7681816319778
 20
181.045324984433
 30
0.0
 10
240.4158371141176
 20
181.1445887635623
 30
0.0
 10
240.0668044372592
 20
181.249788454306
 30
0.0
 10
239.7210828361063
 20
181.3607601118708
 30
0.0
 10
239.3786649849282
 20
181.4773524432713
 30
0.0
 10
238.6400066528362
 20
181.7431285133518
 30
0.0
 10
237.5384797891477
 20
182.1995826517241
 30
0.0
 10
236.1514445566586
 20
182.896269203419
 30
0.0
 10
234.8817498473455
 20
183.6376100225555
 30
0.0
 10
233.9722796542495
 20
184.2364548277088
 30
0.0
 10
233.3509696012584
 20
184.6692312524193
 30
0.0
 10
232.9598669602069
 20
184.9491029294724
 30
0.0
 10
232.5915642178718
 20
185.2180782081516
 30
0.0
 10
232.2437840898279
 20
185.4754608365741
 30
0.0
 10
232.0322369459802
 20
185.6321885556614
 30
0.0
 10
231.9260424829642
 20
185.7108642383744
 30
0.0
  0
SPLINE
  5
1C6
330
1F
100
AcDbEntity
  8
1
100
AcDbSpline
210
0.0
220
0.0
230
1.0
 70
     8
 71
     3
 72
    13
 73
     9
 74
     0
 42
0.000000001
 43
0.0000000001
 40
0.0
 40
0.0
 40
0.0
 40
0.0
 40
0.1263284250133249
 40
0.2515768130047978
 40
0.3763932929715793
 40
0.5014327100977
 40
0.7527446150255734
 40
1.0
 40
1.0
 40
1.0
 40
1.0
 10
245.196038218381
 20
180.4886595574727
 30
0.0
 10
245.2319807383996
 20
180.4882250622707
 30
0.0
 10
245.3035584900946
 20
180.4873597865566
 30
0.0
 10
245.4165359426042
 20
180.4860375515097
 30
0.0
 10
245.5327964726292
 20
180.4848048408543
 30
0.0
 10
245.6927463181346
 20
180.4834014690511
 30
0.0
 10
245.8989498422802
 20
180.4822043070792
 30
0.0
 10
246.0678375395703
 20
180.4825173499506
 30
0.0
 10
246.1515943231714
 20
180.4826725978725
 30
0.0
  0
SPLINE
  5
1C7
330
1F
100
AcDbEntity
  8
1
100
AcDbSpline
210
0.0
220
0.0
230
1.0
 70
    24
 71
     1
 72
     4
 73
     2
 74
     0
 42
0.000000001
 43
0.0000000001
 40
0.0
 40
0.0
 40
1.0
 40
1.0
 10
245.1519169686898
 20
180.442041572557
 30
0.0
 10
245.196038218381
 20
180.4886595574727
 30
0.0
  0
SPLINE
  5
1C8
330
1F
100
AcDbEntity
  8
1
100
AcDbSpline
210
0.0
220
0.0
230
1.0
 70
     8
 71
     3
 72
    10
 73
     6
 74
     0
 42
0.000000001
 43
0.0000000001
 40
0.0
 40
0.0
 40
0.0
 40
0.0
 40
0.5
 40
0.5
 40
1.0
 40
1.0
 40
1.0
 40
1.0
 10
247.3160185838277
 20
179.4975153325784
 30
0.0
 10
247.5181560658143
 20
179.2594364617311
 30
0.0
 10
247.6623295085999
 20
178.9864773090276
 30
0.0
 10
247.8769839537467
 20
178.399052481701
 30
0.0
 10
247.9419486328023
 20
178.0943467477479
 30
0.0
 10
247.9704442926669
 20
177.7843279090619
 30
0.0
  0
SPLINE
  5
1C9
330
1F
100
AcDbEntity
  8
1
100
AcDbSpline
210
0.0
220
0.0
230
1.0
 70
     8
 71
     3
 72
     8
 73
     4
 74
     0
 42
0.000000001
 43
0.0000000001
 40
0.0
 40
0.0
 40
0.0
 40
0.0
 40
1.0
 40
1.0
 40
1.0
 40
1.0
 10
242.8058400023652
 20
168.1444583357159
 30
0.0
 10
242.7812723623464
 20
168.1693590091643
 30
0.0
 10
242.7565946339809
 20
168.1941596255818
 30
0.0
 10
242.7318079959214
 20
168.2188612562216
 30
0.0
  0
SPLINE
  5
1CA
330
1F
100
AcDbEntity
  8
1
100
AcDbSpline
210
0.0
220
0.0
230
1.0
 70
    24
 71
     3
 72
    16
 73
    12
 74
     0
 42
0.000000001
 43
0.0000000001
 40
0.0
 40
0.0
 40
0.0
 40
0.0
 40
0.125
 40
0.125
 40
0.25
 40
0.25
 40
0.5
 40
0.5
 40
0.75
 40
0.75
 40
1.0
 40
1.0
 40
1.0
 40
1.0
 10
223.9889540779692
 20
184.1645384948721
 30
0.0
 10
223.891725854088
 20
184.1645384948721
 30
0.0
 10
223.7927238969176
 20
184.1645384948721
 30
0.0
 10
223.6062251042214
 20
184.1645384948721
 30
0.0
 10
223.516204971526
 20
184.1645384948721
 30
0.0
 10
223.2679703038199
 20
184.1645384948721
 30
0.0
 10
223.1254336931654
 20
184.1645384948721
 30
0.0
 10
222.885648811413
 20
184.1645384948721
 30
0.0
 10
222.7854209932928
 20
184.1645384948721
 30
0.0
 10
222.6201511090675
 20
184.1645384948721
 30
0.0
 10
222.5553450338963
 20
184.1645384948721
 30
0.0
 10
222.50571438055
 20
184.1645384948721
 30
0.0
  0
SPLINE
  5
1CB
330
1F
100
AcDbEntity
  8
1
100
AcDbSpline
210
0.0
220
0.0
230
1.0
 70
     8
 71
     3
 72
    17
 73
    13
 74
     0
 42
0.000000001
 43
0.0000000001
 40
0.0
 40
0.0
 40
0.0
 40
0.0
 40
0.114392552309936
 40
0.2895360045570972
 40
0.4666419626035827
 40
0.64295901794807
 40
0.7027887980775216
 40
0.7623536737332265
 40
0.821746519925875
 40
0.8810733077632313
 40
0.9404502024375936
 40
1.0
 40
1.0
 40
1.0
 40
1.0
 10
251.1511211899756
 20
180.249683871463
 30
0.0
 10
251.1383455321358
 20
180.2625825941113
 30
0.0
 10
251.0675865370741
 20
180.294831128425
 30
0.0
 10
250.786106524362
 20
180.342618713351
 30
0.0
 10
250.2248680069881
 20
180.3896125264793
 30
0.0
 10
249.6007861141174
 20
180.4176448729189
 30
0.0
 10
249.0854546695497
 20
180.4318386375621
 30
0.0
 10
248.7549175706044
 20
180.4385361370598
 30
0.0
 10
248.4096296734317
 20
180.4434487984954
 30
0.0
 10
248.0524911070029
 20
180.4465277973384
 30
0.0
 10
247.6866562825246
 20
180.447918345652
 30
0.0
 10
247.439684171106
 20
180.4471410648553
 30
0.0
 10
247.3160185838275
 20
180.4467518594278
 30
0.0
  0
SPLINE
  5
1CC
330
1F
100
AcDbEntity
  8
1
100
AcDbSpline
210
0.0
220
0.0
230
1.0
 70
     8
 71
     3
 72
     8
 73
     4
 74
     0
 42
0.000000001
 43
0.0000000001
 40
0.0
 40
0.0
 40
0.0
 40
0.0
 40
1.0
 40
1.0
 40
1.0
 40
1.0
 10
248.2347302815919
 20
175.0791739623608
 30
0.0
 10
247.9382813581975
 20
174.9946198408213
 30
0.0
 10
247.632303359382
 20
174.9284155667028
 30
0.0
 10
247.3160185838281
 20
174.8820587355094
 30
0.0
  0
SPLINE
  5
1CD
330
1F
100
AcDbEntity
  8
1
100
AcDbSpline
210
0.0
220
0.0
230
1.0
 70
     8
 71
     3
 72
    30
 73
    26
 74
     0
 42
0.000000001
 43
0.0000000001
 40
0.0
 40
0.0
 40
0.0
 40
0.0
 40
0.0321765303523112
 40
0.0643902171207419
 40
0.0966435903612642
 40
0.1289389680384045
 40
0.1612784366240726
 40
0.1936638340105367
 40
0.2260967349356376
 40
0.2585784390822789
 40
0.2911099619766938
 40
0.3236920287715612
 40
0.3563250709615318
 40
0.3890092260408001
 40
0.4217443400755553
 40
0.4545299731290199
 40
0.4873654074438404
 40
0.5202496582561573
 40
0.5531814870880214
 40
0.5861594173403563
 40
0.6191817519872688
 40
0.6522465931546112
 40
0.8096307448452368
 40
0.9769444895853895
 40
1.0
 40
1.0
 40
1.0
 40
1.0
 10
247.3160185838275
 20
169.0106668353849
 30
0.0
 10
247.3822274641947
 20
169.0189636227254
 30
0.0
 10
247.5147216808018
 20
169.0355667782679
 30
0.0
 10
247.7127292091895
 20
169.0664437337014
 30
0.0
 10
247.9096662921818
 20
169.1016236974773
 30
0.0
 10
248.1049860087591
 20
169.1414562752205
 30
0.0
 10
248.2981741873458
 20
169.1857273028265
 30
0.0
 10
248.4887152108757
 20
169.2343563208682
 30
0.0
 10
248.676102932656
 20
169.2872099558904
 30
0.0
 10
248.8598394541553
 20
169.3441527340237
 30
0.0
 10
249.0394371301527
 20
169.4050342222832
 30
0.0
 10
249.2144196711339
 20
169.4696933408036
 30
0.0
 10
249.3843234480809
 20
169.5379581353535
 30
0.0
 10
249.5486986972915
 20
169.6096468332859
 30
0.0
 10
249.7071107078552
 20
169.6845686275078
 30
0.0
 10
249.8591409454692
 20
169.7625245555936
 30
0.0
 10
250.0043881971614
 20
169.8433085443424
 30
0.0
 10
250.1424694270498
 20
169.9267079475213
 30
0.0
 10
250.2730214838257
 20
170.0125061784854
 30
0.0
 10
250.3956993827031
 20
170.1004776596954
 30
0.0
 10
250.5101871463455
 20
170.1904116458255
 30
0.0
 10
250.7489372939604
 20
170.3968151727022
 30
0.0
 10
251.0395708042956
 20
170.7432298061167
 30
0.0
 10
251.1530570649013
 20
171.0827989912404
 30
0.0
 10
251.1593326144017
 20
171.2632483391821
 30
0.0
 10
251.1592758281752
 20
171.2850103961635
 30
0.0
  0
SPLINE
  5
1CE
330
1F
100
AcDbEntity
  8
1
100
AcDbSpline
210
0.0
220
0.0
230
1.0
 70
     8
 71
     3
 72
     8
 73
     4
 74
     0
 42
0.000000001
 43
0.0000000001
 40
0.0
 40
0.0
 40
0.0
 40
0.0
 40
1.0
 40
1.0
 40
1.0
 40
1.0
 10
242.8058400023652
 20
168.1444583357159
 30
0.0
 10
242.7400640202355
 20
167.545835755385
 30
0.0
 10
242.6745375240003
 20
166.9694579664618
 30
0.0
 10
242.6092569159733
 20
166.4150041901596
 30
0.0
  0
SPLINE
  5
1CF
330
1F
100
AcDbEntity
  8
1
100
AcDbSpline
210
0.0
220
0.0
230
1.0
 70
     8
 71
     3
 72
    28
 73
    24
 74
     0
 42
0.000000001
 43
0.0000000001
 40
0.0
 40
0.0
 40
0.0
 40
0.0
 40
0.024705454464675
 40
0.0494383119419591
 40
0.074216791567655
 40
0.0990590120405684
 40
0.1239829529863612
 40
0.1490064178155285
 40
0.1741469984377869
 40
0.1994220421506311
 40
0.2248486209694857
 40
0.250443503612802
 40
0.3727551866889942
 40
0.4996513994587704
 40
0.5506880034006475
 40
0.6027051606607151
 40
0.6557773307232628
 40
0.7099746220868838
 40
0.7653628681109167
 40
0.8220037466605138
 40
0.8799549332175942
 40
0.9392702781439808
 40
1.0
 40
1.0
 40
1.0
 40
1.0
 10
232.0067163659884
 20
185.6748343072144
 30
0.0
 10
232.0577834244038
 20
185.6373155763668
 30
0.0
 10
232.1599741842423
 20
185.5622364993168
 30
0.0
 10
232.3208562897701
 20
185.4438562862964
 30
0.0
 10
232.4875399591508
 20
185.3214458743984
 30
0.0
 10
232.6607171568385
 20
185.1947669590953
 30
0.0
 10
232.8404033585363
 20
185.0641329886249
 30
0.0
 10
233.0267989442156
 20
184.9297231264918
 30
0.0
 10
233.2200580892367
 20
184.7917663856021
 30
0.0
 10
233.4203460779957
 20
184.650495188021
 30
0.0
 10
233.6278392134572
 20
184.5061479234953
 30
0.0
 10
234.1126788556064
 20
184.1740653668344
 30
0.0
 10
234.9437501783128
 20
183.6316135473594
 30
0.0
 10
235.9558018809013
 20
183.0447578760388
 30
0.0
 10
236.7797179947688
 20
182.6161905106352
 30
0.0
 10
237.3573559490362
 20
182.3355556318114
 30
0.0
 10
237.9642114333153
 20
182.0623868182597
 30
0.0
 10
238.6007135510548
 20
181.7993207929866
 30
0.0
 10
239.2671393000937
 20
181.5492200460233
 30
0.0
 10
239.9635433977147
 20
181.3148449222474
 30
0.0
 10
240.6900550157019
 20
181.0999872025012
 30
0.0
 10
241.4455949510885
 20
180.9050912824724
 30
0.0
 10
241.9641134215021
 20
180.7990604112175
 30
0.0
 10
242.2264272618742
 20
180.7454203450988
 30
0.0
  0
SPLINE
  5
1D0
330
1F
100
AcDbEntity
  8
1
100
AcDbSpline
210
0.0
220
0.0
230
1.0
 70
     8
 71
     3
 72
     8
 73
     4
 74
     0
 42
0.000000001
 43
0.0000000001
 40
0.0
 40
0.0
 40
0.0
 40
0.0
 40
1.0
 40
1.0
 40
1.0
 40
1.0
 10
245.1519169686898
 20
174.7134826618932
 30
0.0
 10
244.8558478150948
 20
174.7643011552182
 30
0.0
 10
244.5600252163837
 20
174.8153358036166
 30
0.0
 10
244.2644850037823
 20
174.8666158634694
 30
0.0
  0
SPLINE
  5
1D1
330
1F
100
AcDbEntity
  8
1
100
AcDbSpline
210
0.0
220
0.0
230
1.0
 70
     8
 71
     3
 72
     8
 73
     4
 74
     0
 42
0.000000001
 43
0.0000000001
 40
0.0
 40
0.0
 40
0.0
 40
0.0
 40
1.0
 40
1.0
 40
1.0
 40
1.0
 10
243.6847060028898
 20
169.100114086782
 30
0.0
 10
244.1737763248231
 20
169.0258543011925
 30
0.0
 10
244.6628466467565
 20
168.9521083792076
 30
0.0
 10
245.1519169686898
 20
168.8788767491075
 30
0.0
  0
SPLINE
  5
1D2
330
1F
100
AcDbEntity
  8
1
100
AcDbSpline
210
0.0
220
0.0
230
1.0
 70
     8
 71
     2
 72
    16
 73
    13
 74
     0
 42
0.000000001
 43
0.0000000001
 40
0.0
 40
0.0
 40
0.0
 40
0.1763278844109145
 40
0.1763278844109145
 40
0.3526557688218291
 40
0.3526557688218291
 40
0.5289836532327437
 40
0.5289836532327437
 40
0.7053115376436582
 40
0.7053115376436582
 40
0.8816394220545726
 40
0.8816394220545726
 40
1.0
 40
1.0
 40
1.0
 10
247.3155754251873
 20
180.488895357135
 30
0.0
 10
247.8629114993829
 20
180.4918589793843
 30
0.0
 10
248.3894240544707
 20
180.4868650493961
 30
0.0
 10
248.9029341243609
 20
180.481994446953
 30
0.0
 10
249.3501461730287
 20
180.4699502121692
 30
0.0
 10
249.7828370890282
 20
180.4582970579292
 30
0.0
 10
250.1234455536296
 20
180.4407030036169
 30
0.0
 10
250.4526387525706
 20
180.4236986023078
 30
0.0
 10
250.6748039519069
 20
180.4020484608461
 30
0.0
 10
250.8877970556855
 20
180.3812921459914
 30
0.0
 10
250.9891027042255
 20
180.3573885781944
 30
0.0
 10
251.0540450044133
 20
180.3420651219232
 30
0.0
 10
251.0715724165372
 20
180.3258752480307
 30
0.0
  0
SPLINE
  5
1D3
330
1F
100
AcDbEntity
  8
1
100
AcDbSpline
210
0.0
220
0.0
230
1.0
 70
     8
 71
     3
 72
    12
 73
     8
 74
     0
 42
0.000000001
 43
0.0000000001
 40
0.0
 40
0.0
 40
0.0
 40
0.0
 40
0.1951175161284263
 40
0.3926605713513584
 40
0.5926451555265662
 40
0.7950866796407579
 40
1.0
 40
1.0
 40
1.0
 40
1.0
 10
243.2624580021894
 20
180.5950005406117
 30
0.0
 10
243.3859276324226
 20
180.5835313752773
 30
0.0
 10
243.6344017649037
 20
180.5604504694596
 30
0.0
 10
244.0136309537737
 20
180.5330610101566
 30
0.0
 10
244.4004732495234
 20
180.511349095711
 30
0.0
 10
244.79492869279
 20
180.495626898007
 30
0.0
 10
245.061795268253
 20
180.4909913802996
 30
0.0
 10
245.196038218381
 20
180.4886595574727
 30
0.0
  0
SPLINE
  5
1D4
330
1F
100
AcDbEntity
  8
1
100
AcDbSpline
210
0.0
220
0.0
230
1.0
 70
     8
 71
     3
 72
     8
 73
     4
 74
     0
 42
0.000000001
 43
0.0000000001
 40
0.0
 40
0.0
 40
0.0
 40
0.0
 40
1.0
 40
1.0
 40
1.0
 40
1.0
 10
243.684706003006
 20
169.1001140867576
 30
0.0
 10
243.5485830897776
 20
169.2331708703713
 30
0.0
 10
243.3817530258688
 20
169.3286822669185
 30
0.0
 10
243.210527264788
 20
169.3677089069558
 30
0.0
  0
SPLINE
  5
1D5
330
1F
100
AcDbEntity
  8
1
100
AcDbSpline
210
0.0
220
0.0
230
1.0
 70
     8
 71
     3
 72
    14
 73
    10
 74
     0
 42
0.000000001
 43
0.0000000001
 40
0.0
 40
0.0
 40
0.0
 40
0.0
 40
0.25
 40
0.25
 40
0.5
 40
0.5
 40
0.75
 40
0.75
 40
1.0
 40
1.0
 40
1.0
 40
1.0
 10
242.7318079959217
 20
168.2188612562211
 30
0.0
 10
242.62486185777
 20
168.3254406154966
 30
0.0
 10
242.5475501689714
 20
168.4549737230001
 30
0.0
 10
242.4794149397675
 20
168.7330524001777
 30
0.0
 10
242.4894974122199
 20
168.8817982051668
 30
0.0
 10
242.5954001724546
 20
169.1414253963386
 30
0.0
 10
242.6936560173477
 20
169.2546641469706
 30
0.0
 10
242.9369008153112
 20
169.3834156787104
 30
0.0
 10
243.0793534203703
 20
169.3976067119129
 30
0.0
 10
243.2105272647881
 20
169.367708906956
 30
0.0
  0
SPLINE
  5
1D6
330
1F
100
AcDbEntity
  8
1
100
AcDbSpline
210
0.0
220
0.0
230
1.0
 70
     8
 71
     3
 72
     8
 73
     4
 74
     0
 42
0.000000001
 43
0.0000000001
 40
0.0
 40
0.0
 40
0.0
 40
0.0
 40
1.0
 40
1.0
 40
1.0
 40
1.0
 10
242.6898515059706
 20
181.7238387390634
 30
0.0
 10
242.6615739131651
 20
181.8138264888377
 30
0.0
 10
242.6509243764802
 20
181.9097609029208
 30
0.0
 10
242.6597820896673
 20
182.0060767152906
 30
0.0
  0
SPLINE
  5
1D7
330
1F
100
AcDbEntity
  8
1
100
AcDbSpline
210
0.0
220
0.0
230
1.0
 70
     8
 71
     3
 72
    15
 73
    11
 74
     0
 42
0.000000001
 43
0.0000000001
 40
0.0
 40
0.0
 40
0.0
 40
0.0
 40
0.1207759960202999
 40
0.2424396384617329
 40
0.3651600662162001
 40
0.4890999275213647
 40
0.6144138626145585
 40
0.7412471751341655
 40
0.8697347167773303
 40
1.0
 40
1.0
 40
1.0
 40
1.0
 10
246.1519169686898
 20
158.0631590937883
 30
0.0
 10
246.1091926621578
 20
158.0639441775641
 30
0.0
 10
246.0234300456573
 20
158.06552011511
 30
0.0
 10
245.8949376660688
 20
158.0782254225434
 30
0.0
 10
245.7667449553837
 20
158.0986234405062
 30
0.0
 10
245.6394232742337
 20
158.1275479002151
 30
0.0
 10
245.513517842577
 20
158.1647928261594
 30
0.0
 10
245.3897422080316
 20
158.2105855384395
 30
0.0
 10
245.2682118061732
 20
158.2642479164288
 30
0.0
 10
245.1908590632276
 20
158.306528439333
 30
0.0
 10
245.1519169686898
 20
158.3278139433415
 30
0.0
  0
SPLINE
  5
1D8
330
1F
100
AcDbEntity
  8
1
100
AcDbSpline
210
0.0
220
0.0
230
1.0
 70
     8
 71
     2
 72
     7
 73
     4
 74
     0
 42
0.000000001
 43
0.0000000001
 40
0.0
 40
0.0
 40
0.0
 40
0.5
 40
1.0
 40
1.0
 40
1.0
 10
246.1617493689748
 20
168.8223329309095
 30
0.0
 10
245.909646787669
 20
168.7921766526674
 30
0.0
 10
245.420278660518
 20
168.7950254926396
 30
0.0
 10
245.2021302465679
 20
168.8280758050845
 30
0.0
  0
SPLINE
  5
1D9
330
1F
100
AcDbEntity
  8
1
100
AcDbSpline
210
0.0
220
0.0
230
1.0
 70
     8
 71
     3
 72
    12
 73
     8
 74
     0
 42
0.000000001
 43
0.0000000001
 40
0.0
 40
0.0
 40
0.0
 40
0.0
 40
0.2500000000000007
 40
0.2500000000000007
 40
0.5000000000000015
 40
0.5000000000000015
 40
1.0
 40
1.0
 40
1.0
 40
1.0
 10
214.00571438055
 20
162.2645384948722
 30
0.0
 10
213.9189044764259
 20
162.2645384948722
 30
0.0
 10
213.836847702913
 20
162.2412131736118
 30
0.0
 10
213.7032688910282
 20
162.1698302786967
 30
0.0
 10
213.6526128678969
 20
162.1239440156725
 30
0.0
 10
213.5368673775224
 20
161.9780672147923
 30
0.0
 10
213.50571438055
 20
161.8698383822463
 30
0.0
 10
213.50571438055
 20
161.7645384948722
 30
0.0
  0
SPLINE
  5
1DA
330
1F
100
AcDbEntity
  8
1
100
AcDbSpline
210
0.0
220
0.0
230
1.0
 70
     8
 71
     3
 72
    10
 73
     6
 74
     0
 42
0.000000001
 43
0.0000000001
 40
0.0
 40
0.0
 40
0.0
 40
0.0
 40
0.5
 40
0.5
 40
1.0
 40
1.0
 40
1.0
 40
1.0
 10
242.6597820896667
 20
182.0060767152906
 30
0.0
 10
242.6641308198226
 20
182.0533633533763
 30
0.0
 10
242.672503966203
 20
182.0993392262577
 30
0.0
 10
242.6966569878607
 20
182.1875701529563
 30
0.0
 10
242.7126442943707
 20
182.2303162303245
 30
0.0
 10
242.7318079959224
 20
182.2702077544021
 30
0.0
  0
SPLINE
  5
1DB
330
1F
100
AcDbEntity
  8
1
100
AcDbSpline
210
0.0
220
0.0
230
1.0
 70
     8
 71
     3
 72
    13
 73
     9
 74
     0
 42
0.000000001
 43
0.0000000001
 40
0.0
 40
0.0
 40
0.0
 40
0.0
 40
0.1243364641751185
 40
0.2489098181590354
 40
0.3742977086362516
 40
0.5010666480582965
 40
0.7490322356654998
 40
1.0
 40
1.0
 40
1.0
 40
1.0
 10
242.2264270055232
 20
159.7890657166121
 30
0.0
 10
242.2725566821505
 20
159.7874042288687
 30
0.0
 10
242.3649039231405
 20
159.7840780878622
 30
0.0
 10
242.5019795302248
 20
159.7673465400666
 30
0.0
 10
242.6378442842374
 20
159.7421026580009
 30
0.0
 10
242.8142842628763
 20
159.696435330916
 30
0.0
 10
243.0283233558062
 20
159.6203643722172
 30
0.0
 10
243.1841006728287
 20
159.5344057375603
 30
0.0
 10
243.2624580021894
 20
159.4911678055176
 30
0.0
  0
SPLINE
  5
1DC
330
1F
100
AcDbEntity
  8
1
100
AcDbSpline
210
0.0
220
0.0
230
1.0
 70
     8
 71
     2
 72
     6
 73
     3
 74
     0
 42
0.000000001
 43
0.0000000001
 40
0.0
 40
0.0
 40
0.0
 40
1.0
 40
1.0
 40
1.0
 10
230.0630863215803
 20
164.0370308340513
 30
0.0
 10
230.9765964458917
 20
163.2582679669341
 30
0.0
 10
231.9956429116606
 20
162.6049200676109
 30
0.0
  0
SPLINE
  5
1DD
330
1F
100
AcDbEntity
  8
1
100
AcDbSpline
210
0.0
220
0.0
230
1.0
 70
     8
 71
     3
 72
    13
 73
     9
 74
     0
 42
0.000000001
 43
0.0000000001
 40
0.0
 40
0.0
 40
0.0
 40
0.0
 40
0.1753930452685378
 40
0.347278529810553
 40
0.5156686112388839
 40
0.6805762203889416
 40
0.8420151250480804
 40
1.0
 40
1.0
 40
1.0
 40
1.0
 10
231.9260390752312
 20
185.7108635781866
 30
0.0
 10
231.8110996284892
 20
185.7560995586745
 30
0.0
 10
231.5835193272252
 20
185.8456668774601
 30
0.0
 10
231.2493112676472
 20
185.9684171307488
 30
0.0
 10
230.9247348346644
 20
186.0812420710753
 30
0.0
 10
230.6101326953003
 20
186.1834910241245
 30
0.0
 10
230.3051027824121
 20
186.2763695970161
 30
0.0
 10
230.106816620316
 20
186.3309769041629
 30
0.0
 10
230.0087456045587
 20
186.3579853147501
 30
0.0
  0
SPLINE
  5
1DE
330
1F
100
AcDbEntity
  8
1
100
AcDbSpline
210
0.0
220
0.0
230
1.0
 70
    24
 71
     1
 72
     4
 73
     2
 74
     0
 42
0.000000001
 43
0.0000000001
 40
0.0
 40
0.0
 40
1.0
 40
1.0
 10
242.6076089289302
 20
166.4085188057047
 30
0.0
 10
242.5370867482227
 20
166.3812356613381
 30
0.0
  0
SPLINE
  5
1DF
330
1F
100
AcDbEntity
  8
1
100
AcDbSpline
210
0.0
220
0.0
230
1.0
 70
     8
 71
     3
 72
     8
 73
     4
 74
     0
 42
0.000000001
 43
0.0000000001
 40
0.0
 40
0.0
 40
0.0
 40
0.0
 40
1.0
 40
1.0
 40
1.0
 40
1.0
 10
242.5149653597715
 20
186.7377633835401
 30
0.0
 10
242.5599907378209
 20
186.7463043038168
 30
0.0
 10
242.6047789292223
 20
186.7326249727158
 30
0.0
 10
242.6492257852956
 20
186.6967015407594
 30
0.0
  0
SPLINE
  5
1E0
330
1F
100
AcDbEntity
  8
1
100
AcDbSpline
210
0.0
220
0.0
230
1.0
 70
    24
 71
     1
 72
     4
 73
     2
 74
     0
 42
0.000000001
 43
0.0000000001
 40
0.0
 40
0.0
 40
1.0
 40
1.0
 10
230.0087456045588
 20
163.9735728198361
 30
0.0
 10
230.0630863215803
 20
164.0370308340513
 30
0.0
  0
SPLINE
  5
1E1
330
1F
100
AcDbEntity
  8
1
100
AcDbSpline
210
0.0
220
0.0
230
1.0
 70
     8
 71
     2
 72
     6
 73
     3
 74
     0
 42
0.000000001
 43
0.0000000001
 40
0.0
 40
0.0
 40
0.0
 40
1.0
 40
1.0
 40
1.0
 10
242.5370869335082
 20
186.6615789248092
 30
0.0
 10
242.3796057911963
 20
186.6372697008957
 30
0.0
 10
242.2203596599857
 20
186.6371343866099
 30
0.0
  0
SPLINE
  5
1E2
330
1F
100
AcDbEntity
  8
1
100
AcDbSpline
210
0.0
220
0.0
230
1.0
 70
    24
 71
     1
 72
     4
 73
     2
 74
     0
 42
0.000000001
 43
0.0000000001
 40
0.0
 40
0.0
 40
1.0
 40
1.0
 10
230.8619517680553
 20
186.631752794441
 30
0.0
 10
230.8717841683403
 20
186.5551226347072
 30
0.0
  0
SPLINE
  5
1E3
330
1F
100
AcDbEntity
  8
1
100
AcDbSpline
210
0.0
220
0.0
230
1.0
 70
     8
 71
     3
 72
     8
 73
     4
 74
     0
 42
0.000000001
 43
0.0000000001
 40
0.0
 40
0.0
 40
0.0
 40
0.0
 40
1.0
 40
1.0
 40
1.0
 40
1.0
 10
250.2076627535338
 20
165.1273292200279
 30
0.0
 10
250.2337474721
 20
165.1400278743752
 30
0.0
 10
250.2598322641769
 20
165.1527281746494
 30
0.0
 10
250.2859171294849
 20
165.1654301159613
 30
0.0
  0
SPLINE
  5
1E4
330
1F
100
AcDbEntity
  8
1
100
AcDbSpline
210
0.0
220
0.0
230
1.0
 70
     8
 71
     3
 72
    18
 73
    14
 74
     0
 42
0.000000001
 43
0.0000000001
 40
0.0
 40
0.0
 40
0.0
 40
0.0
 40
0.0710212737461672
 40
0.1370833359546215
 40
0.1982077806332407
 40
0.2544219713411264
 40
0.3057612049243804
 40
0.466889159866957
 40
0.6073512093011306
 40
0.7575131740134102
 40
0.9040221276577094
 40
0.9965392774990636
 40
1.0
 40
1.0
 40
1.0
 40
1.0
 10
230.8717841683406
 20
186.5551226347072
 30
0.0
 10
230.8298993732938
 20
186.5560208209405
 30
0.0
 10
230.7490544781245
 20
186.5577544756424
 30
0.0
 10
230.6340778822184
 20
186.5588469379137
 30
0.0
 10
230.5296558703756
 20
186.5590572816534
 30
0.0
 10
230.4358866260298
 20
186.5584069419511
 30
0.0
 10
230.2908363188831
 20
186.5557600344456
 30
0.0
 10
230.1131178787997
 20
186.5466433737606
 30
0.0
 10
229.9302684383804
 20
186.5250232938648
 30
0.0
 10
229.8221751407625
 20
186.4891604628666
 30
0.0
 10
229.8141165789417
 20
186.4452542253495
 30
0.0
 10
229.8515732424791
 20
186.4149439320527
 30
0.0
 10
229.8715237488418
 20
186.4028882507647
 30
0.0
 10
229.8722497727275
 20
186.4024534877845
 30
0.0
  0
SPLINE
  5
1E5
330
1F
100
AcDbEntity
  8
1
100
AcDbSpline
210
0.0
220
0.0
230
1.0
 70
     8
 71
     3
 72
    19
 73
    15
 74
     0
 42
0.000000001
 43
0.0000000001
 40
0.0
 40
0.0
 40
0.0
 40
0.0
 40
0.0589793387171653
 40
0.1138403196293532
 40
0.1646008753958543
 40
0.2112837299771938
 40
0.2539181955010151
 40
0.3877262748279687
 40
0.5043724338384973
 40
0.6290738494997803
 40
0.750741636449046
 40
0.8275721412935014
 40
0.9102367309103215
 40
1.0
 40
1.0
 40
1.0
 40
1.0
 10
230.8717841683406
 20
165.1898540645341
 30
0.0
 10
230.8298993732938
 20
165.1842214865707
 30
0.0
 10
230.7490544781246
 20
165.1733496373837
 30
0.0
 10
230.6340778822185
 20
165.1490455907889
 30
0.0
 10
230.5296558703756
 20
165.1209873714835
 30
0.0
 10
230.4358866260299
 20
165.0898505171697
 30
0.0
 10
230.2908363188834
 20
165.0326102213436
 30
0.0
 10
230.1131178788006
 20
164.9365418674012
 30
0.0
 10
229.9302684383857
 20
164.7737466821121
 30
0.0
 10
229.8221751407721
 20
164.5831747913855
 30
0.0
 10
229.8141165789411
 20
164.4028155184739
 30
0.0
 10
229.8664148683895
 20
164.2583407206937
 30
0.0
 10
229.9448501356588
 20
164.140514502328
 30
0.0
 10
230.0226071998716
 20
164.0724593111321
 30
0.0
 10
230.0630863215803
 20
164.0370308340513
 30
0.0
  0
SPLINE
  5
1E6
330
1F
100
AcDbEntity
  8
1
100
AcDbSpline
210
0.0
220
0.0
230
1.0
 70
     8
 71
     3
 72
    19
 73
    15
 74
     0
 42
0.000000001
 43
0.0000000001
 40
0.0
 40
0.0
 40
0.0
 40
0.0
 40
0.0424556164438758
 40
0.0841057612285599
 40
0.1252631259479048
 40
0.1888892071276875
 40
0.25036919865928
 40
0.3751028078102393
 40
0.5004098775492309
 40
0.6213271442358737
 40
0.7504299212302218
 40
0.831436663135854
 40
0.9142164814682203
 40
1.0
 40
1.0
 40
1.0
 40
1.0
 10
230.0087456045588
 20
186.3579853147501
 30
0.0
 10
229.988155053391
 20
186.3637058870873
 30
0.0
 10
229.9473645967886
 20
186.3750385005642
 30
0.0
 10
229.8948434787179
 20
186.3927525231949
 30
0.0
 10
229.8414483906128
 20
186.4139210441145
 30
0.0
 10
229.7942264597337
 20
186.43845608347
 30
0.0
 10
229.7515644742635
 20
186.4752533525003
 30
0.0
 10
229.7626177937279
 20
186.5193536093997
 30
0.0
 10
229.8760554131147
 20
186.561780102585
 30
0.0
 10
230.0680651308143
 20
186.5927194843125
 30
0.0
 10
230.2806433560876
 20
186.610883745206
 30
0.0
 10
230.4858657990638
 20
186.6218567257007
 30
0.0
 10
230.6691436274616
 20
186.6284011792695
 30
0.0
 10
230.7969234008836
 20
186.6306223957901
 30
0.0
 10
230.8619517680556
 20
186.631752794441
 30
0.0
  0
SPLINE
  5
1E7
330
1F
100
AcDbEntity
  8
1
100
AcDbSpline
210
0.0
220
0.0
230
1.0
 70
     8
 71
     2
 72
     6
 73
     3
 74
     0
 42
0.000000001
 43
0.0000000001
 40
0.0
 40
0.0
 40
0.0
 40
1.0
 40
1.0
 40
1.0
 10
242.8058403069055
 20
186.5619311282269
 30
0.0
 10
242.7066172260958
 20
186.6771972220494
 30
0.0
 10
242.6076087464779
 20
186.6583384215293
 30
0.0
  0
SPLINE
  5
1E8
330
1F
100
AcDbEntity
  8
1
100
AcDbSpline
210
0.0
220
0.0
230
1.0
 70
     8
 71
     2
 72
    10
 73
     7
 74
     0
 42
0.000000001
 43
0.0000000001
 40
0.0
 40
0.0
 40
0.0
 40
0.25
 40
0.5
 40
0.75
 40
0.75
 40
1.0
 40
1.0
 40
1.0
 10
243.0568669067081
 20
181.0408055062653
 30
0.0
 10
242.8533521637234
 20
181.0832974452453
 30
0.0
 10
242.5365619790879
 20
181.3449458038638
 30
0.0
 10
242.3809847609978
 20
181.7231278288708
 30
0.0
 10
242.4015595570456
 20
181.92893460678
 30
0.0
 10
242.4219334126641
 20
182.1327314059661
 30
0.0
 10
242.5370935755868
 20
182.3066443065768
 30
0.0
  0
SPLINE
  5
1E9
330
1F
100
AcDbEntity
  8
1
100
AcDbSpline
210
0.0
220
0.0
230
1.0
 70
     8
 71
     3
 72
    14
 73
    10
 74
     0
 42
0.000000001
 43
0.0000000001
 40
0.0
 40
0.0
 40
0.0
 40
0.0
 40
0.25
 40
0.25
 40
0.5
 40
0.5
 40
0.75
 40
0.75
 40
1.0
 40
1.0
 40
1.0
 40
1.0
 10
213.50571438055
 20
184.6645384948721
 30
0.0
 10
213.50571438055
 20
184.6121871935532
 30
0.0
 10
213.5138968774386
 20
184.5590341071687
 30
0.0
 10
213.5485193658465
 20
184.4548044949539
 30
0.0
 10
213.5753864688142
 20
184.402459301334
 30
0.0
 10
213.6527001156252
 20
184.3050269595022
 30
0.0
 10
213.7038473909464
 20
184.2589307743976
 30
0.0
 10
213.8363395784275
 20
184.1881421486153
 30
0.0
 10
213.9201400497173
 20
184.1645384948721
 30
0.0
 10
214.00571438055
 20
184.1645384948721
 30
0.0
  0
SPLINE
  5
1EA
330
1F
100
AcDbEntity
  8
1
100
AcDbSpline
210
0.0
220
0.0
230
1.0
 70
    24
 71
     1
 72
     4
 73
     2
 74
     0
 42
0.000000001
 43
0.0000000001
 40
0.0
 40
0.0
 40
1.0
 40
1.0
 10
246.1788522128166
 20
180.482799541434
 30
0.0
 10
247.3155754251877
 20
180.488895357135
 30
0.0
  0
SPLINE
  5
1EB
330
1F
100
AcDbEntity
  8
1
100
AcDbSpline
210
0.0
220
0.0
230
1.0
 70
     8
 71
     3
 72
     8
 73
     4
 74
     0
 42
0.000000001
 43
0.0000000001
 40
0.0
 40
0.0
 40
0.0
 40
0.0
 40
1.0
 40
1.0
 40
1.0
 40
1.0
 10
246.1519169686898
 20
168.8703534032703
 30
0.0
 10
246.5399508404024
 20
168.917057861461
 30
0.0
 10
246.9279847121149
 20
168.9638297312738
 30
0.0
 10
247.3160185838275
 20
169.0106668353849
 30
0.0
  0
SPLINE
  5
1EC
330
1F
100
AcDbEntity
  8
1
100
AcDbSpline
210
0.0
220
0.0
230
1.0
 70
    24
 71
     1
 72
     4
 73
     2
 74
     0
 42
0.000000001
 43
0.0000000001
 40
0.0
 40
0.0
 40
1.0
 40
1.0
 10
250.2089096368574
 20
165.1064666281449
 30
0.0
 10
250.2076627535338
 20
165.1273292200279
 30
0.0
  0
SPLINE
  5
1ED
330
1F
100
AcDbEntity
  8
1
100
AcDbSpline
210
0.0
220
0.0
230
1.0
 70
    24
 71
     1
 72
     4
 73
     2
 74
     0
 42
0.000000001
 43
0.0000000001
 40
0.0
 40
0.0
 40
1.0
 40
1.0
 10
246.1519169686898
 20
168.8703534032703
 30
0.0
 10
246.1617493689748
 20
168.8223329309095
 30
0.0
  0
SPLINE
  5
1EE
330
1F
100
AcDbEntity
  8
1
100
AcDbSpline
210
0.0
220
0.0
230
1.0
 70
     8
 71
     2
 72
     6
 73
     3
 74
     0
 42
0.000000001
 43
0.0000000001
 40
0.0
 40
0.0
 40
0.0
 40
1.0
 40
1.0
 40
1.0
 10
250.6686436800944
 20
163.9456277480492
 30
0.0
 10
250.4148949043378
 20
164.5550763191441
 30
0.0
 10
250.2089095180047
 20
165.1064666021769
 30
0.0
  0
SPLINE
  5
1EF
330
1F
100
AcDbEntity
  8
1
100
AcDbSpline
210
0.0
220
0.0
230
1.0
 70
    24
 71
     1
 72
     4
 73
     2
 74
     0
 42
0.000000001
 43
0.0000000001
 40
0.0
 40
0.0
 40
1.0
 40
1.0
 10
242.2105282017285
 20
159.7431589657758
 30
0.0
 10
242.2264285464152
 20
159.7890546215126
 30
0.0
  0
SPLINE
  5
1F0
330
1F
100
AcDbEntity
  8
1
100
AcDbSpline
210
0.0
220
0.0
230
1.0
 70
     8
 71
     3
 72
    14
 73
    10
 74
     0
 42
0.000000001
 43
0.0000000001
 40
0.0
 40
0.0
 40
0.0
 40
0.0
 40
0.1249999999999975
 40
0.1249999999999975
 40
0.249999999999995
 40
0.249999999999995
 40
0.4999999999999964
 40
0.4999999999999964
 40
1.0
 40
1.0
 40
1.0
 40
1.0
 10
225.00571438055
 20
184.1645384948721
 30
0.0
 10
225.0523933589242
 20
184.1645384948721
 30
0.0
 10
225.099251110199
 20
184.1713698739303
 30
0.0
 10
225.1845431458001
 20
184.1955132490759
 30
0.0
 10
225.2218428931847
 20
184.2120115028706
 30
0.0
 10
225.3222578571022
 20
184.2698625805995
 30
0.0
 10
225.370082298631
 20
184.3168462459642
 30
0.0
 10
225.4786220634828
 20
184.4621185301141
 30
0.0
 10
225.50571438055
 20
184.5650519468249
 30
0.0
 10
225.50571438055
 20
184.6645384948722
 30
0.0
  0
SPLINE
  5
1F1
330
1F
100
AcDbEntity
  8
1
100
AcDbSpline
210
0.0
220
0.0
230
1.0
 70
     8
 71
     3
 72
     8
 73
     4
 74
     0
 42
0.000000001
 43
0.0000000001
 40
0.0
 40
0.0
 40
0.0
 40
0.0
 40
1.0
 40
1.0
 40
1.0
 40
1.0
 10
246.1515943231714
 20
180.4826725978725
 30
0.0
 10
246.1606803168479
 20
180.482708138586
 30
0.0
 10
246.1697662834353
 20
180.482750453104
 30
0.0
 10
246.1788522128155
 20
180.482799541434
 30
0.0
  0
SPLINE
  5
1F2
330
1F
100
AcDbEntity
  8
1
100
AcDbSpline
210
0.0
220
0.0
230
1.0
 70
     8
 71
     3
 72
     8
 73
     4
 74
     0
 42
0.000000001
 43
0.0000000001
 40
0.0
 40
0.0
 40
0.0
 40
0.0
 40
1.0
 40
1.0
 40
1.0
 40
1.0
 10
246.1792953714558
 20
180.4406233885911
 30
0.0
 10
246.1701692372005
 20
180.4405808780584
 30
0.0
 10
246.1610431029451
 20
180.4405383674153
 30
0.0
 10
246.1519169686898
 20
180.4404958566619
 30
0.0
  0
SPLINE
  5
1F3
330
1F
100
AcDbEntity
  8
1
100
AcDbSpline
210
0.0
220
0.0
230
1.0
 70
     8
 71
     2
 72
     6
 73
     3
 74
     0
 42
0.000000001
 43
0.0000000001
 40
0.0
 40
0.0
 40
0.0
 40
1.0
 40
1.0
 40
1.0
 10
252.1641230416876
 20
169.1563736924327
 30
0.0
 10
252.092257830242
 20
169.4095748926815
 30
0.0
 10
252.0084601331719
 20
169.6642748282229
 30
0.0
  0
SPLINE
  5
1F4
330
1F
100
AcDbEntity
  8
1
100
AcDbSpline
210
0.0
220
0.0
230
1.0
 70
     8
 71
     3
 72
    11
 73
     7
 74
     0
 42
0.000000001
 43
0.0000000001
 40
0.0
 40
0.0
 40
0.0
 40
0.0
 40
0.118588059234928
 40
0.3860059467611913
 40
0.7274458775801921
 40
1.0
 40
1.0
 40
1.0
 40
1.0
 10
252.0084601331719
 20
169.6642748282229
 30
0.0
 10
251.9815682968292
 20
169.7495211522661
 30
0.0
 10
251.892998983531
 20
170.0263003909901
 30
0.0
 10
251.7166440466717
 20
170.5436635691381
 30
0.0
 10
251.4993341399035
 20
171.1622056913666
 30
0.0
 10
251.3459400684214
 20
171.5881275595853
 30
0.0
 10
251.2774131747718
 20
171.7761564542121
 30
0.0
  0
SPLINE
  5
1F5
330
1F
100
AcDbEntity
  8
1
100
AcDbSpline
210
0.0
220
0.0
230
1.0
 70
     8
 71
     3
 72
    10
 73
     6
 74
     0
 42
0.000000001
 43
0.0000000001
 40
0.0
 40
0.0
 40
0.0
 40
0.0
 40
0.5373397090275551
 40
0.5373397090275551
 40
1.0
 40
1.0
 40
1.0
 40
1.0
 10
246.4916871340087
 20
185.0293237922657
 30
0.0
 10
246.4982100440498
 20
185.0221150262094
 30
0.0
 10
246.506066717198
 20
185.0160540374543
 30
0.0
 10
246.5220645168568
 20
185.0078570092129
 30
0.0
 10
246.5301872170643
 20
185.0052090073804
 30
0.0
 10
246.5385187977928
 20
185.0039429925381
 30
0.0
  0
SPLINE
  5
1F6
330
1F
100
AcDbEntity
  8
1
100
AcDbSpline
210
0.0
220
0.0
230
1.0
 70
     8
 71
     3
 72
    14
 73
    10
 74
     0
 42
0.000000001
 43
0.0000000001
 40
0.0
 40
0.0
 40
0.0
 40
0.0
 40
0.3040655795356315
 40
0.3040655795356315
 40
0.6107538131668998
 40
0.6107538131668998
 40
0.908132810757684
 40
0.908132810757684
 40
1.0
 40
1.0
 40
1.0
 40
1.0
 10
247.7026050084766
 20
185.3491457005134
 30
0.0
 10
247.7056033849451
 20
185.3589000982473
 30
0.0
 10
247.7069296587686
 20
185.3692604136971
 30
0.0
 10
247.7059510578819
 20
185.3896015207912
 30
0.0
 10
247.7035946135893
 20
185.3998718127806
 30
0.0
 10
247.6955123428903
 20
185.4183798941685
 30
0.0
 10
247.689763536356
 20
185.4269387656527
 30
0.0
 10
247.6804743407993
 20
185.4363300526506
 30
0.0
 10
247.6781170820882
 20
185.438450478126
 30
0.0
 10
247.6756413176977
 20
185.4404262942072
 30
0.0
  0
SPLINE
  5
1F7
330
1F
100
AcDbEntity
  8
1
100
AcDbSpline
210
0.0
220
0.0
230
1.0
 70
     8
 71
     3
 72
    14
 73
    10
 74
     0
 42
0.000000001
 43
0.0000000001
 40
0.0
 40
0.0
 40
0.0
 40
0.0
 40
0.2764527118368676
 40
0.2764527118368676
 40
0.5540765605364263
 40
0.5540765605364263
 40
0.8433732362105825
 40
0.8433732362105825
 40
1.0
 40
1.0
 40
1.0
 40
1.0
 10
248.6546183769897
 20
183.7283919057039
 30
0.0
 10
248.6532514556334
 20
183.73776424245
 30
0.0
 10
248.650200286644
 20
183.7469653196275
 30
0.0
 10
248.6413773453157
 20
183.7635752825194
 30
0.0
 10
248.6354811674728
 20
183.771202134123
 30
0.0
 10
248.621488095072
 20
183.7842566014844
 30
0.0
 10
248.6131270378231
 20
183.789755972147
 30
0.0
 10
248.5993363728654
 20
183.7958934762316
 30
0.0
 10
248.5942487682897
 20
183.7976359093026
 30
0.0
 10
248.5890584163803
 20
183.7989166080823
 30
0.0
  0
SPLINE
  5
1F8
330
1F
100
AcDbEntity
  8
1
100
AcDbSpline
210
0.0
220
0.0
230
1.0
 70
     8
 71
     3
 72
    10
 73
     6
 74
     0
 42
0.000000001
 43
0.0000000001
 40
0.0
 40
0.0
 40
0.0
 40
0.0
 40
0.5275641435890668
 40
0.5275641435890668
 40
1.0
 40
1.0
 40
1.0
 40
1.0
 10
248.5413131521336
 20
183.8290186561866
 30
0.0
 10
248.5476469585603
 20
183.8211867434621
 30
0.0
 10
248.5554599210025
 20
183.8144354126102
 30
0.0
 10
248.5717647704288
 20
183.8045932446276
 30
0.0
 10
248.5802817273496
 20
183.8010822213445
 30
0.0
 10
248.5890584163803
 20
183.7989166080823
 30
0.0
  0
SPLINE
  5
1F9
330
1F
100
AcDbEntity
  8
1
100
AcDbSpline
210
0.0
220
0.0
230
1.0
 70
    24
 71
     1
 72
     4
 73
     2
 74
     0
 42
0.000000001
 43
0.0000000001
 40
0.0
 40
0.0
 40
1.0
 40
1.0
 10
243.2624580021895
 20
159.4911678055176
 30
0.0
 10
243.2105272647881
 20
159.4567989151909
 30
0.0
  0
SPLINE
  5
1FA
330
1F
100
AcDbEntity
  8
1
100
AcDbSpline
210
0.0
220
0.0
230
1.0
 70
     8
 71
     3
 72
     8
 73
     4
 74
     0
 42
0.000000001
 43
0.0000000001
 40
0.0
 40
0.0
 40
0.0
 40
0.0
 40
1.0
 40
1.0
 40
1.0
 40
1.0
 10
247.3160185838279
 20
180.4467518594278
 30
0.0
 10
246.9371108463709
 20
180.4447092908416
 30
0.0
 10
246.5582031089139
 20
180.4426664671573
 30
0.0
 10
246.1792953714568
 20
180.4406233885911
 30
0.0
  0
SPLINE
  5
1FB
330
1F
100
AcDbEntity
  8
1
100
AcDbSpline
210
0.0
220
0.0
230
1.0
 70
     8
 71
     3
 72
    10
 73
     6
 74
     0
 42
0.000000001
 43
0.0000000001
 40
0.0
 40
0.0
 40
0.0
 40
0.0
 40
0.0450191117574676
 40
0.0450191117574676
 40
1.0
 40
1.0
 40
1.0
 40
1.0
 10
242.8040342193794
 20
186.4392589150519
 30
0.0
 10
242.8096067155967
 20
186.4400723512519
 30
0.0
 10
242.8152300597415
 20
186.4409474570639
 30
0.0
 10
242.9412185744037
 20
186.4617982208001
 30
0.0
 10
243.0813703857438
 20
186.5119217279315
 30
0.0
 10
243.2105272647881
 20
186.5864791902366
 30
0.0
  0
SPLINE
  5
1FC
330
1F
100
AcDbEntity
  8
1
100
AcDbSpline
210
0.0
220
0.0
230
1.0
 70
     8
 71
     3
 72
    10
 73
     6
 74
     0
 42
0.000000001
 43
0.0000000001
 40
0.0
 40
0.0
 40
0.0
 40
0.0
 40
0.4596130251571088
 40
0.4596130251571088
 40
1.0
 40
1.0
 40
1.0
 40
1.0
 10
248.581020353196
 20
184.4494693200291
 30
0.0
 10
248.5739236515977
 20
184.4468375850785
 30
0.0
 10
248.5671115970469
 20
184.4433187994253
 30
0.0
 10
248.5535533575985
 20
184.4339896079936
 30
0.0
 10
248.5468702345043
 20
184.4277707558608
 30
0.0
 10
248.5413131521335
 20
184.4207337181045
 30
0.0
  0
SPLINE
  5
1FD
330
1F
100
AcDbEntity
  8
1
100
AcDbSpline
210
0.0
220
0.0
230
1.0
 70
     8
 71
     3
 72
    14
 73
    10
 74
     0
 42
0.000000001
 43
0.0000000001
 40
0.0
 40
0.0
 40
0.0
 40
0.0
 40
0.2418455903036875
 40
0.2418455903036875
 40
0.5759546312740361
 40
0.5759546312740361
 40
0.8999220684260762
 40
0.8999220684260762
 40
1.0
 40
1.0
 40
1.0
 40
1.0
 10
248.5970575509856
 20
184.4545880524915
 30
0.0
 10
248.6041784058982
 20
184.4572252045311
 30
0.0
 10
248.6110132177617
 20
184.4607553611061
 30
0.0
 10
248.625864058658
 20
184.4709805132835
 30
0.0
 10
248.6335830686168
 20
184.4785465873528
 30
0.0
 10
248.6455505773303
 20
184.4954848547288
 30
0.0
 10
248.6500660937692
 20
184.5050500547094
 30
0.0
 10
248.6535112683728
 20
184.518116689474
 30
0.0
 10
248.6541575523864
 20
184.5212910633743
 30
0.0
 10
248.6546183769897
 20
184.5244898703044
 30
0.0
  0
SPLINE
  5
1FE
330
1F
100
AcDbEntity
  8
1
100
AcDbSpline
210
0.0
220
0.0
230
1.0
 70
     8
 71
     3
 72
    14
 73
    10
 74
     0
 42
0.000000001
 43
0.0000000001
 40
0.0
 40
0.0
 40
0.0
 40
0.0
 40
0.2759548436939029
 40
0.2759548436939029
 40
0.5535523911871846
 40
0.5535523911871846
 40
0.842818882912906
 40
0.842818882912906
 40
1.0
 40
1.0
 40
1.0
 40
1.0
 10
247.6756413176977
 20
182.8233498141608
 30
0.0
 10
247.682971765093
 20
182.8289872956377
 30
0.0
 10
247.689297056241
 20
182.835936181801
 30
0.0
 10
247.6990369994574
 20
182.8512370801051
 30
0.0
 10
247.7025698319281
 20
182.859799305813
 30
0.0
 10
247.7066216260503
 20
182.8776867714638
 30
0.0
 10
247.7070671086256
 20
182.8872653786273
 30
0.0
 10
247.705280989985
 20
182.9016662652773
 30
0.0
 10
247.7041690941655
 20
182.9067384975502
 30
0.0
 10
247.7026050084766
 20
182.9116714703191
 30
0.0
  0
SPLINE
  5
1FF
330
1F
100
AcDbEntity
  8
1
100
AcDbSpline
210
0.0
220
0.0
230
1.0
 70
     8
 71
     3
 72
    10
 73
     6
 74
     0
 42
0.000000001
 43
0.0000000001
 40
0.0
 40
0.0
 40
0.0
 40
0.0
 40
0.5281910294147043
 40
0.5281910294147043
 40
1.0
 40
1.0
 40
1.0
 40
1.0
 10
247.703997523049
 20
182.9657546225771
 30
0.0
 10
247.7005126421851
 20
182.9567100860195
 30
0.0
 10
247.6987174780949
 20
182.9469648292694
 30
0.0
 10
247.6986254825625
 20
182.92870830886
 30
0.0
 10
247.6999729218189
 20
182.9199728133336
 30
0.0
 10
247.7026050084766
 20
182.9116714703191
 30
0.0
  0
SPLINE
  5
200
330
1F
100
AcDbEntity
  8
1
100
AcDbSpline
210
0.0
220
0.0
230
1.0
 70
     8
 71
     3
 72
    10
 73
     6
 74
     0
 42
0.000000001
 43
0.0000000001
 40
0.0
 40
0.0
 40
0.0
 40
0.0
 40
0.5386513471140897
 40
0.5386513471140897
 40
1.0
 40
1.0
 40
1.0
 40
1.0
 10
247.7026050084766
 20
185.3491457005134
 30
0.0
 10
247.6996097469794
 20
185.3394014364868
 30
0.0
 10
247.6982824290236
 20
185.3290531911055
 30
0.0
 10
247.699183911397
 20
185.3102318702153
 30
0.0
 10
247.7009435696076
 20
185.3015031498146
 30
0.0
 10
247.703997523049
 20
185.2933156357918
 30
0.0
  0
SPLINE
  5
201
330
1F
100
AcDbEntity
  8
1
100
AcDbSpline
210
0.0
220
0.0
230
1.0
 70
     8
 71
     3
 72
     8
 73
     4
 74
     0
 42
0.000000001
 43
0.0000000001
 40
0.0
 40
0.0
 40
0.0
 40
0.0
 40
1.0
 40
1.0
 40
1.0
 40
1.0
 10
250.0818854495311
 20
165.6230141382654
 30
0.0
 10
250.1497226527093
 20
165.4703948428231
 30
0.0
 10
250.2178203734998
 20
165.3178892123447
 30
0.0
 10
250.2859180942903
 20
165.165383581866
 30
0.0
  0
SPLINE
  5
202
330
1F
100
AcDbEntity
  8
1
100
AcDbSpline
210
0.0
220
0.0
230
1.0
 70
    24
 71
     1
 72
     4
 73
     2
 74
     0
 42
0.000000001
 43
0.0000000001
 40
0.0
 40
0.0
 40
1.0
 40
1.0
 10
250.6508087777646
 20
170.3128106059175
 30
0.0
 10
250.7201848020478
 20
170.3837536925398
 30
0.0
  0
SPLINE
  5
203
330
1F
100
AcDbEntity
  8
1
100
AcDbSpline
210
0.0
220
0.0
230
1.0
 70
     8
 71
     3
 72
     8
 73
     4
 74
     0
 42
0.000000001
 43
0.0000000001
 40
0.0
 40
0.0
 40
0.0
 40
0.0
 40
1.0
 40
1.0
 40
1.0
 40
1.0
 10
250.741060367102
 20
165.5613020609705
 30
0.0
 10
250.6776092722488
 20
165.6381913993848
 30
0.0
 10
250.6141581773957
 20
165.715080737799
 30
0.0
 10
250.550799346238
 20
165.7919907839781
 30
0.0
  0
SPLINE
  5
204
330
1F
100
AcDbEntity
  8
1
100
AcDbSpline
210
0.0
220
0.0
230
1.0
 70
     8
 71
     3
 72
    11
 73
     7
 74
     0
 42
0.000000001
 43
0.0000000001
 40
0.0
 40
0.0
 40
0.0
 40
0.0
 40
0.217767509246976
 40
0.4570233295938645
 40
0.7177674869544573
 40
1.0
 40
1.0
 40
1.0
 40
1.0
 10
230.8619517680553
 20
186.631752794441
 30
0.0
 10
231.6856698333749
 20
186.6424454768772
 30
0.0
 10
233.4143867304029
 20
186.6648859472035
 30
0.0
 10
236.1295587581554
 20
186.6897245001771
 30
0.0
 10
239.0886878568679
 20
186.7085497187463
 30
0.0
 10
241.1428166778182
 20
186.7123049179653
 30
0.0
 10
242.2105272643935
 20
186.7142568237661
 30
0.0
  0
SPLINE
  5
205
330
1F
100
AcDbEntity
  8
1
100
AcDbSpline
210
0.0
220
0.0
230
1.0
 70
     8
 71
     3
 72
    19
 73
    15
 74
     0
 42
0.000000001
 43
0.0000000001
 40
0.0
 40
0.0
 40
0.0
 40
0.0
 40
0.0424556164367968
 40
0.0841057612215045
 40
0.125263125947786
 40
0.1888892071215766
 40
0.2503691986593858
 40
0.3751028078103756
 40
0.5004098775493985
 40
0.6213271442371897
 40
0.7504299212300488
 40
0.8314366631331838
 40
0.9142164814655725
 40
1.0
 40
1.0
 40
1.0
 40
1.0
 10
230.0087456045588
 20
163.9735728198361
 30
0.0
 10
229.9881550533946
 20
163.991987238654
 30
0.0
 10
229.9473645967959
 20
164.0284667163324
 30
0.0
 10
229.8948434787266
 20
164.0876965742399
 30
0.0
 10
229.8414483906162
 20
164.1607192583563
 30
0.0
 10
229.7942264597309
 20
164.2492395849551
 30
0.0
 10
229.7515644742658
 20
164.3899840481794
 30
0.0
 10
229.7626177937274
 20
164.5760017608466
 30
0.0
 10
229.876055413114
 20
164.7829465377591
 30
0.0
 10
230.0680651308191
 20
164.9554898488041
 30
0.0
 10
230.2806433560869
 20
165.0693146211408
 30
0.0
 10
230.4858657990596
 20
165.1428576717603
 30
0.0
 10
230.6691436274576
 20
165.1888192351454
 30
0.0
 10
230.7969234008816
 20
165.2049473703436
 30
0.0
 10
230.8619517680556
 20
165.213155134917
 30
0.0
  0
MTEXT
  5
206
330
1F
100
AcDbEntity
  8
SK6
100
AcDbMText
 10
180.414412
 20
136.8312949999999
 30
0.0
 40
3.5
 41
0.0
 71
     7
 72
     5
  1
\W0.7500;\H5.25;125E3R165M16-ISRC10-C\H3.50;
  7
cesky
 73
     2
 44
0.8433729999999998
1001
ACAD
1000
MTEXTBEGIN
1070
    73
1070
     2
1070
    44
1040
0.8433729999999998
1070
    74
1070
     0
1000
MTEXTEND
  0
LINE
  5
208
330
1F
100
AcDbEntity
  8
SK4
100
AcDbLine
 10
183.505714
 20
173.2145379999999
 30
0.0
 11
214.505714
 21
173.2145379999999
 31
0.0
  0
LINE
  5
209
330
1F
100
AcDbEntity
  8
4
100
AcDbLine
 10
207.505714
 20
173.2145379999999
 30
0.0
 11
254.15927
 21
173.2145379999999
 31
0.0
  0
LINE
  5
20B
330
1F
100
AcDbEntity
  8
2
 60
     1
100
AcDbLine
 10
252.505716
 20
201.736196
 30
0.0
 11
250.005717
 21
201.295378
 31
0.0
  0
LINE
  5
20C
330
1F
100
AcDbEntity
  8
2
 60
     1
100
AcDbLine
 10
250.005717
 20
201.295378
 30
0.0
 11
250.005714
 21
202.177013
 31
0.0
  0
LINE
  5
20D
330
1F
100
AcDbEntity
  8
2
 60
     1
100
AcDbLine
 10
250.005714
 20
202.177013
 30
0.0
 11
252.505716
 21
201.736196
 31
0.0
  0
LINE
  5
20F
330
1F
100
AcDbEntity
  8
2
 60
     1
100
AcDbLine
 10
210.505714
 20
201.736196
 30
0.0
 11
213.005713
 21
202.177013
 31
0.0
  0
LINE
  5
210
330
1F
100
AcDbEntity
  8
2
 60
     1
100
AcDbLine
 10
213.005713
 20
202.177013
 30
0.0
 11
213.005716
 21
201.295378
 31
0.0
  0
LINE
  5
211
330
1F
100
AcDbEntity
  8
2
 60
     1
100
AcDbLine
 10
213.005716
 20
201.295378
 30
0.0
 11
210.505714
 21
201.736196
 31
0.0
  0
LINE
  5
214
330
1F
100
AcDbEntity
  8
2
 60
     1
100
AcDbLine
 10
247.542909
 20
192.897833
 30
0.0
 11
245.042911
 21
192.457016
 31
0.0
  0
LINE
  5
215
330
1F
100
AcDbEntity
  8
2
 60
     1
100
AcDbLine
 10
245.042911
 20
192.457016
 30
0.0
 11
245.042908
 21
193.33865
 31
0.0
  0
LINE
  5
216
330
1F
100
AcDbEntity
  8
2
 60
     1
100
AcDbLine
 10
245.042908
 20
193.33865
 30
0.0
 11
247.542909
 21
192.897833
 31
0.0
  0
LINE
  5
218
330
1F
100
AcDbEntity
  8
2
 60
     1
100
AcDbLine
 10
252.505716
 20
192.897833
 30
0.0
 11
255.005714
 21
193.33865
 31
0.0
  0
LINE
  5
219
330
1F
100
AcDbEntity
  8
2
 60
     1
100
AcDbLine
 10
255.005714
 20
193.33865
 30
0.0
 11
255.005717
 21
192.457016
 31
0.0
  0
LINE
  5
21A
330
1F
100
AcDbEntity
  8
2
 60
     1
100
AcDbLine
 10
255.005717
 20
192.457016
 30
0.0
 11
252.505716
 21
192.897833
 31
0.0
  0
LINE
  5
21E
330
1F
100
AcDbEntity
  8
2
 60
     1
100
AcDbLine
 10
265.302591
 20
189.06458
 30
0.0
 11
265.743409
 21
186.564582
 31
0.0
  0
LINE
  5
21F
330
1F
100
AcDbEntity
  8
2
 60
     1
100
AcDbLine
 10
265.743409
 20
186.564582
 30
0.0
 11
264.861774
 21
186.564578
 31
0.0
  0
LINE
  5
220
330
1F
100
AcDbEntity
  8
2
 60
     1
100
AcDbLine
 10
264.861774
 20
186.564578
 30
0.0
 11
265.302591
 21
189.06458
 31
0.0
  0
LINE
  5
29C
330
1F
100
AcDbEntity
  8
2
100
AcDbLine
 10
265.3016569852919
 20
189.0592825174106
 30
0.0
 11
265.3032451210701
 21
189.0608706531887
 31
0.0
  0
LINE
  5
29D
330
1F
100
AcDbEntity
  8
2
100
AcDbLine
 10
265.2824326066176
 20
188.9502555775256
 30
0.0
 11
265.3167061939318
 21
188.9845291648398
 31
0.0
  0
LINE
  5
29E
330
1F
100
AcDbEntity
  8
2
100
AcDbLine
 10
265.2632082279433
 20
188.8412286376405
 30
0.0
 11
265.3301672667936
 21
188.9081876764909
 31
0.0
  0
LINE
  5
29F
330
1F
100
AcDbEntity
  8
2
100
AcDbLine
 10
265.2439838492689
 20
188.7322016977555
 30
0.0
 11
265.3436283396554
 21
188.831846188142
 31
0.0
  0
LINE
  5
2A0
330
1F
100
AcDbEntity
  8
2
100
AcDbLine
 10
265.2247594705946
 20
188.6231747578705
 30
0.0
 11
265.3570894125172
 21
188.7555046997931
 31
0.0
  0
LINE
  5
2A1
330
1F
100
AcDbEntity
  8
2
100
AcDbLine
 10
265.2055350919202
 20
188.5141478179854
 30
0.0
 11
265.370550485379
 21
188.6791632114442
 31
0.0
  0
LINE
  5
2A2
330
1F
100
AcDbEntity
  8
2
100
AcDbLine
 10
265.1863107132459
 20
188.4051208781004
 30
0.0
 11
265.3840115582408
 21
188.6028217230953
 31
0.0
  0
LINE
  5
2A3
330
1F
100
AcDbEntity
  8
2
100
AcDbLine
 10
265.1670863345716
 20
188.2960939382154
 30
0.0
 11
265.3974726311026
 21
188.5264802347464
 31
0.0
  0
LINE
  5
2A4
330
1F
100
AcDbEntity
  8
2
100
AcDbLine
 10
265.1478619558973
 20
188.1870669983304
 30
0.0
 11
265.4109337039644
 21
188.4501387463975
 31
0.0
  0
LINE
  5
2A5
330
1F
100
AcDbEntity
  8
2
100
AcDbLine
 10
265.128637577223
 20
188.0780400584453
 30
0.0
 11
265.4243947768262
 21
188.3737972580486
 31
0.0
  0
LINE
  5
2A6
330
1F
100
AcDbEntity
  8
2
100
AcDbLine
 10
265.1094131985486
 20
187.9690131185603
 30
0.0
 11
265.4378558496881
 21
188.2974557696998
 31
0.0
  0
LINE
  5
2A7
330
1F
100
AcDbEntity
  8
2
100
AcDbLine
 10
265.0901888198743
 20
187.8599861786753
 30
0.0
 11
265.4513169225499
 21
188.2211142813509
 31
0.0
  0
LINE
  5
2A8
330
1F
100
AcDbEntity
  8
2
100
AcDbLine
 10
265.0709644412
 20
187.7509592387903
 30
0.0
 11
265.4647779954116
 21
188.144772793002
 31
0.0
  0
LINE
  5
2A9
330
1F
100
AcDbEntity
  8
2
100
AcDbLine
 10
265.0517400625256
 20
187.6419322989052
 30
0.0
 11
265.4782390682734
 21
188.0684313046531
 31
0.0
  0
LINE
  5
2AA
330
1F
100
AcDbEntity
  8
2
100
AcDbLine
 10
265.0325156838513
 20
187.5329053590203
 30
0.0
 11
265.4917001411352
 21
187.9920898163042
 31
0.0
  0
LINE
  5
2AB
330
1F
100
AcDbEntity
  8
2
100
AcDbLine
 10
265.0132913051769
 20
187.4238784191352
 30
0.0
 11
265.505161213997
 21
187.9157483279552
 31
0.0
  0
LINE
  5
2AC
330
1F
100
AcDbEntity
  8
2
100
AcDbLine
 10
264.9940669265026
 20
187.3148514792502
 30
0.0
 11
265.5186222868588
 21
187.8394068396064
 31
0.0
  0
LINE
  5
2AD
330
1F
100
AcDbEntity
  8
2
100
AcDbLine
 10
264.9748425478283
 20
187.2058245393652
 30
0.0
 11
265.5320833597206
 21
187.7630653512575
 31
0.0
  0
LINE
  5
2AE
330
1F
100
AcDbEntity
  8
2
100
AcDbLine
 10
264.9556181691539
 20
187.0967975994801
 30
0.0
 11
265.5455444325824
 21
187.6867238629086
 31
0.0
  0
LINE
  5
2AF
330
1F
100
AcDbEntity
  8
2
100
AcDbLine
 10
264.9363937904796
 20
186.9877706595951
 30
0.0
 11
265.5590055054442
 21
187.6103823745597
 31
0.0
  0
LINE
  5
2B0
330
1F
100
AcDbEntity
  8
2
100
AcDbLine
 10
264.9171694118053
 20
186.8787437197101
 30
0.0
 11
265.572466578306
 21
187.5340408862108
 31
0.0
  0
LINE
  5
2B1
330
1F
100
AcDbEntity
  8
2
100
AcDbLine
 10
264.897945033131
 20
186.7697167798251
 30
0.0
 11
265.5859276511677
 21
187.4576993978619
 31
0.0
  0
LINE
  5
2B2
330
1F
100
AcDbEntity
  8
2
100
AcDbLine
 10
264.8787206544566
 20
186.6606898399401
 30
0.0
 11
265.5993887240295
 21
187.381357909513
 31
0.0
  0
LINE
  5
2B3
330
1F
100
AcDbEntity
  8
2
100
AcDbLine
 10
264.8724117641872
 20
186.5645783884599
 30
0.0
 11
265.6128497968913
 21
187.3050164211641
 31
0.0
  0
LINE
  5
2B4
330
1F
100
AcDbEntity
  8
2
100
AcDbLine
 10
264.9622146552623
 20
186.5645787183244
 30
0.0
 11
265.6263108697531
 21
187.2286749328152
 31
0.0
  0
LINE
  5
2B5
330
1F
100
AcDbEntity
  8
2
100
AcDbLine
 10
265.0520175463374
 20
186.5645790481888
 30
0.0
 11
265.639771942615
 21
187.1523334444663
 31
0.0
  0
LINE
  5
2B6
330
1F
100
AcDbEntity
  8
2
100
AcDbLine
 10
265.1418204374125
 20
186.5645793780532
 30
0.0
 11
265.6532330154767
 21
187.0759919561175
 31
0.0
  0
LINE
  5
2B7
330
1F
100
AcDbEntity
  8
2
100
AcDbLine
 10
265.2316233284877
 20
186.5645797079177
 30
0.0
 11
265.6666940883385
 21
186.9996504677685
 31
0.0
  0
LINE
  5
2B8
330
1F
100
AcDbEntity
  8
2
100
AcDbLine
 10
265.3214262195628
 20
186.5645800377821
 30
0.0
 11
265.6801551612003
 21
186.9233089794197
 31
0.0
  0
LINE
  5
2B9
330
1F
100
AcDbEntity
  8
2
100
AcDbLine
 10
265.4112291106379
 20
186.5645803676465
 30
0.0
 11
265.6936162340621
 21
186.8469674910707
 31
0.0
  0
LINE
  5
2BA
330
1F
100
AcDbEntity
  8
2
100
AcDbLine
 10
265.501032001713
 20
186.564580697511
 30
0.0
 11
265.707077306924
 21
186.7706260027219
 31
0.0
  0
LINE
  5
2BB
330
1F
100
AcDbEntity
  8
2
100
AcDbLine
 10
265.5908348927882
 20
186.5645810273754
 30
0.0
 11
265.7205383797858
 21
186.6942845143729
 31
0.0
  0
LINE
  5
2BC
330
1F
100
AcDbEntity
  8
2
100
AcDbLine
 10
265.6806377838633
 20
186.5645813572399
 30
0.0
 11
265.7339994526475
 21
186.617943026024
 31
0.0
  0
TEXT
  5
2BF
330
1F
100
AcDbEntity
  8
2
100
AcDbText
 10
262.8442573333334
 20
171.60852856922
 30
0.0
 40
3.5
  1
31,75
 50
89.99999999999991
 41
0.75
  7
cesky
100
AcDbText
  0
TEXT
  5
2C0
330
1F
100
AcDbEntity
  8
2
100
AcDbText
 10
262.9347753333334
 20
164.6850634174279
 30
0.0
 40
3.5
  1
\U+00D8
 50
89.99999999999991
  7
cesky
100
AcDbText
  0
LINE
  5
2C1
330
1F
100
AcDbEntity
  8
2
100
AcDbLine
 10
252.5235831346696
 20
192.8946824907663
 30
0.0
 11
252.5312329822023
 21
192.902332338299
 31
0.0
  0
LINE
  5
2C2
330
1F
100
AcDbEntity
  8
2
100
AcDbLine
 10
252.5999246378419
 20
192.8812214327279
 30
0.0
 11
252.6402599523212
 21
192.9215567472071
 31
0.0
  0
LINE
  5
2C3
330
1F
100
AcDbEntity
  8
2
100
AcDbLine
 10
252.6762661410141
 20
192.8677603746893
 30
0.0
 11
252.7492869224399
 21
192.9407811561152
 31
0.0
  0
LINE
  5
2C4
330
1F
100
AcDbEntity
  8
2
100
AcDbLine
 10
252.7526076441863
 20
192.8542993166509
 30
0.0
 11
252.8583138925586
 21
192.9600055650232
 31
0.0
  0
LINE
  5
2C5
330
1F
100
AcDbEntity
  8
2
100
AcDbLine
 10
252.8289491473584
 20
192.8408382586124
 30
0.0
 11
252.9673408626774
 21
192.9792299739313
 31
0.0
  0
LINE
  5
2C6
330
1F
100
AcDbEntity
  8
2
100
AcDbLine
 10
252.9052906505307
 20
192.8273772005739
 30
0.0
 11
253.0763678327962
 21
192.9984543828393
 31
0.0
  0
LINE
  5
2C7
330
1F
100
AcDbEntity
  8
2
100
AcDbLine
 10
252.9816321537029
 20
192.8139161425354
 30
0.0
 11
253.1853948029149
 21
193.0176787917474
 31
0.0
  0
LINE
  5
2C8
330
1F
100
AcDbEntity
  8
2
100
AcDbLine
 10
253.0579736568751
 20
192.8004550844969
 30
0.0
 11
253.2944217730336
 21
193.0369032006554
 31
0.0
  0
LINE
  5
2C9
330
1F
100
AcDbEntity
  8
2
100
AcDbLine
 10
253.1343151600473
 20
192.7869940264585
 30
0.0
 11
253.4034487431525
 21
193.0561276095636
 31
0.0
  0
LINE
  5
2CA
330
1F
100
AcDbEntity
  8
2
100
AcDbLine
 10
253.2106566632196
 20
192.77353296842
 30
0.0
 11
253.5124757132713
 21
193.0753520184716
 31
0.0
  0
LINE
  5
2CB
330
1F
100
AcDbEntity
  8
2
100
AcDbLine
 10
253.2869981663918
 20
192.7600719103815
 30
0.0
 11
253.62150268339
 21
193.0945764273797
 31
0.0
  0
LINE
  5
2CC
330
1F
100
AcDbEntity
  8
2
100
AcDbLine
 10
253.363339669564
 20
192.746610852343
 30
0.0
 11
253.7305296535087
 21
193.1138008362878
 31
0.0
  0
LINE
  5
2CD
330
1F
100
AcDbEntity
  8
2
100
AcDbLine
 10
253.4396811727362
 20
192.7331497943045
 30
0.0
 11
253.8395566236275
 21
193.1330252451959
 31
0.0
  0
LINE
  5
2CE
330
1F
100
AcDbEntity
  8
2
100
AcDbLine
 10
253.5160226759084
 20
192.7196887362661
 30
0.0
 11
253.9485835937463
 21
193.1522496541039
 31
0.0
  0
LINE
  5
2CF
330
1F
100
AcDbEntity
  8
2
100
AcDbLine
 10
253.5923641790806
 20
192.7062276782276
 30
0.0
 11
254.057610563865
 21
193.171474063012
 31
0.0
  0
LINE
  5
2D0
330
1F
100
AcDbEntity
  8
2
100
AcDbLine
 10
253.6687056822529
 20
192.6927666201891
 30
0.0
 11
254.1666375339838
 21
193.1906984719201
 31
0.0
  0
LINE
  5
2D1
330
1F
100
AcDbEntity
  8
2
100
AcDbLine
 10
253.745047185425
 20
192.6793055621507
 30
0.0
 11
254.2756645041025
 21
193.2099228808281
 31
0.0
  0
LINE
  5
2D2
330
1F
100
AcDbEntity
  8
2
100
AcDbLine
 10
253.8213886885973
 20
192.6658445041122
 30
0.0
 11
254.3846914742213
 21
193.2291472897362
 31
0.0
  0
LINE
  5
2D3
330
1F
100
AcDbEntity
  8
2
100
AcDbLine
 10
253.8977301917694
 20
192.6523834460737
 30
0.0
 11
254.4937184443401
 21
193.2483716986443
 31
0.0
  0
LINE
  5
2D4
330
1F
100
AcDbEntity
  8
2
100
AcDbLine
 10
253.9740716949417
 20
192.6389223880352
 30
0.0
 11
254.6027454144589
 21
193.2675961075523
 31
0.0
  0
LINE
  5
2D5
330
1F
100
AcDbEntity
  8
2
100
AcDbLine
 10
254.0504131981139
 20
192.6254613299967
 30
0.0
 11
254.7117723845776
 21
193.2868205164604
 31
0.0
  0
LINE
  5
2D6
330
1F
100
AcDbEntity
  8
2
100
AcDbLine
 10
254.1267547012861
 20
192.6120002719582
 30
0.0
 11
254.8207993546963
 21
193.3060449253685
 31
0.0
  0
LINE
  5
2D7
330
1F
100
AcDbEntity
  8
2
100
AcDbLine
 10
254.2030962044583
 20
192.5985392139197
 30
0.0
 11
254.9298263248151
 21
193.3252693342765
 31
0.0
  0
LINE
  5
2D8
330
1F
100
AcDbEntity
  8
2
100
AcDbLine
 10
254.2794377076305
 20
192.5850781558812
 30
0.0
 11
255.0057143213454
 21
193.3113547695961
 31
0.0
  0
LINE
  5
2D9
330
1F
100
AcDbEntity
  8
2
100
AcDbLine
 10
254.3557792108028
 20
192.5716170978428
 30
0.0
 11
255.0057146512074
 21
193.2215525382474
 31
0.0
  0
LINE
  5
2DA
330
1F
100
AcDbEntity
  8
2
100
AcDbLine
 10
254.432120713975
 20
192.5581560398043
 30
0.0
 11
255.0057149810694
 21
193.1317503068987
 31
0.0
  0
LINE
  5
2DB
330
1F
100
AcDbEntity
  8
2
100
AcDbLine
 10
254.5084622171472
 20
192.5446949817659
 30
0.0
 11
255.0057153109314
 21
193.04194807555
 31
0.0
  0
LINE
  5
2DC
330
1F
100
AcDbEntity
  8
2
100
AcDbLine
 10
254.5848037203194
 20
192.5312339237273
 30
0.0
 11
255.0057156407934
 21
192.9521458442014
 31
0.0
  0
LINE
  5
2DD
330
1F
100
AcDbEntity
  8
2
100
AcDbLine
 10
254.6611452234916
 20
192.5177728656889
 30
0.0
 11
255.0057159706554
 21
192.8623436128527
 31
0.0
  0
LINE
  5
2DE
330
1F
100
AcDbEntity
  8
2
100
AcDbLine
 10
254.7374867266638
 20
192.5043118076504
 30
0.0
 11
255.0057163005174
 21
192.772541381504
 31
0.0
  0
LINE
  5
2DF
330
1F
100
AcDbEntity
  8
2
100
AcDbLine
 10
254.813828229836
 20
192.4908507496119
 30
0.0
 11
255.0057166303794
 21
192.6827391501553
 31
0.0
  0
LINE
  5
2E0
330
1F
100
AcDbEntity
  8
2
100
AcDbLine
 10
254.8901697330082
 20
192.4773896915734
 30
0.0
 11
255.0057169602415
 21
192.5929369188066
 31
0.0
  0
LINE
  5
2E1
330
1F
100
AcDbEntity
  8
2
100
AcDbLine
 10
254.9665112361805
 20
192.463928633535
 30
0.0
 11
255.0057172901034
 21
192.5031346874579
 31
0.0
  0
LINE
  5
2E2
330
1F
100
AcDbEntity
  8
2
100
AcDbLine
 10
245.0429077046956
 20
193.3166324473332
 30
0.0
 11
245.0616252615222
 21
193.3353500041598
 31
0.0
  0
LINE
  5
2E3
330
1F
100
AcDbEntity
  8
2
100
AcDbLine
 10
245.0429080345576
 20
193.2268302159845
 30
0.0
 11
245.1379667646945
 21
193.3218889461214
 31
0.0
  0
LINE
  5
2E4
330
1F
100
AcDbEntity
  8
2
100
AcDbLine
 10
245.0429083644196
 20
193.1370279846358
 30
0.0
 11
245.2143082678666
 21
193.3084278880829
 31
0.0
  0
LINE
  5
2E5
330
1F
100
AcDbEntity
  8
2
100
AcDbLine
 10
245.0429086942816
 20
193.0472257532872
 30
0.0
 11
245.2906497710389
 21
193.2949668300444
 31
0.0
  0
LINE
  5
2E6
330
1F
100
AcDbEntity
  8
2
100
AcDbLine
 10
245.0429090241436
 20
192.9574235219385
 30
0.0
 11
245.3669912742111
 21
193.2815057720059
 31
0.0
  0
LINE
  5
2E7
330
1F
100
AcDbEntity
  8
2
100
AcDbLine
 10
245.0429093540057
 20
192.8676212905898
 30
0.0
 11
245.4433327773833
 21
193.2680447139674
 31
0.0
  0
LINE
  5
2E8
330
1F
100
AcDbEntity
  8
2
100
AcDbLine
 10
245.0429096838677
 20
192.7778190592412
 30
0.0
 11
245.5196742805555
 21
193.254583655929
 31
0.0
  0
LINE
  5
2E9
330
1F
100
AcDbEntity
  8
2
100
AcDbLine
 10
245.0429100137297
 20
192.6880168278925
 30
0.0
 11
245.5960157837277
 21
193.2411225978904
 31
0.0
  0
LINE
  5
2EA
330
1F
100
AcDbEntity
  8
2
100
AcDbLine
 10
245.0429103435917
 20
192.5982145965438
 30
0.0
 11
245.6723572868999
 21
193.227661539852
 31
0.0
  0
LINE
  5
2EB
330
1F
100
AcDbEntity
  8
2
100
AcDbLine
 10
245.0429106734538
 20
192.5084123651951
 30
0.0
 11
245.7486987900721
 21
193.2142004818135
 31
0.0
  0
LINE
  5
2EC
330
1F
100
AcDbEntity
  8
2
100
AcDbLine
 10
245.089538024575
 20
192.4652371551058
 30
0.0
 11
245.8250402932443
 21
193.200739423775
 31
0.0
  0
LINE
  5
2ED
330
1F
100
AcDbEntity
  8
2
100
AcDbLine
 10
245.1985649946938
 20
192.4844615640138
 30
0.0
 11
245.9013817964166
 21
193.1872783657365
 31
0.0
  0
LINE
  5
2EE
330
1F
100
AcDbEntity
  8
2
100
AcDbLine
 10
245.3075919648125
 20
192.5036859729218
 30
0.0
 11
245.9777232995887
 21
193.1738173076981
 31
0.0
  0
LINE
  5
2EF
330
1F
100
AcDbEntity
  8
2
100
AcDbLine
 10
245.4166189349313
 20
192.5229103818299
 30
0.0
 11
246.054064802761
 21
193.1603562496595
 31
0.0
  0
LINE
  5
2F0
330
1F
100
AcDbEntity
  8
2
100
AcDbLine
 10
245.5256459050501
 20
192.542134790738
 30
0.0
 11
246.1304063059332
 21
193.146895191621
 31
0.0
  0
LINE
  5
2F1
330
1F
100
AcDbEntity
  8
2
100
AcDbLine
 10
245.6346728751688
 20
192.561359199646
 30
0.0
 11
246.2067478091054
 21
193.1334341335826
 31
0.0
  0
LINE
  5
2F2
330
1F
100
AcDbEntity
  8
2
100
AcDbLine
 10
245.7436998452875
 20
192.5805836085541
 30
0.0
 11
246.2830893122776
 21
193.1199730755441
 31
0.0
  0
LINE
  5
2F3
330
1F
100
AcDbEntity
  8
2
100
AcDbLine
 10
245.8527268154063
 20
192.5998080174622
 30
0.0
 11
246.3594308154498
 21
193.1065120175056
 31
0.0
  0
LINE
  5
2F4
330
1F
100
AcDbEntity
  8
2
100
AcDbLine
 10
245.9617537855251
 20
192.6190324263702
 30
0.0
 11
246.4357723186219
 21
193.0930509594671
 31
0.0
  0
LINE
  5
2F5
330
1F
100
AcDbEntity
  8
2
100
AcDbLine
 10
246.0707807556438
 20
192.6382568352783
 30
0.0
 11
246.5121138217942
 21
193.0795899014287
 31
0.0
  0
LINE
  5
2F6
330
1F
100
AcDbEntity
  8
2
100
AcDbLine
 10
246.1798077257626
 20
192.6574812441863
 30
0.0
 11
246.5884553249664
 21
193.0661288433902
 31
0.0
  0
LINE
  5
2F7
330
1F
100
AcDbEntity
  8
2
100
AcDbLine
 10
246.2888346958813
 20
192.6767056530944
 30
0.0
 11
246.6647968281386
 21
193.0526677853517
 31
0.0
  0
LINE
  5
2F8
330
1F
100
AcDbEntity
  8
2
100
AcDbLine
 10
246.3978616660001
 20
192.6959300620025
 30
0.0
 11
246.7411383313109
 21
193.0392067273132
 31
0.0
  0
LINE
  5
2F9
330
1F
100
AcDbEntity
  8
2
100
AcDbLine
 10
246.5068886361189
 20
192.7151544709105
 30
0.0
 11
246.8174798344831
 21
193.0257456692747
 31
0.0
  0
LINE
  5
2FA
330
1F
100
AcDbEntity
  8
2
100
AcDbLine
 10
246.6159156062376
 20
192.7343788798186
 30
0.0
 11
246.8938213376553
 21
193.0122846112363
 31
0.0
  0
LINE
  5
2FB
330
1F
100
AcDbEntity
  8
2
100
AcDbLine
 10
246.7249425763564
 20
192.7536032887267
 30
0.0
 11
246.9701628408274
 21
192.9988235531977
 31
0.0
  0
LINE
  5
2FC
330
1F
100
AcDbEntity
  8
2
100
AcDbLine
 10
246.8339695464752
 20
192.7728276976348
 30
0.0
 11
247.0465043439997
 21
192.9853624951593
 31
0.0
  0
LINE
  5
2FD
330
1F
100
AcDbEntity
  8
2
100
AcDbLine
 10
246.9429965165939
 20
192.7920521065428
 30
0.0
 11
247.1228458471718
 21
192.9719014371207
 31
0.0
  0
LINE
  5
2FE
330
1F
100
AcDbEntity
  8
2
100
AcDbLine
 10
247.0520234867127
 20
192.8112765154509
 30
0.0
 11
247.1991873503441
 21
192.9584403790823
 31
0.0
  0
LINE
  5
2FF
330
1F
100
AcDbEntity
  8
2
100
AcDbLine
 10
247.1610504568314
 20
192.8305009243589
 30
0.0
 11
247.2755288535163
 21
192.9449793210438
 31
0.0
  0
LINE
  5
300
330
1F
100
AcDbEntity
  8
2
100
AcDbLine
 10
247.2700774269502
 20
192.849725333267
 30
0.0
 11
247.3518703566885
 21
192.9315182630053
 31
0.0
  0
LINE
  5
301
330
1F
100
AcDbEntity
  8
2
100
AcDbLine
 10
247.3791043970689
 20
192.8689497421751
 30
0.0
 11
247.4282118598607
 21
192.9180572049668
 31
0.0
  0
LINE
  5
302
330
1F
100
AcDbEntity
  8
2
100
AcDbLine
 10
247.4881313671877
 20
192.8881741510831
 30
0.0
 11
247.5045533630329
 21
192.9045961469283
 31
0.0
  0
TEXT
  5
303
330
1F
100
AcDbEntity
  8
2
100
AcDbText
 10
249.7419913204498
 20
194.4811666666666
 30
0.0
 40
3.5
  1
5
 41
0.75
  7
cesky
100
AcDbText
  0
LINE
  5
304
330
1F
100
AcDbEntity
  8
2
100
AcDbLine
 10
210.5321799680995
 20
201.7315289694479
 30
0.0
 11
210.543511158227
 21
201.7428601595754
 31
0.0
  0
LINE
  5
305
330
1F
100
AcDbEntity
  8
2
100
AcDbLine
 10
210.6085214712716
 20
201.7180679114094
 30
0.0
 11
210.6525381283458
 21
201.7620845684835
 31
0.0
  0
LINE
  5
306
330
1F
100
AcDbEntity
  8
2
100
AcDbLine
 10
210.6848629744439
 20
201.7046068533709
 30
0.0
 11
210.7615650984646
 21
201.7813089773915
 31
0.0
  0
LINE
  5
307
330
1F
100
AcDbEntity
  8
2
100
AcDbLine
 10
210.7612044776161
 20
201.6911457953324
 30
0.0
 11
210.8705920685833
 21
201.8005333862996
 31
0.0
  0
LINE
  5
308
330
1F
100
AcDbEntity
  8
2
100
AcDbLine
 10
210.8375459807883
 20
201.6776847372939
 30
0.0
 11
210.9796190387021
 21
201.8197577952077
 31
0.0
  0
LINE
  5
309
330
1F
100
AcDbEntity
  8
2
100
AcDbLine
 10
210.9138874839605
 20
201.6642236792554
 30
0.0
 11
211.0886460088208
 21
201.8389822041157
 31
0.0
  0
LINE
  5
30A
330
1F
100
AcDbEntity
  8
2
100
AcDbLine
 10
210.9902289871327
 20
201.6507626212169
 30
0.0
 11
211.1976729789396
 21
201.8582066130238
 31
0.0
  0
LINE
  5
30B
330
1F
100
AcDbEntity
  8
2
100
AcDbLine
 10
211.0665704903049
 20
201.6373015631785
 30
0.0
 11
211.3066999490584
 21
201.8774310219319
 31
0.0
  0
LINE
  5
30C
330
1F
100
AcDbEntity
  8
2
100
AcDbLine
 10
211.1429119934771
 20
201.62384050514
 30
0.0
 11
211.4157269191771
 21
201.8966554308399
 31
0.0
  0
LINE
  5
30D
330
1F
100
AcDbEntity
  8
2
100
AcDbLine
 10
211.2192534966493
 20
201.6103794471015
 30
0.0
 11
211.5247538892959
 21
201.9158798397481
 31
0.0
  0
LINE
  5
30E
330
1F
100
AcDbEntity
  8
2
100
AcDbLine
 10
211.2955949998216
 20
201.596918389063
 30
0.0
 11
211.6337808594146
 21
201.9351042486561
 31
0.0
  0
LINE
  5
30F
330
1F
100
AcDbEntity
  8
2
100
AcDbLine
 10
211.3719365029938
 20
201.5834573310245
 30
0.0
 11
211.7428078295334
 21
201.9543286575641
 31
0.0
  0
LINE
  5
310
330
1F
100
AcDbEntity
  8
2
100
AcDbLine
 10
211.448278006166
 20
201.5699962729861
 30
0.0
 11
211.8518347996522
 21
201.9735530664723
 31
0.0
  0
LINE
  5
311
330
1F
100
AcDbEntity
  8
2
100
AcDbLine
 10
211.5246195093382
 20
201.5565352149475
 30
0.0
 11
211.9608617697709
 21
201.9927774753802
 31
0.0
  0
LINE
  5
312
330
1F
100
AcDbEntity
  8
2
100
AcDbLine
 10
211.6009610125104
 20
201.5430741569091
 30
0.0
 11
212.0698887398897
 21
202.0120018842884
 31
0.0
  0
LINE
  5
313
330
1F
100
AcDbEntity
  8
2
100
AcDbLine
 10
211.6773025156826
 20
201.5296130988706
 30
0.0
 11
212.1789157100084
 21
202.0312262931964
 31
0.0
  0
LINE
  5
314
330
1F
100
AcDbEntity
  8
2
100
AcDbLine
 10
211.7536440188548
 20
201.5161520408321
 30
0.0
 11
212.2879426801272
 21
202.0504507021045
 31
0.0
  0
LINE
  5
315
330
1F
100
AcDbEntity
  8
2
100
AcDbLine
 10
211.829985522027
 20
201.5026909827937
 30
0.0
 11
212.396969650246
 21
202.0696751110126
 31
0.0
  0
LINE
  5
316
330
1F
100
AcDbEntity
  8
2
100
AcDbLine
 10
211.9063270251992
 20
201.4892299247552
 30
0.0
 11
212.5059966203647
 21
202.0888995199207
 31
0.0
  0
LINE
  5
317
330
1F
100
AcDbEntity
  8
2
100
AcDbLine
 10
211.9826685283715
 20
201.4757688667167
 30
0.0
 11
212.6150235904835
 21
202.1081239288287
 31
0.0
  0
LINE
  5
318
330
1F
100
AcDbEntity
  8
2
100
AcDbLine
 10
212.0590100315437
 20
201.4623078086782
 30
0.0
 11
212.7240505606022
 21
202.1273483377367
 31
0.0
  0
LINE
  5
319
330
1F
100
AcDbEntity
  8
2
100
AcDbLine
 10
212.1353515347159
 20
201.4488467506397
 30
0.0
 11
212.833077530721
 21
202.1465727466448
 31
0.0
  0
LINE
  5
31A
330
1F
100
AcDbEntity
  8
2
100
AcDbLine
 10
212.2116930378881
 20
201.4353856926013
 30
0.0
 11
212.9421045008399
 21
202.165797155553
 31
0.0
  0
LINE
  5
31B
330
1F
100
AcDbEntity
  8
2
100
AcDbLine
 10
212.2880345410603
 20
201.4219246345628
 30
0.0
 11
213.0057128987518
 21
202.1396029922542
 31
0.0
  0
LINE
  5
31C
330
1F
100
AcDbEntity
  8
2
100
AcDbLine
 10
212.3643760442325
 20
201.4084635765243
 30
0.0
 11
213.0057132286138
 21
202.0498007609055
 31
0.0
  0
LINE
  5
31D
330
1F
100
AcDbEntity
  8
2
100
AcDbLine
 10
212.4407175474047
 20
201.3950025184858
 30
0.0
 11
213.0057135584759
 21
201.9599985295569
 31
0.0
  0
LINE
  5
31E
330
1F
100
AcDbEntity
  8
2
100
AcDbLine
 10
212.5170590505769
 20
201.3815414604473
 30
0.0
 11
213.0057138883378
 21
201.8701962982083
 31
0.0
  0
LINE
  5
31F
330
1F
100
AcDbEntity
  8
2
100
AcDbLine
 10
212.5934005537492
 20
201.3680804024089
 30
0.0
 11
213.0057142181999
 21
201.7803940668596
 31
0.0
  0
LINE
  5
320
330
1F
100
AcDbEntity
  8
2
100
AcDbLine
 10
212.6697420569213
 20
201.3546193443703
 30
0.0
 11
213.0057145480618
 21
201.6905918355109
 31
0.0
  0
LINE
  5
321
330
1F
100
AcDbEntity
  8
2
100
AcDbLine
 10
212.7460835600936
 20
201.3411582863319
 30
0.0
 11
213.0057148779239
 21
201.6007896041623
 31
0.0
  0
LINE
  5
322
330
1F
100
AcDbEntity
  8
2
100
AcDbLine
 10
212.8224250632658
 20
201.3276972282934
 30
0.0
 11
213.0057152077859
 21
201.5109873728135
 31
0.0
  0
LINE
  5
323
330
1F
100
AcDbEntity
  8
2
100
AcDbLine
 10
212.898766566438
 20
201.3142361702549
 30
0.0
 11
213.0057155376479
 21
201.4211851414648
 31
0.0
  0
LINE
  5
324
330
1F
100
AcDbEntity
  8
2
100
AcDbLine
 10
212.9751080696102
 20
201.3007751122164
 30
0.0
 11
213.00571586751
 21
201.3313829101162
 31
0.0
  0
LINE
  5
325
330
1F
100
AcDbEntity
  8
2
100
AcDbLine
 10
250.0057143535525
 20
202.1409492282497
 30
0.0
 11
250.0363722980049
 21
202.1716071727021
 31
0.0
  0
LINE
  5
326
330
1F
100
AcDbEntity
  8
2
100
AcDbLine
 10
250.0057146834145
 20
202.0511469969011
 30
0.0
 11
250.1127138011771
 21
202.1581461146637
 31
0.0
  0
LINE
  5
327
330
1F
100
AcDbEntity
  8
2
100
AcDbLine
 10
250.0057150132765
 20
201.9613447655523
 30
0.0
 11
250.1890553043493
 21
202.1446850566252
 31
0.0
  0
LINE
  5
328
330
1F
100
AcDbEntity
  8
2
100
AcDbLine
 10
250.0057153431385
 20
201.8715425342037
 30
0.0
 11
250.2653968075216
 21
202.1312239985867
 31
0.0
  0
LINE
  5
329
330
1F
100
AcDbEntity
  8
2
100
AcDbLine
 10
250.0057156730005
 20
201.781740302855
 30
0.0
 11
250.3417383106937
 21
202.1177629405482
 31
0.0
  0
LINE
  5
32A
330
1F
100
AcDbEntity
  8
2
100
AcDbLine
 10
250.0057160028625
 20
201.6919380715063
 30
0.0
 11
250.4180798138659
 21
202.1043018825097
 31
0.0
  0
LINE
  5
32B
330
1F
100
AcDbEntity
  8
2
100
AcDbLine
 10
250.0057163327245
 20
201.6021358401576
 30
0.0
 11
250.4944213170381
 21
202.0908408244712
 31
0.0
  0
LINE
  5
32C
330
1F
100
AcDbEntity
  8
2
100
AcDbLine
 10
250.0057166625865
 20
201.5123336088089
 30
0.0
 11
250.5707628202103
 21
202.0773797664327
 31
0.0
  0
LINE
  5
32D
330
1F
100
AcDbEntity
  8
2
100
AcDbLine
 10
250.0057169924486
 20
201.4225313774603
 30
0.0
 11
250.6471043233826
 21
202.0639187083943
 31
0.0
  0
LINE
  5
32E
330
1F
100
AcDbEntity
  8
2
100
AcDbLine
 10
250.0057173223106
 20
201.3327291461116
 30
0.0
 11
250.7234458265548
 21
202.0504576503558
 31
0.0
  0
LINE
  5
32F
330
1F
100
AcDbEntity
  8
2
100
AcDbLine
 10
250.0693973370177
 20
201.306606599608
 30
0.0
 11
250.799787329727
 21
202.0369965923173
 31
0.0
  0
LINE
  5
330
330
1F
100
AcDbEntity
  8
2
100
AcDbLine
 10
250.1784243071364
 20
201.325831008516
 30
0.0
 11
250.8761288328992
 21
202.0235355342788
 31
0.0
  0
LINE
  5
331
330
1F
100
AcDbEntity
  8
2
100
AcDbLine
 10
250.2874512772552
 20
201.3450554174241
 30
0.0
 11
250.9524703360714
 21
202.0100744762403
 31
0.0
  0
LINE
  5
332
330
1F
100
AcDbEntity
  8
2
100
AcDbLine
 10
250.3964782473739
 20
201.3642798263322
 30
0.0
 11
251.0288118392436
 21
201.9966134182018
 31
0.0
  0
LINE
  5
333
330
1F
100
AcDbEntity
  8
2
100
AcDbLine
 10
250.5055052174927
 20
201.3835042352402
 30
0.0
 11
251.1051533424158
 21
201.9831523601633
 31
0.0
  0
LINE
  5
334
330
1F
100
AcDbEntity
  8
2
100
AcDbLine
 10
250.6145321876115
 20
201.4027286441483
 30
0.0
 11
251.181494845588
 21
201.9696913021248
 31
0.0
  0
LINE
  5
335
330
1F
100
AcDbEntity
  8
2
100
AcDbLine
 10
250.7235591577302
 20
201.4219530530563
 30
0.0
 11
251.2578363487602
 21
201.9562302440863
 31
0.0
  0
LINE
  5
336
330
1F
100
AcDbEntity
  8
2
100
AcDbLine
 10
250.8325861278489
 20
201.4411774619645
 30
0.0
 11
251.3341778519324
 21
201.9427691860478
 31
0.0
  0
LINE
  5
337
330
1F
100
AcDbEntity
  8
2
100
AcDbLine
 10
250.9416130979678
 20
201.4604018708725
 30
0.0
 11
251.4105193551047
 21
201.9293081280094
 31
0.0
  0
LINE
  5
338
330
1F
100
AcDbEntity
  8
2
100
AcDbLine
 10
251.0506400680865
 20
201.4796262797806
 30
0.0
 11
251.4868608582769
 21
201.915847069971
 31
0.0
  0
LINE
  5
339
330
1F
100
AcDbEntity
  8
2
100
AcDbLine
 10
251.1596670382052
 20
201.4988506886886
 30
0.0
 11
251.563202361449
 21
201.9023860119324
 31
0.0
  0
LINE
  5
33A
330
1F
100
AcDbEntity
  8
2
100
AcDbLine
 10
251.268694008324
 20
201.5180750975967
 30
0.0
 11
251.6395438646213
 21
201.8889249538939
 31
0.0
  0
LINE
  5
33B
330
1F
100
AcDbEntity
  8
2
100
AcDbLine
 10
251.3777209784427
 20
201.5372995065047
 30
0.0
 11
251.7158853677935
 21
201.8754638958554
 31
0.0
  0
LINE
  5
33C
330
1F
100
AcDbEntity
  8
2
100
AcDbLine
 10
251.4867479485615
 20
201.5565239154128
 30
0.0
 11
251.7922268709657
 21
201.862002837817
 31
0.0
  0
LINE
  5
33D
330
1F
100
AcDbEntity
  8
2
100
AcDbLine
 10
251.5957749186803
 20
201.5757483243209
 30
0.0
 11
251.8685683741379
 21
201.8485417797785
 31
0.0
  0
LINE
  5
33E
330
1F
100
AcDbEntity
  8
2
100
AcDbLine
 10
251.704801888799
 20
201.5949727332289
 30
0.0
 11
251.9449098773101
 21
201.83508072174
 31
0.0
  0
LINE
  5
33F
330
1F
100
AcDbEntity
  8
2
100
AcDbLine
 10
251.8138288589177
 20
201.614197142137
 30
0.0
 11
252.0212513804823
 21
201.8216196637015
 31
0.0
  0
LINE
  5
340
330
1F
100
AcDbEntity
  8
2
100
AcDbLine
 10
251.9228558290365
 20
201.633421551045
 30
0.0
 11
252.0975928836545
 21
201.8081586056631
 31
0.0
  0
LINE
  5
341
330
1F
100
AcDbEntity
  8
2
100
AcDbLine
 10
252.0318827991553
 20
201.6526459599531
 30
0.0
 11
252.1739343868267
 21
201.7946975476245
 31
0.0
  0
LINE
  5
342
330
1F
100
AcDbEntity
  8
2
100
AcDbLine
 10
252.140909769274
 20
201.6718703688612
 30
0.0
 11
252.2502758899989
 21
201.7812364895861
 31
0.0
  0
LINE
  5
343
330
1F
100
AcDbEntity
  8
2
100
AcDbLine
 10
252.2499367393927
 20
201.6910947777692
 30
0.0
 11
252.3266173931712
 21
201.7677754315477
 31
0.0
  0
LINE
  5
344
330
1F
100
AcDbEntity
  8
2
100
AcDbLine
 10
252.3589637095116
 20
201.7103191866773
 30
0.0
 11
252.4029588963433
 21
201.7543143735091
 31
0.0
  0
LINE
  5
345
330
1F
100
AcDbEntity
  8
2
100
AcDbLine
 10
252.4679906796303
 20
201.7295435955854
 30
0.0
 11
252.4793003995155
 21
201.7408533154706
 31
0.0
  0
TEXT
  5
346
330
1F
100
AcDbEntity
  8
2
100
AcDbText
 10
229.9701167919887
 20
203.3195286666666
 30
0.0
 40
3.5
  1
42
 41
0.75
  7
cesky
100
AcDbText
  0
MTEXT
  5
347
330
1F
100
AcDbEntity
  8
SK2
100
AcDbMText
 10
168.812964
 20
176.2457879999999
 30
0.0
 40
3.5
 41
0.0
 71
     7
 72
     5
  1
\W0.7500;29
  7
cesky
 11
0.0000000000000001
 21
1.0
 31
0.0
 73
     2
 44
0.8433729999999998
1001
ACAD
1000
MTEXTBEGIN
1070
    73
1070
     2
1070
    44
1040
0.8433729999999998
1070
    74
1070
     0
1000
MTEXTEND
  0
MTEXT
  5
348
330
1F
100
AcDbEntity
  8
SK2
100
AcDbMText
 10
168.812964
 20
169.273132
 30
0.0
 40
3.5
 41
0.0
 71
     7
 72
     5
  1
%%c
  7
cesky
 11
0.0000000000000001
 21
1.0
 31
0.0
 73
     2
 44
0.8433729999999998
1001
ACAD
1000
MTEXTBEGIN
1070
    73
1070
     2
1070
    44
1040
0.8433729999999998
1070
    74
1070
     0
1000
MTEXTEND
  0
LINE
  5
349
330
1F
100
AcDbEntity
  8
SK2
100
AcDbLine
 10
210.005714
 20
187.7145379999999
 30
0.0
 11
168.104631
 21
187.7145379999999
 31
0.0
  0
LINE
  5
34A
330
1F
100
AcDbEntity
  8
SK2
100
AcDbLine
 10
210.005714
 20
158.7145379999999
 30
0.0
 11
168.104631
 21
158.7145379999999
 31
0.0
  0
LINE
  5
34B
330
1F
100
AcDbEntity
  8
SK2
100
AcDbLine
 10
170.104631
 20
187.7145379999999
 30
0.0
 11
170.104631
 21
158.7145379999999
 31
0.0
  0
SOLID
  5
34C
330
1F
100
AcDbEntity
  8
SK2
100
AcDbTrace
 10
170.104631
 20
187.7145379999999
 30
0.0
 11
170.545449
 21
185.21454
 31
0.0
 12
169.663814
 22
185.214537
 32
0.0
 13
170.104631
 23
187.7145379999999
 33
0.0
  0
SOLID
  5
34D
330
1F
100
AcDbEntity
  8
SK2
100
AcDbTrace
 10
170.104631
 20
158.7145379999999
 30
0.0
 11
169.663814
 21
161.214537
 31
0.0
 12
170.545449
 22
161.21454
 32
0.0
 13
170.104631
 23
158.7145379999999
 33
0.0
  0
MTEXT
  5
34E
330
1F
100
AcDbEntity
  8
SK2
100
AcDbMText
 10
178.184253
 20
174.358288
 30
0.0
 40
3.5
 41
0.0
 71
     7
 72
     5
  1
\W0.7500;16
  7
cesky
 11
0.0000000000000001
 21
1.0
 31
0.0
 73
     2
 44
0.8433729999999998
1001
ACAD
1000
MTEXTBEGIN
1070
    73
1070
     2
1070
    44
1040
0.8433729999999998
1070
    74
1070
     0
1000
MTEXTEND
  0
MTEXT
  5
34F
330
1F
100
AcDbEntity
  8
SK2
100
AcDbMText
 10
178.184253
 20
169.383288
 30
0.0
 40
3.5
 41
0.0
 71
     7
 72
     5
  1
\W0.7500;M
  7
cesky
 11
0.0000000000000001
 21
1.0
 31
0.0
 73
     2
 44
0.8433729999999998
1001
ACAD
1000
MTEXTBEGIN
1070
    73
1070
     2
1070
    44
1040
0.8433729999999998
1070
    74
1070
     0
1000
MTEXTEND
  0
LINE
  5
350
330
1F
100
AcDbEntity
  8
SK2
100
AcDbLine
 10
188.005714
 20
181.214538
 30
0.0
 11
176.600919
 21
181.214538
 31
0.0
  0
LINE
  5
351
330
1F
100
AcDbEntity
  8
SK2
100
AcDbLine
 10
188.005714
 20
165.214538
 30
0.0
 11
176.600919
 21
165.214538
 31
0.0
  0
LINE
  5
352
330
1F
100
AcDbEntity
  8
SK2
100
AcDbLine
 10
178.600919
 20
181.214538
 30
0.0
 11
178.600919
 21
165.214538
 31
0.0
  0
SOLID
  5
353
330
1F
100
AcDbEntity
  8
SK2
100
AcDbTrace
 10
178.600919
 20
181.214538
 30
0.0
 11
179.041737
 21
178.71454
 31
0.0
 12
178.160102
 22
178.714537
 32
0.0
 13
178.600919
 23
181.214538
 33
0.0
  0
SOLID
  5
354
330
1F
100
AcDbEntity
  8
SK2
100
AcDbTrace
 10
178.600919
 20
165.214538
 30
0.0
 11
178.160102
 21
167.714537
 31
0.0
 12
179.041737
 22
167.71454
 32
0.0
 13
178.600919
 23
165.214538
 33
0.0
  0
ENDSEC
  0
SECTION
  2
OBJECTS
  0
DICTIONARY
  5
C
330
0
100
AcDbDictionary
281
     1
  3
ACAD_CIP_PREVIOUS_PRODUCT_INFO
350
29A
  3
ACAD_COLOR
350
28F
  3
ACAD_DETAILVIEWSTYLE
350
295
  3
ACAD_GROUP
350
D
  3
ACAD_LAYOUT
350
1A
  3
ACAD_MATERIAL
350
43
  3
ACAD_MLEADERSTYLE
350
250
  3
ACAD_MLINESTYLE
350
17
  3
ACAD_PLOTSETTINGS
350
19
  3
ACAD_PLOTSTYLENAME
350
E
  3
ACAD_SCALELIST
350
47
  3
ACAD_SECTIONVIEWSTYLE
350
293
  3
ACAD_TABLESTYLE
350
290
  3
ACAD_VISUALSTYLE
350
2A
  3
ACDB_RECOMPOSE_DATA
350
385
  3
AcDbVariableDictionary
350
24E
  3
DWGPROPS
350
386
  0
DICTIONARY
  5
363
330
10
100
AcDbDictionary
280
     1
281
     1
  3
ADSK_XREC_LAYER_RECONCILED
360
364
  0
DICTIONARY
  5
365
330
355
100
AcDbDictionary
280
     1
281
     1
  3
ADSK_XREC_LAYER_RECONCILED
360
366
  0
DICTIONARY
  5
367
330
356
100
AcDbDictionary
280
     1
281
     1
  3
ADSK_XREC_LAYER_RECONCILED
360
368
  0
DICTIONARY
  5
369
330
357
100
AcDbDictionary
280
     1
281
     1
  3
ADSK_XREC_LAYER_RECONCILED
360
36A
  0
DICTIONARY
  5
36B
330
358
100
AcDbDictionary
280
     1
281
     1
  3
ADSK_XREC_LAYER_RECONCILED
360
36C
  0
DICTIONARY
  5
36D
330
359
100
AcDbDictionary
280
     1
281
     1
  3
ADSK_XREC_LAYER_RECONCILED
360
36E
  0
DICTIONARY
  5
36F
330
35B
100
AcDbDictionary
280
     1
281
     1
  3
ADSK_XREC_LAYER_RECONCILED
360
370
  0
DICTIONARY
  5
371
330
35C
100
AcDbDictionary
280
     1
281
     1
  3
ADSK_XREC_LAYER_RECONCILED
360
372
  0
DICTIONARY
  5
373
330
35D
100
AcDbDictionary
280
     1
281
     1
  3
ADSK_XREC_LAYER_RECONCILED
360
374
  0
DICTIONARY
  5
375
330
35E
100
AcDbDictionary
280
     1
281
     1
  3
ADSK_XREC_LAYER_RECONCILED
360
376
  0
DICTIONARY
  5
377
330
35F
100
AcDbDictionary
280
     1
281
     1
  3
ADSK_XREC_LAYER_RECONCILED
360
378
  0
DICTIONARY
  5
379
330
360
100
AcDbDictionary
280
     1
281
     1
  3
ADSK_XREC_LAYER_RECONCILED
360
37A
  0
DICTIONARY
  5
2BD
330
1F
100
AcDbDictionary
280
     1
281
     1
  3
ACAD_SORTENTS
360
2BE
  0
XRECORD
  5
29A
102
{ACAD_REACTORS
330
C
102
}
330
C
100
AcDbXrecord
280
     1
300
AMECH_PP
300
2015
300
86266PDSP_2015_0F
  0
DICTIONARY
  5
28F
102
{ACAD_REACTORS
330
C
102
}
330
C
100
AcDbDictionary
281
     1
  0
DICTIONARY
  5
295
102
{ACAD_REACTORS
330
C
102
}
330
C
100
AcDbDictionary
281
     1
  3
Metric50
350
296
  0
DICTIONARY
  5
D
102
{ACAD_REACTORS
330
C
102
}
330
C
100
AcDbDictionary
281
     1
  3
ASSORTED_PARTS
350
238
  3
CENTERLINE
350
239
  3
DIMENSION
350
23A
  3
DIMENSION4
350
23B
  3
DIMENSION5
350
23C
  0
DICTIONARY
  5
1A
102
{ACAD_REACTORS
330
C
102
}
330
C
100
AcDbDictionary
281
     1
  3
Layout1
350
1E
  3
Layout2
350
26
  3
Model
350
22
  0
DICTIONARY
  5
43
102
{ACAD_REACTORS
330
C
102
}
330
C
100
AcDbDictionary
281
     1
  3
ByBlock
350
45
  3
ByLayer
350
44
  3
Global
350
46
  0
DICTIONARY
  5
250
102
{ACAD_REACTORS
330
C
102
}
330
C
100
AcDbDictionary
281
     1
  3
Standard
350
292
  0
DICTIONARY
  5
17
102
{ACAD_REACTORS
330
C
102
}
330
C
100
AcDbDictionary
281
     1
  3
Standard
350
18
  0
DICTIONARY
  5
19
102
{ACAD_REACTORS
330
C
102
}
330
C
100
AcDbDictionary
281
     1
  0
ACDBDICTIONARYWDFLT
  5
E
102
{ACAD_REACTORS
330
C
102
}
330
C
100
AcDbDictionary
281
     1
  3
Normal
350
F
100
AcDbDictionaryWithDefault
340
F
  0
DICTIONARY
  5
47
102
{ACAD_REACTORS
330
C
102
}
330
C
100
AcDbDictionary
281
     1
  3
A0
350
48
  3
A1
350
49
  3
A2
350
4A
  3
A3
350
4B
  3
A4
350
4C
  3
A5
350
4D
  3
A6
350
4E
  3
A7
350
4F
  3
A8
350
50
  3
A9
350
51
  3
B0
350
52
  3
B1
350
53
  3
B2
350
54
  3
B3
350
55
  3
B4
350
56
  3
B5
350
57
  3
B6
350
58
  3
B7
350
59
  3
B8
350
5A
  3
B9
350
5B
  3
C0
350
5C
  3
C1
350
5D
  3
C2
350
5E
  3
C3
350
5F
  3
C4
350
60
  3
C5
350
61
  3
C6
350
62
  3
C7
350
63
  3
C8
350
64
  3
C9
350
65
  3
D0
350
66
  3
D1
350
67
  3
D2
350
68
  0
DICTIONARY
  5
293
102
{ACAD_REACTORS
330
C
102
}
330
C
100
AcDbDictionary
281
     1
  3
Metric50
350
294
  0
DICTIONARY
  5
290
102
{ACAD_REACTORS
330
C
102
}
330
C
100
AcDbDictionary
281
     1
  3
Standard
350
291
  0
DICTIONARY
  5
2A
102
{ACAD_REACTORS
330
C
102
}
330
C
100
AcDbDictionary
281
     1
  3
2dWireframe
350
2F
  3
Basic
350
32
  3
Brighten
350
36
  3
ColorChange
350
3A
  3
Conceptual
350
34
  3
Dim
350
35
  3
EdgeColorOff
350
3D
  3
Facepattern
350
39
  3
Flat
350
2B
  3
FlatWithEdges
350
2C
  3
Gouraud
350
2D
  3
GouraudWithEdges
350
2E
  3
Hidden
350
31
  3
JitterOff
350
3B
  3
Linepattern
350
38
  3
OverhangOff
350
3C
  3
Realistic
350
33
  3
Shaded
350
42
  3
Shaded with edges
350
41
  3
Shades of Gray
350
3E
  3
Sketchy
350
3F
  3
Thicken
350
37
  3
Wireframe
350
30
  3
X-Ray
350
40
  0
XRECORD
  5
385
102
{ACAD_REACTORS
330
C
102
}
330
C
100
AcDbXrecord
280
     1
 90
        1
330
291
  0
DICTIONARY
  5
24E
102
{ACAD_REACTORS
330
C
102
}
330
C
100
AcDbDictionary
281
     1
  3
CANNOSCALE
350
255
  3
CMLEADERSTYLE
350
37C
  3
CTABLESTYLE
350
37B
  3
CVIEWDETAILSTYLE
350
37D
  3
CVIEWSECTIONSTYLE
350
37E
  3
DIMASSOC
350
253
  3
HIDETEXT
350
254
  3
INDEXCTL
350
380
  3
MSLTSCALE
350
256
  3
SORTENTS
350
37F
  3
XCLIPFRAME
350
381
  0
XRECORD
  5
386
102
{ACAD_REACTORS
330
C
102
}
330
C
100
AcDbXrecord
280
     1
  1
DWGPROPS COOKIE
  2

  3

  4

  6

  7

  8
hm1535
  9

300
=
301
=
302
=
303
=
304
=
305
=
306
=
307
=
308
=
309
=
 40
0.0007143171296296
 41
2457920.57940448
 42
2457920.580259954
  1

 90
        0
  0
XRECORD
  5
364
102
{ACAD_REACTORS
330
363
102
}
330
363
100
AcDbXrecord
280
     1
290
     1
  0
XRECORD
  5
366
102
{ACAD_REACTORS
330
365
102
}
330
365
100
AcDbXrecord
280
     1
290
     1
  0
XRECORD
  5
368
102
{ACAD_REACTORS
330
367
102
}
330
367
100
AcDbXrecord
280
     1
290
     1
  0
XRECORD
  5
36A
102
{ACAD_REACTORS
330
369
102
}
330
369
100
AcDbXrecord
280
     1
290
     1
  0
XRECORD
  5
36C
102
{ACAD_REACTORS
330
36B
102
}
330
36B
100
AcDbXrecord
280
     1
290
     1
  0
XRECORD
  5
36E
102
{ACAD_REACTORS
330
36D
102
}
330
36D
100
AcDbXrecord
280
     1
290
     1
  0
XRECORD
  5
370
102
{ACAD_REACTORS
330
36F
102
}
330
36F
100
AcDbXrecord
280
     1
290
     1
  0
XRECORD
  5
372
102
{ACAD_REACTORS
330
371
102
}
330
371
100
AcDbXrecord
280
     1
290
     1
  0
XRECORD
  5
374
102
{ACAD_REACTORS
330
373
102
}
330
373
100
AcDbXrecord
280
     1
290
     1
  0
XRECORD
  5
376
102
{ACAD_REACTORS
330
375
102
}
330
375
100
AcDbXrecord
280
     1
290
     1
  0
XRECORD
  5
378
102
{ACAD_REACTORS
330
377
102
}
330
377
100
AcDbXrecord
280
     1
290
     1
  0
XRECORD
  5
37A
102
{ACAD_REACTORS
330
379
102
}
330
379
100
AcDbXrecord
280
     1
290
     1
  0
SORTENTSTABLE
  5
2BE
102
{ACAD_REACTORS
330
2BD
102
}
330
2BD
100
AcDbSortentsTable
330
1F
331
1F0
  5
1F0
331
209
  5
209
331
21A
  5
2FD
331
31B
  5
2CC
331
32C
  5
21A
331
154
  5
154
331
143
  5
143
331
132
  5
132
331
121
  5
121
331
110
  5
110
331
33D
  5
2A7
331
165
  5
165
331
34E
  5
347
331
2AB
  5
333
331
1A2
  5
1A2
331
191
  5
191
331
180
  5
180
331
16F
  5
16F
331
D6
  5
D6
331
2BC
  5
344
331
2D3
  5
310
331
1B3
  5
1B3
331
2E4
  5
2DC
331
1C4
  5
1C4
331
2F5
  5
2ED
331
1D5
  5
1D5
331
306
  5
2B5
331
FF
  5
FF
331
E6
  5
E6
331
CD
  5
CD
331
BC
  5
BC
331
A3
  5
A3
331
9D
  5
9D
331
1E0
  5
1E0
331
1F1
  5
1F1
331
31C
  5
2CD
331
144
  5
144
331
133
  5
133
331
122
  5
122
331
111
  5
111
331
100
  5
100
331
32D
  5
21E
331
155
  5
155
331
33E
  5
2A8
331
166
  5
166
331
34F
  5
348
331
2AC
  5
334
331
1A3
  5
1A3
331
192
  5
192
331
181
  5
181
331
170
  5
170
331
D7
  5
D7
331
2D4
  5
311
331
1B4
  5
1B4
331
2E5
  5
2DD
331
1C5
  5
1C5
331
2F6
  5
2EE
331
1D6
  5
1D6
331
307
  5
2B6
331
E7
  5
E7
331
CE
  5
CE
331
BD
  5
BD
331
A4
  5
A4
331
9E
  5
9E
331
85
  5
85
331
308
  5
2B7
331
1E1
  5
1E1
331
1F2
  5
1F2
331
20B
  5
20C
331
31D
  5
2CE
331
32E
  5
21F
331
156
  5
156
331
145
  5
145
331
134
  5
134
331
123
  5
123
331
112
  5
112
331
101
  5
101
331
F0
  5
F0
331
E8
  5
E8
331
33F
  5
2A9
331
200
  5
200
331
29C
  5
324
331
2AD
  5
335
331
1A4
  5
1A4
331
193
  5
193
331
182
  5
182
331
171
  5
171
331
167
  5
167
331
2D5
  5
312
331
1B5
  5
1B5
331
2E6
  5
2DE
331
1C6
  5
1C6
331
2F7
  5
2EF
331
1D7
  5
1D7
331
CF
  5
CF
331
BE
  5
BE
331
A5
  5
A5
331
9F
  5
9F
331
2F8
  5
2F0
331
1D8
  5
1D8
331
309
  5
2B8
331
1E2
  5
1E2
331
1F3
  5
1F3
331
20C
  5
20D
331
31E
  5
2CF
331
146
  5
146
331
135
  5
135
331
124
  5
124
331
113
  5
113
331
102
  5
102
331
F1
  5
F1
331
E9
  5
E9
331
D8
  5
D8
331
32F
  5
220
331
157
  5
157
331
340
  5
2AA
331
201
  5
201
331
29D
  5
325
331
2AE
  5
336
331
1A5
  5
1A5
331
194
  5
194
331
183
  5
183
331
172
  5
172
331
B0
  5
B0
331
2BF
  5
320
331
2D6
  5
313
331
1B6
  5
1B6
331
2E7
  5
2DF
331
1C7
  5
1C7
331
BF
  5
BF
331
A6
  5
A6
331
87
  5
87
331
2C0
  5
31F
331
2E8
  5
2E0
331
1C8
  5
1C8
331
2F9
  5
2F1
331
1D9
  5
1D9
331
30A
  5
2B9
331
1E3
  5
1E3
331
1F4
  5
1F4
331
20D
  5
20F
331
21E
  5
321
331
136
  5
136
331
125
  5
125
331
114
  5
114
331
103
  5
103
331
F2
  5
F2
331
EA
  5
EA
331
D9
  5
D9
331
C0
  5
C0
331
31F
  5
2D0
331
147
  5
147
331
330
  5
22C
331
158
  5
158
331
341
  5
2AB
331
202
  5
202
331
29E
  5
326
331
2AF
  5
337
331
1A6
  5
1A6
331
195
  5
195
331
184
  5
184
331
173
  5
173
331
B1
  5
B1
331
2D7
  5
314
331
1B7
  5
1B7
331
A7
  5
A7
331
88
  5
88
331
6F
  5
6F
331
2B0
  5
338
331
2D8
  5
315
331
2C1
  5
2FE
331
1B8
  5
1B8
331
2E9
  5
2E1
331
1C9
  5
1C9
331
2FA
  5
2F2
331
1DA
  5
1DA
331
30B
  5
2BA
331
1E4
  5
1E4
331
1F5
  5
1F5
331
21F
  5
322
331
320
  5
2D1
331
148
  5
148
331
137
  5
137
331
126
  5
126
331
115
  5
115
331
104
  5
104
331
F3
  5
F3
331
EB
  5
EB
331
DA
  5
DA
331
C1
  5
C1
331
A8
  5
A8
331
331
  5
237
331
159
  5
159
331
342
  5
2AC
331
203
  5
203
331
29F
  5
327
331
1A7
  5
1A7
331
196
  5
196
331
185
  5
185
331
174
  5
174
331
B2
  5
B2
331
89
  5
89
331
2A0
  5
328
331
2B1
  5
339
331
2C8
  5
305
331
1A8
  5
1A8
331
2D9
  5
316
331
2C2
  5
2FF
331
1B9
  5
1B9
331
2EA
  5
2E2
331
1CA
  5
1CA
331
2FB
  5
2F3
331
1DB
  5
1DB
331
30C
  5
2BB
331
1E5
  5
1E5
331
1F6
  5
1F6
331
20F
  5
2B0
331
310
  5
2C1
331
138
  5
138
331
127
  5
127
331
116
  5
116
331
105
  5
105
331
F4
  5
F4
331
EC
  5
EC
331
DB
  5
DB
331
C2
  5
C2
331
A9
  5
A9
331
90
  5
90
331
321
  5
2D2
331
149
  5
149
331
332
  5
29C
331
15A
  5
15A
331
343
  5
2AD
331
204
  5
204
331
197
  5
197
331
186
  5
186
331
175
  5
175
331
B3
  5
B3
331
8A
  5
8A
331
71
  5
71
331
220
  5
323
331
2A1
  5
329
331
198
  5
198
331
2B2
  5
33A
331
2C9
  5
306
331
1A9
  5
1A9
331
2DA
  5
317
331
2C3
  5
300
331
1BA
  5
1BA
331
2EB
  5
2E3
331
1CB
  5
1CB
331
2FC
  5
2F4
331
1DC
  5
1DC
331
30D
  5
2BC
331
1E6
  5
1E6
331
1F7
  5
1F7
331
210
  5
2B1
331
311
  5
2C2
331
139
  5
139
331
128
  5
128
331
117
  5
117
331
106
  5
106
331
F5
  5
F5
331
ED
  5
ED
331
DC
  5
DC
331
C3
  5
C3
331
AA
  5
AA
331
91
  5
91
331
322
  5
2D3
331
14A
  5
14A
331
333
  5
29D
331
15B
  5
15B
331
344
  5
2AE
331
205
  5
205
331
187
  5
187
331
176
  5
176
331
B4
  5
B4
331
8B
  5
8B
331
72
  5
72
331
2A2
  5
32A
331
199
  5
199
331
188
  5
188
331
2B3
  5
33B
331
2CA
  5
307
331
1AA
  5
1AA
331
2DB
  5
318
331
2C4
  5
301
331
1BB
  5
1BB
331
2EC
  5
2E4
331
1CC
  5
1CC
331
2FD
  5
2F5
331
1DD
  5
1DD
331
30E
  5
2BF
331
1E7
  5
1E7
331
1F8
  5
1F8
331
211
  5
2B2
331
312
  5
2C3
331
13A
  5
13A
331
129
  5
129
331
118
  5
118
331
107
  5
107
331
F6
  5
F6
331
EE
  5
EE
331
DD
  5
DD
331
C4
  5
C4
331
AB
  5
AB
331
92
  5
92
331
323
  5
2D4
331
14B
  5
14B
331
345
  5
2AF
331
334
  5
29E
331
206
  5
206
331
177
  5
177
331
15C
  5
15C
331
8C
  5
8C
331
73
  5
73
331
2A3
  5
32B
331
19A
  5
19A
331
189
  5
189
331
178
  5
178
331
2B4
  5
33C
331
2CB
  5
308
331
1AB
  5
1AB
331
2DC
  5
319
331
2C5
  5
302
331
1BC
  5
1BC
331
2ED
  5
2E5
331
1CD
  5
1CD
331
2FE
  5
2F6
331
1DE
  5
1DE
331
350
  5
349
331
30F
  5
2C0
331
1E8
  5
1E8
331
1F9
  5
1F9
331
313
  5
2C4
331
13B
  5
13B
331
12A
  5
12A
331
119
  5
119
331
108
  5
108
331
F7
  5
F7
331
EF
  5
EF
331
DE
  5
DE
331
C5
  5
C5
331
AC
  5
AC
331
93
  5
93
331
324
  5
2D5
331
14C
  5
14C
331
335
  5
29F
331
15D
  5
15D
331
346
  5
20B
331
B6
  5
B6
331
8D
  5
8D
331
74
  5
74
331
2A4
  5
32C
331
19B
  5
19B
331
18A
  5
18A
331
179
  5
179
331
168
  5
168
331
2B5
  5
33D
331
2CC
  5
309
331
1AC
  5
1AC
331
2DD
  5
31A
331
2C6
  5
303
331
1BD
  5
1BD
331
2EE
  5
2E6
331
1CE
  5
1CE
331
2FF
  5
2F7
331
1DF
  5
1DF
331
351
  5
34A
331
1E9
  5
1E9
331
1FA
  5
1FA
331
314
  5
2C5
331
325
  5
210
331
14D
  5
14D
331
13C
  5
13C
331
12B
  5
12B
331
11A
  5
11A
331
109
  5
109
331
F8
  5
F8
331
DF
  5
DF
331
C6
  5
C6
331
AD
  5
AD
331
94
  5
94
331
336
  5
2A0
331
15E
  5
15E
331
347
  5
34E
331
B7
  5
B7
331
8E
  5
8E
331
348
  5
34F
331
2A5
  5
32D
331
19C
  5
19C
331
18B
  5
18B
331
17A
  5
17A
331
169
  5
169
331
D0
  5
D0
331
2B6
  5
33E
331
2CD
  5
30A
331
1AD
  5
1AD
331
2DE
  5
31B
331
2C7
  5
304
331
1BE
  5
1BE
331
2EF
  5
2E7
331
1CF
  5
1CF
331
300
  5
2F8
331
352
  5
34B
331
1EA
  5
1EA
331
1FB
  5
1FB
331
214
  5
2D7
331
315
  5
2C6
331
326
  5
211
331
337
  5
2A1
331
15F
  5
15F
331
14E
  5
14E
331
13D
  5
13D
331
12C
  5
12C
331
11B
  5
11B
331
10A
  5
10A
331
F9
  5
F9
331
E0
  5
E0
331
C7
  5
C7
331
AE
  5
AE
331
95
  5
95
331
338
  5
2A2
331
160
  5
160
331
349
  5
350
331
2A6
  5
32E
331
19D
  5
19D
331
18C
  5
18C
331
17B
  5
17B
331
16A
  5
16A
331
D1
  5
D1
331
98
  5
98
331
2B7
  5
33F
331
2CE
  5
30B
331
1AE
  5
1AE
331
2DF
  5
31C
331
1BF
  5
1BF
331
2F0
  5
2E8
331
1D0
  5
1D0
331
301
  5
2F9
331
353
  5
34C
331
1EB
  5
1EB
331
1FC
  5
1FC
331
215
  5
2D8
331
316
  5
2C7
331
327
  5
214
331
14F
  5
14F
331
13E
  5
13E
331
12D
  5
12D
331
11C
  5
11C
331
10B
  5
10B
331
FA
  5
FA
331
E1
  5
E1
331
C8
  5
C8
331
AF
  5
AF
331
96
  5
96
331
328
  5
215
331
150
  5
150
331
339
  5
2A3
331
161
  5
161
331
34A
  5
351
331
2A7
  5
32F
331
19E
  5
19E
331
18D
  5
18D
331
17C
  5
17C
331
16B
  5
16B
331
D2
  5
D2
331
99
  5
99
331
2B8
  5
340
331
2CF
  5
30C
331
1AF
  5
1AF
331
2E0
  5
31D
331
1C0
  5
1C0
331
2F1
  5
2E9
331
1D1
  5
1D1
331
302
  5
2FA
331
354
  5
34D
331
1EC
  5
1EC
331
1FD
  5
1FD
331
216
  5
2D9
331
317
  5
2C8
331
13F
  5
13F
331
12E
  5
12E
331
11D
  5
11D
331
10C
  5
10C
331
FB
  5
FB
331
E2
  5
E2
331
C9
  5
C9
331
B8
  5
B8
331
97
  5
97
331
318
  5
2C9
331
329
  5
216
331
151
  5
151
331
140
  5
140
331
33A
  5
2A4
331
162
  5
162
331
34B
  5
352
331
2A8
  5
330
331
19F
  5
19F
331
18E
  5
18E
331
17D
  5
17D
331
16C
  5
16C
331
D3
  5
D3
331
2B9
  5
341
331
2D0
  5
30D
331
1B0
  5
1B0
331
2E1
  5
31E
331
1C1
  5
1C1
331
2F2
  5
2EA
331
1D2
  5
1D2
331
303
  5
2D6
331
1ED
  5
1ED
331
1FE
  5
1FE
331
12F
  5
12F
331
11E
  5
11E
331
10D
  5
10D
331
FC
  5
FC
331
E3
  5
E3
331
CA
  5
CA
331
B9
  5
B9
331
A0
  5
A0
331
9A
  5
9A
331
218
  5
2FB
331
319
  5
2CA
331
32A
  5
218
331
152
  5
152
331
141
  5
141
331
130
  5
130
331
34C
  5
353
331
33B
  5
2A5
331
2A9
  5
331
331
1A0
  5
1A0
331
18F
  5
18F
331
17E
  5
17E
331
16D
  5
16D
331
163
  5
163
331
2BA
  5
342
331
2D1
  5
30E
331
1B1
  5
1B1
331
2E2
  5
2DA
331
1C2
  5
1C2
331
2F3
  5
2EB
331
1D3
  5
1D3
331
304
  5
2B3
331
1EE
  5
1EE
331
1FF
  5
1FF
331
11F
  5
11F
331
10E
  5
10E
331
FD
  5
FD
331
E4
  5
E4
331
CB
  5
CB
331
BA
  5
BA
331
A1
  5
A1
331
9B
  5
9B
331
208
  5
208
331
219
  5
2FC
331
31A
  5
2CB
331
32B
  5
219
331
33C
  5
2A6
331
164
  5
164
331
153
  5
153
331
142
  5
142
331
131
  5
131
331
120
  5
120
331
34D
  5
354
331
2AA
  5
332
331
1A1
  5
1A1
331
190
  5
190
331
17F
  5
17F
331
16E
  5
16E
331
D5
  5
D5
331
2BB
  5
343
331
2D2
  5
30F
331
1B2
  5
1B2
331
2E3
  5
2DB
331
1C3
  5
1C3
331
2F4
  5
2EC
331
1D4
  5
1D4
331
305
  5
2B4
331
1EF
  5
1EF
331
10F
  5
10F
331
FE
  5
FE
331
E5
  5
E5
331
CC
  5
CC
331
BB
  5
BB
331
A2
  5
A2
  0
ACDBDETAILVIEWSTYLE
  5
296
102
{ACAD_XDICTIONARY
360
3C1
102
}
102
{ACAD_REACTORS
330
295
102
}
330
295
100
AcDbModelDocViewStyle
 70
     0
  3
Metric50
290
     0
100
AcDbDetailViewStyle
 70
     0
 71
     0
 90
        3
 71
     1
340
11
 40
5.0
340
0
 40
5.0
300

 40
0.0
280
     1
 71
     2
340
16
 90
       25
 71
     3
340
11
 40
5.0
 90
        0
 40
15.0
 90
        1
300
%<\AcVar ViewDetailId>% (%<\AcVar ViewScale \f "%sn">%)
 71
     4
340
16
 90
       25
340
16
 90
       25
280
     0
  0
GROUP
  5
238
102
{ACAD_REACTORS
330
D
102
}
330
D
100
AcDbGroup
300

 70
     0
 71
     1
340
F9
340
FA
  0
GROUP
  5
239
102
{ACAD_REACTORS
330
D
102
}
330
D
100
AcDbGroup
300

 70
     0
 71
     1
340
FB
340
FC
  0
GROUP
  5
23A
102
{ACAD_REACTORS
330
D
102
}
330
D
100
AcDbGroup
300

 70
     0
 71
     1
340
FD
340
FE
340
FF
  0
GROUP
  5
23B
102
{ACAD_REACTORS
330
D
102
}
330
D
100
AcDbGroup
300

 70
     0
 71
     1
340
106
340
107
340
108
  0
GROUP
  5
23C
102
{ACAD_REACTORS
330
D
102
}
330
D
100
AcDbGroup
300

 70
     0
 71
     1
340
10F
340
110
  0
LAYOUT
  5
1E
102
{ACAD_XDICTIONARY
360
387
102
}
102
{ACAD_REACTORS
330
1A
102
}
330
1A
100
AcDbPlotSettings
  1

  2
none_device
  4

  6

 40
0.0
 41
0.0
 42
0.0
 43
0.0
 44
0.0
 45
0.0
 46
0.0
 47
0.0
 48
0.0
 49
0.0
140
0.0
141
0.0
142
1.0
143
1.0
 70
   688
 72
     0
 73
     0
 74
     5
  7

 75
    16
147
1.0
148
0.0
149
0.0
100
AcDbLayout
  1
Layout1
 70
     1
 71
     1
 10
-0.5
 20
-0.5
 11
5.0
 21
5.0
 12
0.0
 22
0.0
 32
0.0
 14
-0.5
 24
-0.5
 34
-0.5
 15
5.0
 25
5.0
 35
5.0
146
0.0
 13
0.0
 23
0.0
 33
0.0
 16
1.0
 26
0.0
 36
0.0
 17
0.0
 27
1.0
 37
0.0
 76
     0
330
1B
  0
LAYOUT
  5
26
102
{ACAD_XDICTIONARY
360
38B
102
}
102
{ACAD_REACTORS
330
1A
102
}
330
1A
100
AcDbPlotSettings
  1

  2
none_device
  4

  6

 40
0.0
 41
0.0
 42
0.0
 43
0.0
 44
0.0
 45
0.0
 46
0.0
 47
0.0
 48
0.0
 49
0.0
140
0.0
141
0.0
142
1.0
143
1.0
 70
   688
 72
     0
 73
     0
 74
     5
  7

 75
    16
147
1.0
148
0.0
149
0.0
100
AcDbLayout
  1
Layout2
 70
     1
 71
     2
 10
0.0
 20
0.0
 11
0.0
 21
0.0
 12
0.0
 22
0.0
 32
0.0
 14
0.0
 24
0.0
 34
0.0
 15
0.0
 25
0.0
 35
0.0
146
0.0
 13
0.0
 23
0.0
 33
0.0
 16
1.0
 26
0.0
 36
0.0
 17
0.0
 27
1.0
 37
0.0
 76
     0
330
23
  0
LAYOUT
  5
22
102
{ACAD_XDICTIONARY
360
389
102
}
102
{ACAD_REACTORS
330
1A
102
}
330
1A
100
AcDbPlotSettings
  1

  2
none_device
  4
Letter_(8.50_x_11.00_Inches)
  6

 40
6.349999999999999
 41
6.349999999999999
 42
6.350005
 43
6.350005
 44
215.9
 45
279.4
 46
0.0
 47
0.0
 48
0.0
 49
0.0
140
0.0
141
0.0
142
1.0
143
1.0
 70
  1712
 72
     0
 73
     0
 74
     0
  7

 75
     0
147
1.0
148
0.0
149
0.0
100
AcDbLayout
  1
Model
 70
     1
 71
     0
 10
-0.5
 20
-0.5
 11
5.0
 21
5.0
 12
0.0
 22
0.0
 32
0.0
 14
-0.5
 24
-0.5
 34
-0.5
 15
5.0
 25
5.0
 35
5.0
146
0.0
 13
0.0
 23
0.0
 33
0.0
 16
1.0
 26
0.0
 36
0.0
 17
0.0
 27
1.0
 37
0.0
 76
     0
330
1F
331
23D
  0
MATERIAL
  5
45
102
{ACAD_XDICTIONARY
360
289
102
}
102
{ACAD_REACTORS
330
43
102
}
330
43
100
AcDbMaterial
  1
ByBlock
  0
MATERIAL
  5
44
102
{ACAD_XDICTIONARY
360
287
102
}
102
{ACAD_REACTORS
330
43
102
}
330
43
100
AcDbMaterial
  1
ByLayer
  0
MATERIAL
  5
46
102
{ACAD_XDICTIONARY
360
28B
102
}
102
{ACAD_REACTORS
330
43
102
}
330
43
100
AcDbMaterial
  1
Global
  0
MLEADERSTYLE
  5
292
102
{ACAD_REACTORS
330
250
102
}
330
250
100
AcDbMLeaderStyle
170
     2
171
     1
172
     0
 90
        2
 40
0.0
 41
0.0
173
     1
 91
-1056964608
340
14
 92
       -2
290
     1
 42
2.0
291
     1
 43
0.36
  3
Standard
 44
4.0
300

342
11
174
     1
178
     6
175
     1
176
     0
 93
-1056964608
 45
4.0
292
     0
297
     0
 46
4.0
 94
-1056964608
 47
1.0
 49
1.0
140
1.0
293
     1
141
0.0
294
     1
177
     0
142
1.0
295
     0
296
     0
143
0.125
1001
ACAD_MLEADERVER
1070
     2
  0
MLINESTYLE
  5
18
102
{ACAD_REACTORS
330
17
102
}
330
17
100
AcDbMlineStyle
  2
STANDARD
 70
     0
  3

 62
   256
 51
90.0
 52
90.0
 71
     2
 49
0.5
 62
   256
  6
BYLAYER
 49
-0.5
 62
   256
  6
BYLAYER
  0
ACDBPLACEHOLDER
  5
F
102
{ACAD_REACTORS
330
E
102
}
330
E
  0
SCALE
  5
48
102
{ACAD_REACTORS
330
47
102
}
330
47
100
AcDbScale
 70
     0
300
1:1
140
1.0
141
1.0
290
     1
  0
SCALE
  5
49
102
{ACAD_REACTORS
330
47
102
}
330
47
100
AcDbScale
 70
     0
300
1:2
140
1.0
141
2.0
290
     0
  0
SCALE
  5
4A
102
{ACAD_REACTORS
330
47
102
}
330
47
100
AcDbScale
 70
     0
300
1:4
140
1.0
141
4.0
290
     0
  0
SCALE
  5
4B
102
{ACAD_REACTORS
330
47
102
}
330
47
100
AcDbScale
 70
     0
300
1:5
140
1.0
141
5.0
290
     0
  0
SCALE
  5
4C
102
{ACAD_REACTORS
330
47
102
}
330
47
100
AcDbScale
 70
     0
300
1:8
140
1.0
141
8.0
290
     0
  0
SCALE
  5
4D
102
{ACAD_REACTORS
330
47
102
}
330
47
100
AcDbScale
 70
     0
300
1:10
140
1.0
141
10.0
290
     0
  0
SCALE
  5
4E
102
{ACAD_REACTORS
330
47
102
}
330
47
100
AcDbScale
 70
     0
300
1:16
140
1.0
141
16.0
290
     0
  0
SCALE
  5
4F
102
{ACAD_REACTORS
330
47
102
}
330
47
100
AcDbScale
 70
     0
300
1:20
140
1.0
141
20.0
290
     0
  0
SCALE
  5
50
102
{ACAD_REACTORS
330
47
102
}
330
47
100
AcDbScale
 70
     0
300
1:30
140
1.0
141
30.0
290
     0
  0
SCALE
  5
51
102
{ACAD_REACTORS
330
47
102
}
330
47
100
AcDbScale
 70
     0
300
1:40
140
1.0
141
40.0
290
     0
  0
SCALE
  5
52
102
{ACAD_REACTORS
330
47
102
}
330
47
100
AcDbScale
 70
     0
300
1:50
140
1.0
141
50.0
290
     0
  0
SCALE
  5
53
102
{ACAD_REACTORS
330
47
102
}
330
47
100
AcDbScale
 70
     0
300
1:100
140
1.0
141
100.0
290
     0
  0
SCALE
  5
54
102
{ACAD_REACTORS
330
47
102
}
330
47
100
AcDbScale
 70
     0
300
2:1
140
2.0
141
1.0
290
     0
  0
SCALE
  5
55
102
{ACAD_REACTORS
330
47
102
}
330
47
100
AcDbScale
 70
     0
300
4:1
140
4.0
141
1.0
290
     0
  0
SCALE
  5
56
102
{ACAD_REACTORS
330
47
102
}
330
47
100
AcDbScale
 70
     0
300
8:1
140
8.0
141
1.0
290
     0
  0
SCALE
  5
57
102
{ACAD_REACTORS
330
47
102
}
330
47
100
AcDbScale
 70
     0
300
10:1
140
10.0
141
1.0
290
     0
  0
SCALE
  5
58
102
{ACAD_REACTORS
330
47
102
}
330
47
100
AcDbScale
 70
     0
300
100:1
140
100.0
141
1.0
290
     0
  0
SCALE
  5
59
102
{ACAD_REACTORS
330
47
102
}
330
47
100
AcDbScale
 70
     0
300
1/128" = 1'-0"
140
0.007812
141
12.0
290
     0
  0
SCALE
  5
5A
102
{ACAD_REACTORS
330
47
102
}
330
47
100
AcDbScale
 70
     0
300
1/64" = 1'-0"
140
0.015625
141
12.0
290
     0
  0
SCALE
  5
5B
102
{ACAD_REACTORS
330
47
102
}
330
47
100
AcDbScale
 70
     0
300
1/32" = 1'-0"
140
0.03125
141
12.0
290
     0
  0
SCALE
  5
5C
102
{ACAD_REACTORS
330
47
102
}
330
47
100
AcDbScale
 70
     0
300
1/16" = 1'-0"
140
0.0625
141
12.0
290
     0
  0
SCALE
  5
5D
102
{ACAD_REACTORS
330
47
102
}
330
47
100
AcDbScale
 70
     0
300
3/32" = 1'-0"
140
0.09375
141
12.0
290
     0
  0
SCALE
  5
5E
102
{ACAD_REACTORS
330
47
102
}
330
47
100
AcDbScale
 70
     0
300
1/8" = 1'-0"
140
0.125
141
12.0
290
     0
  0
SCALE
  5
5F
102
{ACAD_REACTORS
330
47
102
}
330
47
100
AcDbScale
 70
     0
300
3/16" = 1'-0"
140
0.1875
141
12.0
290
     0
  0
SCALE
  5
60
102
{ACAD_REACTORS
330
47
102
}
330
47
100
AcDbScale
 70
     0
300
1/4" = 1'-0"
140
0.25
141
12.0
290
     0
  0
SCALE
  5
61
102
{ACAD_REACTORS
330
47
102
}
330
47
100
AcDbScale
 70
     0
300
3/8" = 1'-0"
140
0.375
141
12.0
290
     0
  0
SCALE
  5
62
102
{ACAD_REACTORS
330
47
102
}
330
47
100
AcDbScale
 70
     0
300
1/2" = 1'-0"
140
0.5
141
12.0
290
     0
  0
SCALE
  5
63
102
{ACAD_REACTORS
330
47
102
}
330
47
100
AcDbScale
 70
     0
300
3/4" = 1'-0"
140
0.75
141
12.0
290
     0
  0
SCALE
  5
64
102
{ACAD_REACTORS
330
47
102
}
330
47
100
AcDbScale
 70
     0
300
1" = 1'-0"
140
1.0
141
12.0
290
     0
  0
SCALE
  5
65
102
{ACAD_REACTORS
330
47
102
}
330
47
100
AcDbScale
 70
     0
300
1-1/2" = 1'-0"
140
1.5
141
12.0
290
     0
  0
SCALE
  5
66
102
{ACAD_REACTORS
330
47
102
}
330
47
100
AcDbScale
 70
     0
300
3" = 1'-0"
140
3.0
141
12.0
290
     0
  0
SCALE
  5
67
102
{ACAD_REACTORS
330
47
102
}
330
47
100
AcDbScale
 70
     0
300
6" = 1'-0"
140
6.0
141
12.0
290
     0
  0
SCALE
  5
68
102
{ACAD_REACTORS
330
47
102
}
330
47
100
AcDbScale
 70
     0
300
1'-0" = 1'-0"
140
12.0
141
12.0
290
     0
  0
ACDBSECTIONVIEWSTYLE
  5
294
102
{ACAD_XDICTIONARY
360
3BF
102
}
102
{ACAD_REACTORS
330
293
102
}
330
293
100
AcDbModelDocViewStyle
 70
     0
  3
Metric50
290
     0
100
AcDbSectionViewStyle
 70
     0
 71
     0
 90
      102
 71
     1
340
11
 40
5.0
340
0
340
0
 40
5.0
300
I, O, Q, S, X, Z
 40
10.0
 90
        0
 40
2.5
 90
        0
 71
     2
340
16
 90
       25
340
16
 90
       50
 40
5.0
 40
2.5
 40
5.0
 71
     3
340
11
 40
5.0
 90
        0
 40
15.0
 90
        1
300
%<\AcVar ViewSectionStartId>%-%<\AcVar ViewSectionEndId>% (%<\AcVar ViewScale \f "%sn">%)
 71
     4
300
ANSI31
 40
1.0
 90
        0
290
     0
290
     0
 90
        6
 40
0.0
 40
1.570796326794896
 40
0.2617993877991494
 40
1.308996938995747
 40
-0.2617993877991494
 40
1.832595714594046
  0
TABLESTYLE
  5
291
102
{ACAD_XDICTIONARY
360
383
102
}
102
{ACAD_REACTORS
330
290
102
}
330
290
100
AcDbTableStyle
  3
Standard
 70
     0
 71
     0
 40
1.5
 41
1.5
280
     0
281
     0
  7
Standard
140
4.5
170
     2
 62
     0
 63
     7
283
     0
274
    -2
284
     1
 64
     0
275
    -2
285
     1
 65
     0
276
    -2
286
     1
 66
     0
277
    -2
287
     1
 67
     0
278
    -2
288
     1
 68
     0
279
    -2
289
     1
 69
     0
  7
Standard
140
6.0
170
     5
 62
     0
 63
     7
283
     0
274
    -2
284
     1
 64
     0
275
    -2
285
     1
 65
     0
276
    -2
286
     1
 66
     0
277
    -2
287
     1
 67
     0
278
    -2
288
     1
 68
     0
279
    -2
289
     1
 69
     0
  7
Standard
140
4.5
170
     5
 62
     0
 63
     7
283
     0
274
    -2
284
     1
 64
     0
275
    -2
285
     1
 65
     0
276
    -2
286
     1
 66
     0
277
    -2
287
     1
 67
     0
278
    -2
288
     1
 68
     0
279
    -2
289
     1
 69
     0
  0
VISUALSTYLE
  5
2F
102
{ACAD_XDICTIONARY
360
395
102
}
102
{ACAD_REACTORS
330
2A
102
}
330
2A
100
AcDbVisualStyle
  2

 70
     4
 71
     0
 72
     2
 73
     0
 90
        0
 40
-0.6
 41
-30.0
 62
     5
 63
     7
 74
     1
 91
        4
 64
     7
 65
   257
 75
     1
175
     1
 42
1.0
 92
        0
 66
   257
 43
1.0
 76
     1
 77
     6
 78
     2
 67
     7
 79
     5
170
     0
171
     0
290
     0
174
     0
 93
        1
 44
0.0
173
     0
291
     0
 45
0.0
1001
ACAD
1000
AcDbSavedByObjectVersion
1070
     0
  0
VISUALSTYLE
  5
32
102
{ACAD_XDICTIONARY
360
39B
102
}
102
{ACAD_REACTORS
330
2A
102
}
330
2A
100
AcDbVisualStyle
  2

 70
     7
 71
     1
 72
     0
 73
     1
 90
        0
 40
-0.6
 41
-30.0
 62
     5
 63
     7
 74
     0
 91
        4
 64
     7
 65
   257
 75
     1
175
     1
 42
1.0
 92
        8
 66
     7
 43
1.0
 76
     1
 77
     6
 78
     2
 67
     7
 79
     5
170
     0
171
     0
290
     0
174
     0
 93
        1
 44
0.0
173
     0
291
     1
 45
0.0
1001
ACAD
1000
AcDbSavedByObjectVersion
1070
     0
  0
VISUALSTYLE
  5
36
102
{ACAD_XDICTIONARY
360
3A3
102
}
102
{ACAD_REACTORS
330
2A
102
}
330
2A
100
AcDbVisualStyle
  2

 70
    12
 71
     2
 72
     2
 73
     0
 90
        0
 40
-0.6
 41
-30.0
 62
     5
 63
     7
 74
     1
 91
        4
 64
     7
 65
   257
 75
     1
175
     1
 42
1.0
 92
        8
 66
     7
 43
1.0
 76
     1
 77
     6
 78
     2
 67
     7
 79
     5
170
     0
171
     0
290
     0
174
     0
 93
        1
 44
50.0
173
     0
291
     1
 45
0.0
1001
ACAD
1000
AcDbSavedByObjectVersion
1070
     0
  0
VISUALSTYLE
  5
3A
102
{ACAD_XDICTIONARY
360
3AB
102
}
102
{ACAD_REACTORS
330
2A
102
}
330
2A
100
AcDbVisualStyle
  2

 70
    16
 71
     2
 72
     2
 73
     3
 90
        0
 40
-0.6
 41
-30.0
 62
     5
 63
     8
 74
     1
 91
        4
 64
     7
 65
   257
 75
     1
175
     1
 42
1.0
 92
        8
 66
     8
 43
1.0
 76
     1
 77
     6
 78
     2
 67
     7
 79
     5
170
     0
171
     0
290
     0
174
     0
 93
        1
 44
0.0
173
     0
291
     1
 45
0.0
1001
ACAD
1000
AcDbSavedByObjectVersion
1070
     0
  0
VISUALSTYLE
  5
34
102
{ACAD_XDICTIONARY
360
39F
102
}
102
{ACAD_REACTORS
330
2A
102
}
330
2A
100
AcDbVisualStyle
  2

 70
     9
 71
     3
 72
     2
 73
     0
 90
        0
 40
-0.6
 41
-30.0
 62
     5
 63
     7
 74
     2
 91
        2
 64
     7
 65
   257
 75
     1
175
     1
 42
179.0
 92
        8
 66
     7
 43
1.0
 76
     1
 77
     6
 78
     2
 67
     7
 79
     3
170
     0
171
     0
290
     0
174
     0
 93
        1
 44
0.0
173
     0
291
     0
 45
0.0
1001
ACAD
1000
AcDbSavedByObjectVersion
1070
     0
  0
VISUALSTYLE
  5
35
102
{ACAD_XDICTIONARY
360
3A1
102
}
102
{ACAD_REACTORS
330
2A
102
}
330
2A
100
AcDbVisualStyle
  2

 70
    11
 71
     2
 72
     2
 73
     0
 90
        0
 40
-0.6
 41
-30.0
 62
     5
 63
     7
 74
     1
 91
        4
 64
     7
 65
   257
 75
     1
175
     1
 42
1.0
 92
        8
 66
     7
 43
1.0
 76
     1
 77
     6
 78
     2
 67
     7
 79
     5
170
     0
171
     0
290
     0
174
     0
 93
        1
 44
-50.0
173
     0
291
     1
 45
0.0
1001
ACAD
1000
AcDbSavedByObjectVersion
1070
     0
  0
VISUALSTYLE
  5
3D
102
{ACAD_XDICTIONARY
360
3B1
102
}
102
{ACAD_REACTORS
330
2A
102
}
330
2A
100
AcDbVisualStyle
  2

 70
    22
 71
     2
 72
     2
 73
     0
 90
        0
 40
-0.6
 41
-30.0
 62
     5
 63
     7
 74
     1
 91
        4
 64
     7
 65
   257
 75
     1
175
     1
 42
1.0
 92
        8
 66
     7
 43
1.0
 76
     1
 77
     6
 78
     2
 67
     7
 79
     5
170
     0
171
     0
290
     0
174
     0
 93
        1
 44
0.0
173
     0
291
     1
 45
0.0
1001
ACAD
1000
AcDbSavedByObjectVersion
1070
     0
  0
VISUALSTYLE
  5
39
102
{ACAD_XDICTIONARY
360
3A9
102
}
102
{ACAD_REACTORS
330
2A
102
}
330
2A
100
AcDbVisualStyle
  2

 70
    15
 71
     2
 72
     2
 73
     0
 90
        0
 40
-0.6
 41
-30.0
 62
     5
 63
     7
 74
     1
 91
        4
 64
     7
 65
   257
 75
     1
175
     1
 42
1.0
 92
        8
 66
     7
 43
1.0
 76
     1
 77
     6
 78
     2
 67
     7
 79
     5
170
     0
171
     0
290
     0
174
     0
 93
        1
 44
0.0
173
     0
291
     1
 45
0.0
1001
ACAD
1000
AcDbSavedByObjectVersion
1070
     0
  0
VISUALSTYLE
  5
2B
102
{ACAD_XDICTIONARY
360
38D
102
}
102
{ACAD_REACTORS
330
2A
102
}
330
2A
100
AcDbVisualStyle
  2

 70
     0
 71
     2
 72
     1
 73
     1
 90
        2
 40
-0.6
 41
30.0
 62
     5
 63
     7
 74
     0
 91
        0
 64
     7
 65
   257
 75
     1
175
     1
 42
1.0
 92
        8
 66
     7
 43
1.0
 76
     1
 77
     6
 78
     2
 67
     7
 79
     5
170
     0
171
     0
290
     0
174
     0
 93
       13
 44
0.0
173
     0
291
     1
 45
0.0
1001
ACAD
1000
AcDbSavedByObjectVersion
1070
     0
  0
VISUALSTYLE
  5
2C
102
{ACAD_XDICTIONARY
360
38F
102
}
102
{ACAD_REACTORS
330
2A
102
}
330
2A
100
AcDbVisualStyle
  2

 70
     1
 71
     2
 72
     1
 73
     1
 90
        2
 40
-0.6
 41
30.0
 62
     5
 63
     7
 74
     1
 91
        0
 64
     7
 65
   257
 75
     1
175
     1
 42
1.0
 92
        0
 66
   257
 43
1.0
 76
     1
 77
     6
 78
     2
 67
     7
 79
     5
170
     0
171
     0
290
     0
174
     0
 93
       13
 44
0.0
173
     0
291
     1
 45
0.0
1001
ACAD
1000
AcDbSavedByObjectVersion
1070
     0
  0
VISUALSTYLE
  5
2D
102
{ACAD_XDICTIONARY
360
391
102
}
102
{ACAD_REACTORS
330
2A
102
}
330
2A
100
AcDbVisualStyle
  2

 70
     2
 71
     2
 72
     2
 73
     1
 90
        2
 40
-0.6
 41
30.0
 62
     5
 63
     7
 74
     0
 91
        0
 64
     7
 65
   257
 75
     1
175
     1
 42
1.0
 92
        0
 66
     7
 43
1.0
 76
     1
 77
     6
 78
     2
 67
     7
 79
     5
170
     0
171
     0
290
     0
174
     0
 93
       13
 44
0.0
173
     0
291
     1
 45
0.0
1001
ACAD
1000
AcDbSavedByObjectVersion
1070
     0
  0
VISUALSTYLE
  5
2E
102
{ACAD_XDICTIONARY
360
393
102
}
102
{ACAD_REACTORS
330
2A
102
}
330
2A
100
AcDbVisualStyle
  2

 70
     3
 71
     2
 72
     2
 73
     1
 90
        2
 40
-0.6
 41
30.0
 62
     5
 63
     7
 74
     1
 91
        0
 64
     7
 65
   257
 75
     1
175
     1
 42
1.0
 92
        0
 66
   257
 43
1.0
 76
     1
 77
     6
 78
     2
 67
     7
 79
     5
170
     0
171
     0
290
     0
174
     0
 93
       13
 44
0.0
173
     0
291
     1
 45
0.0
1001
ACAD
1000
AcDbSavedByObjectVersion
1070
     0
  0
VISUALSTYLE
  5
31
102
{ACAD_XDICTIONARY
360
399
102
}
102
{ACAD_REACTORS
330
2A
102
}
330
2A
100
AcDbVisualStyle
  2

 70
     6
 71
     1
 72
     2
 73
     2
 90
        0
 40
-0.6
 41
-30.0
 62
     5
 63
     7
 74
     2
 91
        2
 64
     7
 65
   257
 75
     2
175
     1
 42
40.0
 92
        0
 66
   257
 43
1.0
 76
     1
 77
     6
 78
     2
 67
     7
 79
     3
170
     0
171
     0
290
     0
174
     0
 93
        1
 44
0.0
173
     0
291
     0
 45
0.0
1001
ACAD
1000
AcDbSavedByObjectVersion
1070
     0
  0
VISUALSTYLE
  5
3B
102
{ACAD_XDICTIONARY
360
3AD
102
}
102
{ACAD_REACTORS
330
2A
102
}
330
2A
100
AcDbVisualStyle
  2

 70
    20
 71
     2
 72
     2
 73
     0
 90
        0
 40
-0.6
 41
-30.0
 62
     5
 63
     7
 74
     1
 91
        4
 64
     7
 65
   257
 75
     1
175
     1
 42
1.0
 92
       10
 66
     7
 43
1.0
 76
     1
 77
     6
 78
     2
 67
     7
 79
     5
170
     0
171
     0
290
     0
174
     0
 93
        1
 44
0.0
173
     0
291
     1
 45
0.0
1001
ACAD
1000
AcDbSavedByObjectVersion
1070
     0
  0
VISUALSTYLE
  5
38
102
{ACAD_XDICTIONARY
360
3A7
102
}
102
{ACAD_REACTORS
330
2A
102
}
330
2A
100
AcDbVisualStyle
  2

 70
    14
 71
     2
 72
     2
 73
     0
 90
        0
 40
-0.6
 41
-30.0
 62
     5
 63
     7
 74
     1
 91
        4
 64
     7
 65
   257
 75
     7
175
     7
 42
1.0
 92
        8
 66
     7
 43
1.0
 76
     1
 77
     6
 78
     2
 67
     7
 79
     5
170
     0
171
     0
290
     0
174
     0
 93
        1
 44
0.0
173
     0
291
     1
 45
0.0
1001
ACAD
1000
AcDbSavedByObjectVersion
1070
     0
  0
VISUALSTYLE
  5
3C
102
{ACAD_XDICTIONARY
360
3AF
102
}
102
{ACAD_REACTORS
330
2A
102
}
330
2A
100
AcDbVisualStyle
  2

 70
    21
 71
     2
 72
     2
 73
     0
 90
        0
 40
-0.6
 41
-30.0
 62
     5
 63
     7
 74
     1
 91
        4
 64
     7
 65
   257
 75
     1
175
     1
 42
1.0
 92
        9
 66
     7
 43
1.0
 76
     1
 77
     6
 78
     2
 67
     7
 79
     5
170
     0
171
     0
290
     0
174
     0
 93
        1
 44
0.0
173
     0
291
     1
 45
0.0
1001
ACAD
1000
AcDbSavedByObjectVersion
1070
     0
  0
VISUALSTYLE
  5
33
102
{ACAD_XDICTIONARY
360
39D
102
}
102
{ACAD_REACTORS
330
2A
102
}
330
2A
100
AcDbVisualStyle
  2

 70
     8
 71
     2
 72
     3
 73
     0
 90
        2
 40
-0.6
 41
30.0
 62
     5
 63
     7
 74
     0
 91
        0
 64
     7
 65
   257
 75
     1
175
     1
 42
1.0
 92
        8
 66
   257
 43
1.0
 76
     1
 77
     6
 78
     2
 67
     7
 79
     3
170
     0
171
     0
290
     0
174
     0
 93
       13
 44
0.0
173
     0
291
     0
 45
0.0
1001
ACAD
1000
AcDbSavedByObjectVersion
1070
     0
  0
VISUALSTYLE
  5
42
102
{ACAD_XDICTIONARY
360
3BB
102
}
102
{ACAD_REACTORS
330
2A
102
}
330
2A
100
AcDbVisualStyle
  2

 70
    27
 71
     2
 72
     2
 73
     1
 90
        2
 40
-0.6
 41
30.0
 62
     5
 63
     7
 74
     0
 91
        4
 64
     7
 65
   257
 75
     1
175
     1
 42
1.0
 92
        8
 66
   257
 43
1.0
 76
     1
 77
     6
 78
     2
 67
     8
 79
     3
170
     0
171
     0
290
     0
174
     0
 93
        5
 44
0.0
173
     0
291
     0
 45
0.0
1001
ACAD
1000
AcDbSavedByObjectVersion
1070
     0
  0
VISUALSTYLE
  5
41
102
{ACAD_XDICTIONARY
360
3B9
102
}
102
{ACAD_REACTORS
330
2A
102
}
330
2A
100
AcDbVisualStyle
  2

 70
    26
 71
     2
 72
     2
 73
     1
 90
        2
 40
-0.6
 41
30.0
 62
     5
 63
     7
 74
     1
 91
       10
 64
     7
 65
   257
 75
     2
175
     1
 42
1.0
 92
        8
 66
   257
 43
1.0
 76
     1
 77
     6
 78
     2
 67
     7
 79
     3
170
     0
171
     0
290
     0
174
     0
 93
        5
 44
0.0
173
     0
291
     0
 45
0.0
1001
ACAD
1000
AcDbSavedByObjectVersion
1070
     0
  0
VISUALSTYLE
  5
3E
102
{ACAD_XDICTIONARY
360
3B3
102
}
102
{ACAD_REACTORS
330
2A
102
}
330
2A
100
AcDbVisualStyle
  2

 70
    23
 71
     2
 72
     2
 73
     3
 90
        0
 40
-0.6
 41
-30.0
 62
     5
 63
     7
 74
     2
 91
        2
 64
     7
 65
     7
 75
     1
175
     1
 42
40.0
 92
        8
 66
     7
 43
1.0
 76
     1
 77
     6
 78
     2
 67
     7
 79
     3
170
     0
171
     0
290
     0
174
     0
 93
        1
 44
0.0
173
     0
291
     0
 45
0.0
1001
ACAD
1000
AcDbSavedByObjectVersion
1070
     0
  0
VISUALSTYLE
  5
3F
102
{ACAD_XDICTIONARY
360
3B5
102
}
102
{ACAD_REACTORS
330
2A
102
}
330
2A
100
AcDbVisualStyle
  2

 70
    24
 71
     1
 72
     2
 73
     2
 90
        0
 40
-0.6
 41
-30.0
 62
     5
 63
     7
 74
     2
 91
        2
 64
     7
 65
     7
 75
     1
175
     1
 42
40.0
 92
       11
 66
     7
 43
1.0
 76
     1
 77
     6
 78
     2
 67
     7
 79
     6
170
     0
171
     0
290
     0
174
     0
 93
        1
 44
0.0
173
     0
291
     0
 45
0.0
1001
ACAD
1000
AcDbSavedByObjectVersion
1070
     0
  0
VISUALSTYLE
  5
37
102
{ACAD_XDICTIONARY
360
3A5
102
}
102
{ACAD_REACTORS
330
2A
102
}
330
2A
100
AcDbVisualStyle
  2

 70
    13
 71
     2
 72
     2
 73
     0
 90
        0
 40
-0.6
 41
-30.0
 62
     5
 63
     7
 74
     1
 91
        4
 64
     7
 65
   257
 75
     1
175
     1
 42
1.0
 92
       12
 66
     7
 43
1.0
 76
     1
 77
     6
 78
     2
 67
     7
 79
     5
170
     0
171
     0
290
     0
174
     0
 93
        1
 44
0.0
173
     0
291
     1
 45
0.0
1001
ACAD
1000
AcDbSavedByObjectVersion
1070
     0
  0
VISUALSTYLE
  5
30
102
{ACAD_XDICTIONARY
360
397
102
}
102
{ACAD_REACTORS
330
2A
102
}
330
2A
100
AcDbVisualStyle
  2

 70
     5
 71
     0
 72
     2
 73
     0
 90
        0
 40
-0.6
 41
-30.0
 62
     5
 63
     7
 74
     1
 91
        4
 64
     7
 65
   257
 75
     1
175
     1
 42
1.0
 92
        0
 66
   257
 43
1.0
 76
     1
 77
     6
 78
     2
 67
     7
 79
     3
170
     0
171
     0
290
     0
174
     0
 93
        1
 44
0.0
173
     0
291
     0
 45
0.0
1001
ACAD
1000
AcDbSavedByObjectVersion
1070
     0
  0
VISUALSTYLE
  5
40
102
{ACAD_XDICTIONARY
360
3B7
102
}
102
{ACAD_REACTORS
330
2A
102
}
330
2A
100
AcDbVisualStyle
  2

 70
    25
 71
     2
 72
     2
 73
     1
 90
        1
 40
0.5
 41
-30.0
 62
     5
 63
     7
 74
     1
 91
        0
 64
     7
 65
   257
 75
     1
175
     1
 42
1.0
 92
        8
 66
     7
 43
1.0
 76
     1
 77
     6
 78
     2
 67
     7
 79
     3
170
     0
171
     0
290
     0
174
     0
 93
       13
 44
0.0
173
     0
291
     0
 45
0.0
1001
ACAD
1000
AcDbSavedByObjectVersion
1070
     0
  0
DICTIONARYVAR
  5
255
102
{ACAD_REACTORS
330
24E
102
}
330
24E
100
DictionaryVariables
280
     0
  1
1:1
  0
DICTIONARYVAR
  5
37C
102
{ACAD_REACTORS
330
24E
102
}
330
24E
100
DictionaryVariables
280
     0
  1
STANDARD
  0
DICTIONARYVAR
  5
37B
102
{ACAD_REACTORS
330
24E
102
}
330
24E
100
DictionaryVariables
280
     0
  1
STANDARD
  0
DICTIONARYVAR
  5
37D
102
{ACAD_REACTORS
330
24E
102
}
330
24E
100
DictionaryVariables
280
     0
  1
Metric50
  0
DICTIONARYVAR
  5
37E
102
{ACAD_REACTORS
330
24E
102
}
330
24E
100
DictionaryVariables
280
     0
  1
Metric50
  0
DICTIONARYVAR
  5
253
102
{ACAD_REACTORS
330
24E
102
}
330
24E
100
DictionaryVariables
280
     0
  1
2
  0
DICTIONARYVAR
  5
254
102
{ACAD_REACTORS
330
24E
102
}
330
24E
100
DictionaryVariables
280
     0
  1
1
  0
DICTIONARYVAR
  5
380
102
{ACAD_REACTORS
330
24E
102
}
330
24E
100
DictionaryVariables
280
     0
  1
0
  0
DICTIONARYVAR
  5
256
102
{ACAD_REACTORS
330
24E
102
}
330
24E
100
DictionaryVariables
280
     0
  1
1
  0
DICTIONARYVAR
  5
37F
102
{ACAD_REACTORS
330
24E
102
}
330
24E
100
DictionaryVariables
280
     0
  1
127
  0
DICTIONARYVAR
  5
381
102
{ACAD_REACTORS
330
24E
102
}
330
24E
100
DictionaryVariables
280
     0
  1
2
  0
DICTIONARY
  5
3C1
330
296
100
AcDbDictionary
280
     1
281
     1
  3
ACAD_XREC_ROUNDTRIP
360
3C2
  0
DICTIONARY
  5
387
330
1E
100
AcDbDictionary
280
     1
281
     1
  3
ACAD_XREC_ROUNDTRIP
360
388
  0
DICTIONARY
  5
38B
330
26
100
AcDbDictionary
280
     1
281
     1
  3
ACAD_XREC_ROUNDTRIP
360
38C
  0
DICTIONARY
  5
389
330
22
100
AcDbDictionary
280
     1
281
     1
  3
ACAD_XREC_ROUNDTRIP
360
38A
  0
DICTIONARY
  5
289
330
45
100
AcDbDictionary
280
     1
281
     1
  3
ACAD_XREC_ROUNDTRIP
360
28A
  0
DICTIONARY
  5
287
330
44
100
AcDbDictionary
280
     1
281
     1
  3
ACAD_XREC_ROUNDTRIP
360
288
  0
DICTIONARY
  5
28B
330
46
100
AcDbDictionary
280
     1
281
     1
  3
ACAD_XREC_ROUNDTRIP
360
28C
  0
DICTIONARY
  5
3BF
330
294
100
AcDbDictionary
280
     1
281
     1
  3
ACAD_XREC_ROUNDTRIP
360
3C0
  0
DICTIONARY
  5
383
330
291
100
AcDbDictionary
280
     1
281
     1
  3
ACAD_ROUNDTRIP_2008_TABLESTYLE_CELLSTYLEMAP
360
384
  3
ACAD_XREC_ROUNDTRIP
360
3BD
  0
DICTIONARY
  5
395
330
2F
100
AcDbDictionary
280
     1
281
     1
  3
ACAD_XREC_ROUNDTRIP
360
396
  0
DICTIONARY
  5
39B
330
32
100
AcDbDictionary
280
     1
281
     1
  3
ACAD_XREC_ROUNDTRIP
360
39C
  0
DICTIONARY
  5
3A3
330
36
100
AcDbDictionary
280
     1
281
     1
  3
ACAD_XREC_ROUNDTRIP
360
3A4
  0
DICTIONARY
  5
3AB
330
3A
100
AcDbDictionary
280
     1
281
     1
  3
ACAD_XREC_ROUNDTRIP
360
3AC
  0
DICTIONARY
  5
39F
330
34
100
AcDbDictionary
280
     1
281
     1
  3
ACAD_XREC_ROUNDTRIP
360
3A0
  0
DICTIONARY
  5
3A1
330
35
100
AcDbDictionary
280
     1
281
     1
  3
ACAD_XREC_ROUNDTRIP
360
3A2
  0
DICTIONARY
  5
3B1
330
3D
100
AcDbDictionary
280
     1
281
     1
  3
ACAD_XREC_ROUNDTRIP
360
3B2
  0
DICTIONARY
  5
3A9
330
39
100
AcDbDictionary
280
     1
281
     1
  3
ACAD_XREC_ROUNDTRIP
360
3AA
  0
DICTIONARY
  5
38D
330
2B
100
AcDbDictionary
280
     1
281
     1
  3
ACAD_XREC_ROUNDTRIP
360
38E
  0
DICTIONARY
  5
38F
330
2C
100
AcDbDictionary
280
     1
281
     1
  3
ACAD_XREC_ROUNDTRIP
360
390
  0
DICTIONARY
  5
391
330
2D
100
AcDbDictionary
280
     1
281
     1
  3
ACAD_XREC_ROUNDTRIP
360
392
  0
DICTIONARY
  5
393
330
2E
100
AcDbDictionary
280
     1
281
     1
  3
ACAD_XREC_ROUNDTRIP
360
394
  0
DICTIONARY
  5
399
330
31
100
AcDbDictionary
280
     1
281
     1
  3
ACAD_XREC_ROUNDTRIP
360
39A
  0
DICTIONARY
  5
3AD
330
3B
100
AcDbDictionary
280
     1
281
     1
  3
ACAD_XREC_ROUNDTRIP
360
3AE
  0
DICTIONARY
  5
3A7
330
38
100
AcDbDictionary
280
     1
281
     1
  3
ACAD_XREC_ROUNDTRIP
360
3A8
  0
DICTIONARY
  5
3AF
330
3C
100
AcDbDictionary
280
     1
281
     1
  3
ACAD_XREC_ROUNDTRIP
360
3B0
  0
DICTIONARY
  5
39D
330
33
100
AcDbDictionary
280
     1
281
     1
  3
ACAD_XREC_ROUNDTRIP
360
39E
  0
DICTIONARY
  5
3BB
330
42
100
AcDbDictionary
280
     1
281
     1
  3
ACAD_XREC_ROUNDTRIP
360
3BC
  0
DICTIONARY
  5
3B9
330
41
100
AcDbDictionary
280
     1
281
     1
  3
ACAD_XREC_ROUNDTRIP
360
3BA
  0
DICTIONARY
  5
3B3
330
3E
100
AcDbDictionary
280
     1
281
     1
  3
ACAD_XREC_ROUNDTRIP
360
3B4
  0
DICTIONARY
  5
3B5
330
3F
100
AcDbDictionary
280
     1
281
     1
  3
ACAD_XREC_ROUNDTRIP
360
3B6
  0
DICTIONARY
  5
3A5
330
37
100
AcDbDictionary
280
     1
281
     1
  3
ACAD_XREC_ROUNDTRIP
360
3A6
  0
DICTIONARY
  5
397
330
30
100
AcDbDictionary
280
     1
281
     1
  3
ACAD_XREC_ROUNDTRIP
360
398
  0
DICTIONARY
  5
3B7
330
40
100
AcDbDictionary
280
     1
281
     1
  3
ACAD_XREC_ROUNDTRIP
360
3B8
  0
XRECORD
  5
3C2
102
{ACAD_REACTORS
330
3C1
102
}
330
3C1
100
AcDbXrecord
280
     1
102
DISPLAYNAME
  1
Metric50
102
FLAGS
 90
        0
  0
XRECORD
  5
388
102
{ACAD_REACTORS
330
387
102
}
330
387
100
AcDbXrecord
280
     1
102
SHADEPLOT
 70
     0
102
SHADEPLOTRESLEVEL
 70
     2
102
SHADEPLOTCUSTOMDPI
 70
   300
  0
XRECORD
  5
38C
102
{ACAD_REACTORS
330
38B
102
}
330
38B
100
AcDbXrecord
280
     1
102
SHADEPLOT
 70
     0
102
SHADEPLOTRESLEVEL
 70
     2
102
SHADEPLOTCUSTOMDPI
 70
   300
  0
XRECORD
  5
38A
102
{ACAD_REACTORS
330
389
102
}
330
389
100
AcDbXrecord
280
     1
102
SHADEPLOT
 70
     0
102
SHADEPLOTRESLEVEL
 70
     2
102
SHADEPLOTCUSTOMDPI
 70
   300
  0
XRECORD
  5
28A
102
{ACAD_REACTORS
330
289
102
}
330
289
100
AcDbXrecord
280
     1
102
MATERIAL
148
0.0
149
0.0
149
0.0
 93
        0
 94
      127
282
     0
 72
     1
 77
     1
171
     1
175
     1
179
     1
273
     0
  0
XRECORD
  5
288
102
{ACAD_REACTORS
330
287
102
}
330
287
100
AcDbXrecord
280
     1
102
MATERIAL
148
0.0
149
0.0
149
0.0
 93
        0
 94
      127
282
     0
 72
     1
 77
     1
171
     1
175
     1
179
     1
273
     0
  0
XRECORD
  5
28C
102
{ACAD_REACTORS
330
28B
102
}
330
28B
100
AcDbXrecord
280
     1
102
MATERIAL
148
0.0
149
0.0
149
0.0
 93
        0
 94
      127
282
     0
 72
     1
 77
     1
171
     1
175
     1
179
     1
273
     0
  0
XRECORD
  5
3C0
102
{ACAD_REACTORS
330
3BF
102
}
330
3BF
100
AcDbXrecord
280
     1
102
DISPLAYNAME
  1
Metric50
102
FLAGS
 90
        0
  0
CELLSTYLEMAP
  5
384
102
{ACAD_REACTORS
330
383
102
}
330
383
100
AcDbCellStyleMap
 90
        3
300
CELLSTYLE
  1
TABLEFORMAT_BEGIN
 90
        5
170
     1
 91
        0
 92
    32768
 62
   257
 93
        1
300
CONTENTFORMAT
  1
CONTENTFORMAT_BEGIN
 90
        0
 91
        0
 92
      512
 93
        0
300

 40
0.0
140
1.0
 94
        5
 62
     0
340
11
144
6.0
309
CONTENTFORMAT_END
171
     1
301
MARGIN
  1
CELLMARGIN_BEGIN
 40
1.5
 40
1.5
 40
1.5
 40
1.5
 40
4.5
 40
4.5
309
CELLMARGIN_END
 94
        6
 95
        1
302
GRIDFORMAT
  1
GRIDFORMAT_BEGIN
 90
        0
 91
        1
 62
     0
 92
       -2
340
0
 93
        0
 40
1.125
309
GRIDFORMAT_END
 95
        2
302
GRIDFORMAT
  1
GRIDFORMAT_BEGIN
 90
        0
 91
        1
 62
     0
 92
       -2
340
0
 93
        0
 40
1.125
309
GRIDFORMAT_END
 95
        4
302
GRIDFORMAT
  1
GRIDFORMAT_BEGIN
 90
        0
 91
        1
 62
     0
 92
       -2
340
0
 93
        0
 40
1.125
309
GRIDFORMAT_END
 95
        8
302
GRIDFORMAT
  1
GRIDFORMAT_BEGIN
 90
        0
 91
        1
 62
     0
 92
       -2
340
0
 93
        0
 40
1.125
309
GRIDFORMAT_END
 95
       16
302
GRIDFORMAT
  1
GRIDFORMAT_BEGIN
 90
        0
 91
        1
 62
     0
 92
       -2
340
0
 93
        0
 40
1.125
309
GRIDFORMAT_END
 95
       32
302
GRIDFORMAT
  1
GRIDFORMAT_BEGIN
 90
        0
 91
        1
 62
     0
 92
       -2
340
0
 93
        0
 40
1.125
309
GRIDFORMAT_END
309
TABLEFORMAT_END
  1
CELLSTYLE_BEGIN
 90
        1
 91
        1
300
_TITLE
309
CELLSTYLE_END
300
CELLSTYLE
  1
TABLEFORMAT_BEGIN
 90
        5
170
     1
 91
        0
 92
        0
 62
   257
 93
        1
300
CONTENTFORMAT
  1
CONTENTFORMAT_BEGIN
 90
        0
 91
        0
 92
      512
 93
        0
300

 40
0.0
140
1.0
 94
        5
 62
     0
340
11
144
4.5
309
CONTENTFORMAT_END
171
     1
301
MARGIN
  1
CELLMARGIN_BEGIN
 40
1.5
 40
1.5
 40
1.5
 40
1.5
 40
4.5
 40
4.5
309
CELLMARGIN_END
 94
        6
 95
        1
302
GRIDFORMAT
  1
GRIDFORMAT_BEGIN
 90
        0
 91
        1
 62
     0
 92
       -2
340
0
 93
        0
 40
1.125
309
GRIDFORMAT_END
 95
        2
302
GRIDFORMAT
  1
GRIDFORMAT_BEGIN
 90
        0
 91
        1
 62
     0
 92
       -2
340
0
 93
        0
 40
1.125
309
GRIDFORMAT_END
 95
        4
302
GRIDFORMAT
  1
GRIDFORMAT_BEGIN
 90
        0
 91
        1
 62
     0
 92
       -2
340
0
 93
        0
 40
1.125
309
GRIDFORMAT_END
 95
        8
302
GRIDFORMAT
  1
GRIDFORMAT_BEGIN
 90
        0
 91
        1
 62
     0
 92
       -2
340
0
 93
        0
 40
1.125
309
GRIDFORMAT_END
 95
       16
302
GRIDFORMAT
  1
GRIDFORMAT_BEGIN
 90
        0
 91
        1
 62
     0
 92
       -2
340
0
 93
        0
 40
1.125
309
GRIDFORMAT_END
 95
       32
302
GRIDFORMAT
  1
GRIDFORMAT_BEGIN
 90
        0
 91
        1
 62
     0
 92
       -2
340
0
 93
        0
 40
1.125
309
GRIDFORMAT_END
309
TABLEFORMAT_END
  1
CELLSTYLE_BEGIN
 90
        2
 91
        1
300
_HEADER
309
CELLSTYLE_END
300
CELLSTYLE
  1
TABLEFORMAT_BEGIN
 90
        5
170
     1
 91
        0
 92
        0
 62
   257
 93
        1
300
CONTENTFORMAT
  1
CONTENTFORMAT_BEGIN
 90
        0
 91
        0
 92
      512
 93
        0
300

 40
0.0
140
1.0
 94
        2
 62
     0
340
11
144
4.5
309
CONTENTFORMAT_END
171
     1
301
MARGIN
  1
CELLMARGIN_BEGIN
 40
1.5
 40
1.5
 40
1.5
 40
1.5
 40
4.5
 40
4.5
309
CELLMARGIN_END
 94
        6
 95
        1
302
GRIDFORMAT
  1
GRIDFORMAT_BEGIN
 90
        0
 91
        1
 62
     0
 92
       -2
340
0
 93
        0
 40
1.125
309
GRIDFORMAT_END
 95
        2
302
GRIDFORMAT
  1
GRIDFORMAT_BEGIN
 90
        0
 91
        1
 62
     0
 92
       -2
340
0
 93
        0
 40
1.125
309
GRIDFORMAT_END
 95
        4
302
GRIDFORMAT
  1
GRIDFORMAT_BEGIN
 90
        0
 91
        1
 62
     0
 92
       -2
340
0
 93
        0
 40
1.125
309
GRIDFORMAT_END
 95
        8
302
GRIDFORMAT
  1
GRIDFORMAT_BEGIN
 90
        0
 91
        1
 62
     0
 92
       -2
340
0
 93
        0
 40
1.125
309
GRIDFORMAT_END
 95
       16
302
GRIDFORMAT
  1
GRIDFORMAT_BEGIN
 90
        0
 91
        1
 62
     0
 92
       -2
340
0
 93
        0
 40
1.125
309
GRIDFORMAT_END
 95
       32
302
GRIDFORMAT
  1
GRIDFORMAT_BEGIN
 90
        0
 91
        1
 62
     0
 92
       -2
340
0
 93
        0
 40
1.125
309
GRIDFORMAT_END
309
TABLEFORMAT_END
  1
CELLSTYLE_BEGIN
 90
        3
 91
        2
300
_DATA
309
CELLSTYLE_END
  0
XRECORD
  5
3BD
102
{ACAD_REACTORS
330
383
102
}
330
383
100
AcDbXrecord
280
     1
102
ACAD_ROUNDTRIP_PRE2007_TABLESTYLE
 90
      512
 91
        0
  1

 92
      512
 93
        0
  2

 94
      512
 95
        0
  3

  0
XRECORD
  5
396
102
{ACAD_REACTORS
330
395
102
}
330
395
100
AcDbXrecord
280
     1
102
RTVSPost2010Prop28
280
     1
102
RTVSPost2010PropOp28
 70
     1
102
RTVSPost2010Prop29
280
     1
102
RTVSPost2010PropOp29
 70
     1
102
RTVSPost2010Prop30
280
     0
102
RTVSPost2010PropOp30
 70
     1
102
RTVSPost2010Prop31
280
     0
102
RTVSPost2010PropOp31
 70
     1
102
RTVSPost2010Prop32
280
     0
102
RTVSPost2010PropOp32
 70
     1
102
RTVSPost2010Prop33
280
     0
102
RTVSPost2010PropOp33
 70
     1
102
RTVSPost2010Prop34
280
     0
102
RTVSPost2010PropOp34
 70
     1
102
RTVSPost2010Prop35
280
     0
102
RTVSPost2010PropOp35
 70
     1
102
RTVSPost2010Prop36
280
     0
102
RTVSPost2010PropOp36
 70
     1
102
RTVSPost2010Prop37
 90
       50
102
RTVSPost2010PropOp37
 70
     1
102
RTVSPost2010Prop38
140
0.0
102
RTVSPost2010PropOp38
 70
     1
102
RTVSPost2010Prop39
140
1.0
102
RTVSPost2010PropOp39
 70
     1
102
RTVSPost2010Prop40
 90
        0
102
RTVSPost2010PropOp40
 70
     1
102
RTVSPost2010Prop41ColorIndex
 90
       18
102
RTVSPost2010Prop41ColorRGB
 90
        0
102
RTVSPost2010PropOp41
 70
     1
102
RTVSPost2010Prop42
 90
       50
102
RTVSPost2010PropOp42
 70
     1
102
RTVSPost2010Prop43
 90
        3
102
RTVSPost2010PropOp43
 70
     1
102
RTVSPost2010Prop44ColorIndex
 90
        5
102
RTVSPost2010Prop44ColorRGB
 90
      255
102
RTVSPost2010PropOp44
 70
     1
102
RTVSPost2010Prop45
280
     0
102
RTVSPost2010PropOp45
 70
     1
102
RTVSPost2010Prop46
 90
       50
102
RTVSPost2010PropOp46
 70
     1
102
RTVSPost2010Prop47
 90
       50
102
RTVSPost2010PropOp47
 70
     1
102
RTVSPost2010Prop48
 90
       50
102
RTVSPost2010PropOp48
 70
     1
102
RTVSPost2010Prop49
280
     0
102
RTVSPost2010PropOp49
 70
     1
102
RTVSPost2010Prop50
 90
       50
102
RTVSPost2010PropOp50
 70
     1
102
RTVSPost2010Prop51ColorIndex
 90
      256
102
RTVSPost2010Prop51ColorRGB
 90
-16777216
102
RTVSPost2010PropOp51
 70
     0
102
RTVSPost2010Prop52
140
1.0
102
RTVSPost2010PropOp52
 70
     0
102
RTVSPost2010Prop53
 90
        2
102
RTVSPost2010PropOp53
 70
     1
102
RTVSPost2010Prop54
  1
strokes_ogs.tif
102
RTVSPost2010PropOp54
 70
     1
102
RTVSPost2010Prop55
280
     0
102
RTVSPost2010PropOp55
 70
     1
102
RTVSPost2010Prop56
140
1.0
102
RTVSPost2010PropOp56
 70
     1
102
RTVSPost2010Prop57
140
1.0
102
RTVSPost2010PropOp57
 70
     1
102
RTVSPropertyOp0
 70
     1
102
RTVSPropertyOp1
 70
     1
102
RTVSPropertyOp2
 70
     1
102
RTVSPropertyOp3
 70
     1
102
RTVSPropertyOp4
 70
     1
102
RTVSPropertyOp5
 70
     1
102
RTVSPropertyOp6
 70
     1
102
RTVSPropertyOp7
 70
     1
102
RTVSPropertyOp8
 70
     1
102
RTVSPropertyOp9
 70
     1
102
RTVSPropertyOp10
 70
     1
102
RTVSPropertyOp11
 70
     1
102
RTVSPropertyOp12
 70
     1
102
RTVSPropertyOp13
 70
     1
102
RTVSPropertyOp14
 70
     1
102
RTVSPropertyOp15
 70
     1
102
RTVSPropertyOp16
 70
     1
102
RTVSPropertyOp17
 70
     1
102
RTVSPropertyOp18
 70
     1
102
RTVSPropertyOp19
 70
     1
102
RTVSPropertyOp20
 70
     1
102
RTVSPropertyOp21
 70
     1
102
RTVSPropertyOp22
 70
     1
102
RTVSPropertyOp23
 70
     1
102
RTVSPropertyOp24
 70
     1
102
RTVSPropertyOp25
 70
     1
102
RTVSPropertyOp26
 70
     1
102
RTVSPropertyOp27
 70
     1
102
RTVSPropertyOp28
 70
     1
102
RTVSPropertyOp29
 70
     1
102
RTVSPropertyOp30
 70
     1
102
RTVSPropertyOp31
 70
     1
102
RTVSPropertyOp32
 70
     1
102
RTVSPropertyOp33
 70
     1
102
RTVSPropertyOp34
 70
     1
102
RTVSPropertyOp35
 70
     1
102
RTVSPropertyOp36
 70
     1
102
RTVSPropertyOp37
 70
     1
102
RTVSPropertyOp38
 70
     1
102
RTVSPropertyOp39
 70
     1
102
RTVSPropertyOp40
 70
     1
102
RTVSPropertyOp41
 70
     1
102
RTVSPropertyOp42
 70
     1
102
RTVSPropertyOp43
 70
     1
102
RTVSPropertyOp44
 70
     1
102
RTVSPropertyOp45
 70
     1
102
RTVSPropertyOp46
 70
     1
102
RTVSPropertyOp47
 70
     1
102
RTVSPropertyOp48
 70
     1
102
RTVSPropertyOp49
 70
     1
102
RTVSPropertyOp50
 70
     1
102
RTVSPropertyOp51
 70
     0
102
RTVSPropertyOp52
 70
     0
102
RTVSPropertyOp53
 70
     1
102
RTVSPropertyOp54
 70
     1
102
RTVSPropertyOp55
 70
     1
102
RTVSPropertyOp56
 70
     1
102
RTVSPropertyOp57
 70
     1
102
RTVSPropertyOp58
 70
     1
102
RTVSPropertyOp59
 70
     1
102
RTVSPropertyOp60
 70
     1
102
RTVSPropertyOp61
 70
     1
102
RTVSPropertyOp62
 70
     1
  0
XRECORD
  5
39C
102
{ACAD_REACTORS
330
39B
102
}
330
39B
100
AcDbXrecord
280
     1
102
RTVSPost2010Prop28
280
     0
102
RTVSPost2010PropOp28
 70
     1
102
RTVSPost2010Prop29
280
     1
102
RTVSPost2010PropOp29
 70
     1
102
RTVSPost2010Prop30
280
     1
102
RTVSPost2010PropOp30
 70
     1
102
RTVSPost2010Prop31
280
     0
102
RTVSPost2010PropOp31
 70
     1
102
RTVSPost2010Prop32
280
     0
102
RTVSPost2010PropOp32
 70
     1
102
RTVSPost2010Prop33
280
     0
102
RTVSPost2010PropOp33
 70
     1
102
RTVSPost2010Prop34
280
     0
102
RTVSPost2010PropOp34
 70
     1
102
RTVSPost2010Prop35
280
     0
102
RTVSPost2010PropOp35
 70
     1
102
RTVSPost2010Prop36
280
     0
102
RTVSPost2010PropOp36
 70
     1
102
RTVSPost2010Prop37
 90
       50
102
RTVSPost2010PropOp37
 70
     1
102
RTVSPost2010Prop38
140
0.0
102
RTVSPost2010PropOp38
 70
     1
102
RTVSPost2010Prop39
140
1.0
102
RTVSPost2010PropOp39
 70
     1
102
RTVSPost2010Prop40
 90
        0
102
RTVSPost2010PropOp40
 70
     1
102
RTVSPost2010Prop41ColorIndex
 90
       18
102
RTVSPost2010Prop41ColorRGB
 90
        0
102
RTVSPost2010PropOp41
 70
     1
102
RTVSPost2010Prop42
 90
       50
102
RTVSPost2010PropOp42
 70
     1
102
RTVSPost2010Prop43
 90
        3
102
RTVSPost2010PropOp43
 70
     1
102
RTVSPost2010Prop44ColorIndex
 90
        5
102
RTVSPost2010Prop44ColorRGB
 90
      255
102
RTVSPost2010PropOp44
 70
     1
102
RTVSPost2010Prop45
280
     0
102
RTVSPost2010PropOp45
 70
     1
102
RTVSPost2010Prop46
 90
       50
102
RTVSPost2010PropOp46
 70
     1
102
RTVSPost2010Prop47
 90
       50
102
RTVSPost2010PropOp47
 70
     1
102
RTVSPost2010Prop48
 90
       50
102
RTVSPost2010PropOp48
 70
     1
102
RTVSPost2010Prop49
280
     0
102
RTVSPost2010PropOp49
 70
     1
102
RTVSPost2010Prop50
 90
       50
102
RTVSPost2010PropOp50
 70
     1
102
RTVSPost2010Prop51ColorIndex
 90
      256
102
RTVSPost2010Prop51ColorRGB
 90
-16777216
102
RTVSPost2010PropOp51
 70
     0
102
RTVSPost2010Prop52
140
1.0
102
RTVSPost2010PropOp52
 70
     0
102
RTVSPost2010Prop53
 90
        2
102
RTVSPost2010PropOp53
 70
     1
102
RTVSPost2010Prop54
  1
strokes_ogs.tif
102
RTVSPost2010PropOp54
 70
     1
102
RTVSPost2010Prop55
280
     0
102
RTVSPost2010PropOp55
 70
     1
102
RTVSPost2010Prop56
140
1.0
102
RTVSPost2010PropOp56
 70
     1
102
RTVSPost2010Prop57
140
1.0
102
RTVSPost2010PropOp57
 70
     1
102
RTVSPropertyOp0
 70
     1
102
RTVSPropertyOp1
 70
     1
102
RTVSPropertyOp2
 70
     1
102
RTVSPropertyOp3
 70
     1
102
RTVSPropertyOp4
 70
     1
102
RTVSPropertyOp5
 70
     1
102
RTVSPropertyOp6
 70
     1
102
RTVSPropertyOp7
 70
     1
102
RTVSPropertyOp8
 70
     1
102
RTVSPropertyOp9
 70
     1
102
RTVSPropertyOp10
 70
     1
102
RTVSPropertyOp11
 70
     1
102
RTVSPropertyOp12
 70
     1
102
RTVSPropertyOp13
 70
     1
102
RTVSPropertyOp14
 70
     1
102
RTVSPropertyOp15
 70
     1
102
RTVSPropertyOp16
 70
     1
102
RTVSPropertyOp17
 70
     1
102
RTVSPropertyOp18
 70
     1
102
RTVSPropertyOp19
 70
     1
102
RTVSPropertyOp20
 70
     1
102
RTVSPropertyOp21
 70
     1
102
RTVSPropertyOp22
 70
     1
102
RTVSPropertyOp23
 70
     1
102
RTVSPropertyOp24
 70
     1
102
RTVSPropertyOp25
 70
     1
102
RTVSPropertyOp26
 70
     1
102
RTVSPropertyOp27
 70
     1
102
RTVSPropertyOp28
 70
     1
102
RTVSPropertyOp29
 70
     1
102
RTVSPropertyOp30
 70
     1
102
RTVSPropertyOp31
 70
     1
102
RTVSPropertyOp32
 70
     1
102
RTVSPropertyOp33
 70
     1
102
RTVSPropertyOp34
 70
     1
102
RTVSPropertyOp35
 70
     1
102
RTVSPropertyOp36
 70
     1
102
RTVSPropertyOp37
 70
     1
102
RTVSPropertyOp38
 70
     1
102
RTVSPropertyOp39
 70
     1
102
RTVSPropertyOp40
 70
     1
102
RTVSPropertyOp41
 70
     1
102
RTVSPropertyOp42
 70
     1
102
RTVSPropertyOp43
 70
     1
102
RTVSPropertyOp44
 70
     1
102
RTVSPropertyOp45
 70
     1
102
RTVSPropertyOp46
 70
     1
102
RTVSPropertyOp47
 70
     1
102
RTVSPropertyOp48
 70
     1
102
RTVSPropertyOp49
 70
     1
102
RTVSPropertyOp50
 70
     1
102
RTVSPropertyOp51
 70
     0
102
RTVSPropertyOp52
 70
     0
102
RTVSPropertyOp53
 70
     1
102
RTVSPropertyOp54
 70
     1
102
RTVSPropertyOp55
 70
     1
102
RTVSPropertyOp56
 70
     1
102
RTVSPropertyOp57
 70
     1
102
RTVSPropertyOp58
 70
     1
102
RTVSPropertyOp59
 70
     1
102
RTVSPropertyOp60
 70
     1
102
RTVSPropertyOp61
 70
     1
102
RTVSPropertyOp62
 70
     1
  0
XRECORD
  5
3A4
102
{ACAD_REACTORS
330
3A3
102
}
330
3A3
100
AcDbXrecord
280
     1
102
RTVSPost2010Prop28
280
     0
102
RTVSPost2010PropOp28
 70
     1
102
RTVSPost2010Prop29
280
     1
102
RTVSPost2010PropOp29
 70
     1
102
RTVSPost2010Prop30
280
     1
102
RTVSPost2010PropOp30
 70
     1
102
RTVSPost2010Prop31
280
     0
102
RTVSPost2010PropOp31
 70
     1
102
RTVSPost2010Prop32
280
     0
102
RTVSPost2010PropOp32
 70
     1
102
RTVSPost2010Prop33
280
     0
102
RTVSPost2010PropOp33
 70
     1
102
RTVSPost2010Prop34
280
     0
102
RTVSPost2010PropOp34
 70
     1
102
RTVSPost2010Prop35
280
     0
102
RTVSPost2010PropOp35
 70
     1
102
RTVSPost2010Prop36
280
     0
102
RTVSPost2010PropOp36
 70
     1
102
RTVSPost2010Prop37
 90
       50
102
RTVSPost2010PropOp37
 70
     1
102
RTVSPost2010Prop38
140
0.0
102
RTVSPost2010PropOp38
 70
     1
102
RTVSPost2010Prop39
140
1.0
102
RTVSPost2010PropOp39
 70
     1
102
RTVSPost2010Prop40
 90
        0
102
RTVSPost2010PropOp40
 70
     1
102
RTVSPost2010Prop41ColorIndex
 90
       18
102
RTVSPost2010Prop41ColorRGB
 90
        0
102
RTVSPost2010PropOp41
 70
     1
102
RTVSPost2010Prop42
 90
       50
102
RTVSPost2010PropOp42
 70
     1
102
RTVSPost2010Prop43
 90
        3
102
RTVSPost2010PropOp43
 70
     1
102
RTVSPost2010Prop44ColorIndex
 90
        5
102
RTVSPost2010Prop44ColorRGB
 90
      255
102
RTVSPost2010PropOp44
 70
     1
102
RTVSPost2010Prop45
280
     0
102
RTVSPost2010PropOp45
 70
     1
102
RTVSPost2010Prop46
 90
       50
102
RTVSPost2010PropOp46
 70
     1
102
RTVSPost2010Prop47
 90
       50
102
RTVSPost2010PropOp47
 70
     1
102
RTVSPost2010Prop48
 90
       50
102
RTVSPost2010PropOp48
 70
     1
102
RTVSPost2010Prop49
280
     0
102
RTVSPost2010PropOp49
 70
     1
102
RTVSPost2010Prop50
 90
       50
102
RTVSPost2010PropOp50
 70
     1
102
RTVSPost2010Prop51ColorIndex
 90
      256
102
RTVSPost2010Prop51ColorRGB
 90
-16777216
102
RTVSPost2010PropOp51
 70
     0
102
RTVSPost2010Prop52
140
1.0
102
RTVSPost2010PropOp52
 70
     0
102
RTVSPost2010Prop53
 90
        2
102
RTVSPost2010PropOp53
 70
     1
102
RTVSPost2010Prop54
  1
strokes_ogs.tif
102
RTVSPost2010PropOp54
 70
     1
102
RTVSPost2010Prop55
280
     0
102
RTVSPost2010PropOp55
 70
     1
102
RTVSPost2010Prop56
140
1.0
102
RTVSPost2010PropOp56
 70
     1
102
RTVSPost2010Prop57
140
1.0
102
RTVSPost2010PropOp57
 70
     1
102
RTVSPropertyOp0
 70
     1
102
RTVSPropertyOp1
 70
     1
102
RTVSPropertyOp2
 70
     1
102
RTVSPropertyOp3
 70
     1
102
RTVSPropertyOp4
 70
     1
102
RTVSPropertyOp5
 70
     1
102
RTVSPropertyOp6
 70
     1
102
RTVSPropertyOp7
 70
     1
102
RTVSPropertyOp8
 70
     1
102
RTVSPropertyOp9
 70
     1
102
RTVSPropertyOp10
 70
     1
102
RTVSPropertyOp11
 70
     1
102
RTVSPropertyOp12
 70
     1
102
RTVSPropertyOp13
 70
     1
102
RTVSPropertyOp14
 70
     1
102
RTVSPropertyOp15
 70
     1
102
RTVSPropertyOp16
 70
     1
102
RTVSPropertyOp17
 70
     1
102
RTVSPropertyOp18
 70
     1
102
RTVSPropertyOp19
 70
     1
102
RTVSPropertyOp20
 70
     1
102
RTVSPropertyOp21
 70
     1
102
RTVSPropertyOp22
 70
     1
102
RTVSPropertyOp23
 70
     1
102
RTVSPropertyOp24
 70
     1
102
RTVSPropertyOp25
 70
     1
102
RTVSPropertyOp26
 70
     1
102
RTVSPropertyOp27
 70
     1
102
RTVSPropertyOp28
 70
     1
102
RTVSPropertyOp29
 70
     1
102
RTVSPropertyOp30
 70
     1
102
RTVSPropertyOp31
 70
     1
102
RTVSPropertyOp32
 70
     1
102
RTVSPropertyOp33
 70
     1
102
RTVSPropertyOp34
 70
     1
102
RTVSPropertyOp35
 70
     1
102
RTVSPropertyOp36
 70
     1
102
RTVSPropertyOp37
 70
     1
102
RTVSPropertyOp38
 70
     1
102
RTVSPropertyOp39
 70
     1
102
RTVSPropertyOp40
 70
     1
102
RTVSPropertyOp41
 70
     1
102
RTVSPropertyOp42
 70
     1
102
RTVSPropertyOp43
 70
     1
102
RTVSPropertyOp44
 70
     1
102
RTVSPropertyOp45
 70
     1
102
RTVSPropertyOp46
 70
     1
102
RTVSPropertyOp47
 70
     1
102
RTVSPropertyOp48
 70
     1
102
RTVSPropertyOp49
 70
     1
102
RTVSPropertyOp50
 70
     1
102
RTVSPropertyOp51
 70
     0
102
RTVSPropertyOp52
 70
     0
102
RTVSPropertyOp53
 70
     1
102
RTVSPropertyOp54
 70
     1
102
RTVSPropertyOp55
 70
     1
102
RTVSPropertyOp56
 70
     1
102
RTVSPropertyOp57
 70
     1
102
RTVSPropertyOp58
 70
     1
102
RTVSPropertyOp59
 70
     1
102
RTVSPropertyOp60
 70
     1
102
RTVSPropertyOp61
 70
     1
102
RTVSPropertyOp62
 70
     1
  0
XRECORD
  5
3AC
102
{ACAD_REACTORS
330
3AB
102
}
330
3AB
100
AcDbXrecord
280
     1
102
RTVSPost2010Prop28
280
     0
102
RTVSPost2010PropOp28
 70
     1
102
RTVSPost2010Prop29
280
     1
102
RTVSPost2010PropOp29
 70
     1
102
RTVSPost2010Prop30
280
     1
102
RTVSPost2010PropOp30
 70
     1
102
RTVSPost2010Prop31
280
     0
102
RTVSPost2010PropOp31
 70
     1
102
RTVSPost2010Prop32
280
     0
102
RTVSPost2010PropOp32
 70
     1
102
RTVSPost2010Prop33
280
     0
102
RTVSPost2010PropOp33
 70
     1
102
RTVSPost2010Prop34
280
     0
102
RTVSPost2010PropOp34
 70
     1
102
RTVSPost2010Prop35
280
     0
102
RTVSPost2010PropOp35
 70
     1
102
RTVSPost2010Prop36
280
     0
102
RTVSPost2010PropOp36
 70
     1
102
RTVSPost2010Prop37
 90
       50
102
RTVSPost2010PropOp37
 70
     1
102
RTVSPost2010Prop38
140
0.0
102
RTVSPost2010PropOp38
 70
     1
102
RTVSPost2010Prop39
140
1.0
102
RTVSPost2010PropOp39
 70
     1
102
RTVSPost2010Prop40
 90
        0
102
RTVSPost2010PropOp40
 70
     1
102
RTVSPost2010Prop41ColorIndex
 90
       18
102
RTVSPost2010Prop41ColorRGB
 90
        0
102
RTVSPost2010PropOp41
 70
     1
102
RTVSPost2010Prop42
 90
       50
102
RTVSPost2010PropOp42
 70
     1
102
RTVSPost2010Prop43
 90
        3
102
RTVSPost2010PropOp43
 70
     1
102
RTVSPost2010Prop44ColorIndex
 90
        5
102
RTVSPost2010Prop44ColorRGB
 90
      255
102
RTVSPost2010PropOp44
 70
     1
102
RTVSPost2010Prop45
280
     0
102
RTVSPost2010PropOp45
 70
     1
102
RTVSPost2010Prop46
 90
       50
102
RTVSPost2010PropOp46
 70
     1
102
RTVSPost2010Prop47
 90
       50
102
RTVSPost2010PropOp47
 70
     1
102
RTVSPost2010Prop48
 90
       50
102
RTVSPost2010PropOp48
 70
     1
102
RTVSPost2010Prop49
280
     0
102
RTVSPost2010PropOp49
 70
     1
102
RTVSPost2010Prop50
 90
       50
102
RTVSPost2010PropOp50
 70
     1
102
RTVSPost2010Prop51ColorIndex
 90
      256
102
RTVSPost2010Prop51ColorRGB
 90
-16777216
102
RTVSPost2010PropOp51
 70
     0
102
RTVSPost2010Prop52
140
1.0
102
RTVSPost2010PropOp52
 70
     0
102
RTVSPost2010Prop53
 90
        2
102
RTVSPost2010PropOp53
 70
     1
102
RTVSPost2010Prop54
  1
strokes_ogs.tif
102
RTVSPost2010PropOp54
 70
     1
102
RTVSPost2010Prop55
280
     0
102
RTVSPost2010PropOp55
 70
     1
102
RTVSPost2010Prop56
140
1.0
102
RTVSPost2010PropOp56
 70
     1
102
RTVSPost2010Prop57
140
1.0
102
RTVSPost2010PropOp57
 70
     1
102
RTVSPropertyOp0
 70
     1
102
RTVSPropertyOp1
 70
     1
102
RTVSPropertyOp2
 70
     1
102
RTVSPropertyOp3
 70
     1
102
RTVSPropertyOp4
 70
     1
102
RTVSPropertyOp5
 70
     1
102
RTVSPropertyOp6
 70
     1
102
RTVSPropertyOp7
 70
     1
102
RTVSPropertyOp8
 70
     1
102
RTVSPropertyOp9
 70
     1
102
RTVSPropertyOp10
 70
     1
102
RTVSPropertyOp11
 70
     1
102
RTVSPropertyOp12
 70
     1
102
RTVSPropertyOp13
 70
     1
102
RTVSPropertyOp14
 70
     1
102
RTVSPropertyOp15
 70
     1
102
RTVSPropertyOp16
 70
     1
102
RTVSPropertyOp17
 70
     1
102
RTVSPropertyOp18
 70
     1
102
RTVSPropertyOp19
 70
     1
102
RTVSPropertyOp20
 70
     1
102
RTVSPropertyOp21
 70
     1
102
RTVSPropertyOp22
 70
     1
102
RTVSPropertyOp23
 70
     1
102
RTVSPropertyOp24
 70
     1
102
RTVSPropertyOp25
 70
     1
102
RTVSPropertyOp26
 70
     1
102
RTVSPropertyOp27
 70
     1
102
RTVSPropertyOp28
 70
     1
102
RTVSPropertyOp29
 70
     1
102
RTVSPropertyOp30
 70
     1
102
RTVSPropertyOp31
 70
     1
102
RTVSPropertyOp32
 70
     1
102
RTVSPropertyOp33
 70
     1
102
RTVSPropertyOp34
 70
     1
102
RTVSPropertyOp35
 70
     1
102
RTVSPropertyOp36
 70
     1
102
RTVSPropertyOp37
 70
     1
102
RTVSPropertyOp38
 70
     1
102
RTVSPropertyOp39
 70
     1
102
RTVSPropertyOp40
 70
     1
102
RTVSPropertyOp41
 70
     1
102
RTVSPropertyOp42
 70
     1
102
RTVSPropertyOp43
 70
     1
102
RTVSPropertyOp44
 70
     1
102
RTVSPropertyOp45
 70
     1
102
RTVSPropertyOp46
 70
     1
102
RTVSPropertyOp47
 70
     1
102
RTVSPropertyOp48
 70
     1
102
RTVSPropertyOp49
 70
     1
102
RTVSPropertyOp50
 70
     1
102
RTVSPropertyOp51
 70
     0
102
RTVSPropertyOp52
 70
     0
102
RTVSPropertyOp53
 70
     1
102
RTVSPropertyOp54
 70
     1
102
RTVSPropertyOp55
 70
     1
102
RTVSPropertyOp56
 70
     1
102
RTVSPropertyOp57
 70
     1
102
RTVSPropertyOp58
 70
     1
102
RTVSPropertyOp59
 70
     1
102
RTVSPropertyOp60
 70
     1
102
RTVSPropertyOp61
 70
     1
102
RTVSPropertyOp62
 70
     1
  0
XRECORD
  5
3A0
102
{ACAD_REACTORS
330
39F
102
}
330
39F
100
AcDbXrecord
280
     1
102
RTVSPost2010Prop28
280
     0
102
RTVSPost2010PropOp28
 70
     1
102
RTVSPost2010Prop29
280
     1
102
RTVSPost2010PropOp29
 70
     1
102
RTVSPost2010Prop30
280
     1
102
RTVSPost2010PropOp30
 70
     1
102
RTVSPost2010Prop31
280
     0
102
RTVSPost2010PropOp31
 70
     1
102
RTVSPost2010Prop32
280
     0
102
RTVSPost2010PropOp32
 70
     1
102
RTVSPost2010Prop33
280
     0
102
RTVSPost2010PropOp33
 70
     1
102
RTVSPost2010Prop34
280
     0
102
RTVSPost2010PropOp34
 70
     1
102
RTVSPost2010Prop35
280
     0
102
RTVSPost2010PropOp35
 70
     1
102
RTVSPost2010Prop36
280
     0
102
RTVSPost2010PropOp36
 70
     1
102
RTVSPost2010Prop37
 90
       50
102
RTVSPost2010PropOp37
 70
     1
102
RTVSPost2010Prop38
140
0.0
102
RTVSPost2010PropOp38
 70
     1
102
RTVSPost2010Prop39
140
1.0
102
RTVSPost2010PropOp39
 70
     1
102
RTVSPost2010Prop40
 90
        0
102
RTVSPost2010PropOp40
 70
     1
102
RTVSPost2010Prop41ColorIndex
 90
       18
102
RTVSPost2010Prop41ColorRGB
 90
        0
102
RTVSPost2010PropOp41
 70
     1
102
RTVSPost2010Prop42
 90
       50
102
RTVSPost2010PropOp42
 70
     1
102
RTVSPost2010Prop43
 90
        3
102
RTVSPost2010PropOp43
 70
     1
102
RTVSPost2010Prop44ColorIndex
 90
        5
102
RTVSPost2010Prop44ColorRGB
 90
      255
102
RTVSPost2010PropOp44
 70
     1
102
RTVSPost2010Prop45
280
     0
102
RTVSPost2010PropOp45
 70
     1
102
RTVSPost2010Prop46
 90
       50
102
RTVSPost2010PropOp46
 70
     1
102
RTVSPost2010Prop47
 90
       50
102
RTVSPost2010PropOp47
 70
     1
102
RTVSPost2010Prop48
 90
       50
102
RTVSPost2010PropOp48
 70
     1
102
RTVSPost2010Prop49
280
     0
102
RTVSPost2010PropOp49
 70
     1
102
RTVSPost2010Prop50
 90
       50
102
RTVSPost2010PropOp50
 70
     1
102
RTVSPost2010Prop51ColorIndex
 90
      256
102
RTVSPost2010Prop51ColorRGB
 90
-16777216
102
RTVSPost2010PropOp51
 70
     0
102
RTVSPost2010Prop52
140
1.0
102
RTVSPost2010PropOp52
 70
     0
102
RTVSPost2010Prop53
 90
        2
102
RTVSPost2010PropOp53
 70
     1
102
RTVSPost2010Prop54
  1
strokes_ogs.tif
102
RTVSPost2010PropOp54
 70
     1
102
RTVSPost2010Prop55
280
     0
102
RTVSPost2010PropOp55
 70
     1
102
RTVSPost2010Prop56
140
1.0
102
RTVSPost2010PropOp56
 70
     1
102
RTVSPost2010Prop57
140
1.0
102
RTVSPost2010PropOp57
 70
     1
102
RTVSPropertyOp0
 70
     1
102
RTVSPropertyOp1
 70
     1
102
RTVSPropertyOp2
 70
     1
102
RTVSPropertyOp3
 70
     1
102
RTVSPropertyOp4
 70
     1
102
RTVSPropertyOp5
 70
     1
102
RTVSPropertyOp6
 70
     1
102
RTVSPropertyOp7
 70
     1
102
RTVSPropertyOp8
 70
     1
102
RTVSPropertyOp9
 70
     1
102
RTVSPropertyOp10
 70
     1
102
RTVSPropertyOp11
 70
     1
102
RTVSPropertyOp12
 70
     1
102
RTVSPropertyOp13
 70
     1
102
RTVSPropertyOp14
 70
     1
102
RTVSPropertyOp15
 70
     1
102
RTVSPropertyOp16
 70
     1
102
RTVSPropertyOp17
 70
     1
102
RTVSPropertyOp18
 70
     1
102
RTVSPropertyOp19
 70
     1
102
RTVSPropertyOp20
 70
     1
102
RTVSPropertyOp21
 70
     1
102
RTVSPropertyOp22
 70
     1
102
RTVSPropertyOp23
 70
     1
102
RTVSPropertyOp24
 70
     1
102
RTVSPropertyOp25
 70
     1
102
RTVSPropertyOp26
 70
     1
102
RTVSPropertyOp27
 70
     1
102
RTVSPropertyOp28
 70
     1
102
RTVSPropertyOp29
 70
     1
102
RTVSPropertyOp30
 70
     1
102
RTVSPropertyOp31
 70
     1
102
RTVSPropertyOp32
 70
     1
102
RTVSPropertyOp33
 70
     1
102
RTVSPropertyOp34
 70
     1
102
RTVSPropertyOp35
 70
     1
102
RTVSPropertyOp36
 70
     1
102
RTVSPropertyOp37
 70
     1
102
RTVSPropertyOp38
 70
     1
102
RTVSPropertyOp39
 70
     1
102
RTVSPropertyOp40
 70
     1
102
RTVSPropertyOp41
 70
     1
102
RTVSPropertyOp42
 70
     1
102
RTVSPropertyOp43
 70
     1
102
RTVSPropertyOp44
 70
     1
102
RTVSPropertyOp45
 70
     1
102
RTVSPropertyOp46
 70
     1
102
RTVSPropertyOp47
 70
     1
102
RTVSPropertyOp48
 70
     1
102
RTVSPropertyOp49
 70
     1
102
RTVSPropertyOp50
 70
     1
102
RTVSPropertyOp51
 70
     0
102
RTVSPropertyOp52
 70
     0
102
RTVSPropertyOp53
 70
     1
102
RTVSPropertyOp54
 70
     1
102
RTVSPropertyOp55
 70
     1
102
RTVSPropertyOp56
 70
     1
102
RTVSPropertyOp57
 70
     1
102
RTVSPropertyOp58
 70
     1
102
RTVSPropertyOp59
 70
     1
102
RTVSPropertyOp60
 70
     1
102
RTVSPropertyOp61
 70
     1
102
RTVSPropertyOp62
 70
     1
  0
XRECORD
  5
3A2
102
{ACAD_REACTORS
330
3A1
102
}
330
3A1
100
AcDbXrecord
280
     1
102
RTVSPost2010Prop28
280
     0
102
RTVSPost2010PropOp28
 70
     1
102
RTVSPost2010Prop29
280
     1
102
RTVSPost2010PropOp29
 70
     1
102
RTVSPost2010Prop30
280
     1
102
RTVSPost2010PropOp30
 70
     1
102
RTVSPost2010Prop31
280
     0
102
RTVSPost2010PropOp31
 70
     1
102
RTVSPost2010Prop32
280
     0
102
RTVSPost2010PropOp32
 70
     1
102
RTVSPost2010Prop33
280
     0
102
RTVSPost2010PropOp33
 70
     1
102
RTVSPost2010Prop34
280
     0
102
RTVSPost2010PropOp34
 70
     1
102
RTVSPost2010Prop35
280
     0
102
RTVSPost2010PropOp35
 70
     1
102
RTVSPost2010Prop36
280
     0
102
RTVSPost2010PropOp36
 70
     1
102
RTVSPost2010Prop37
 90
       50
102
RTVSPost2010PropOp37
 70
     1
102
RTVSPost2010Prop38
140
0.0
102
RTVSPost2010PropOp38
 70
     1
102
RTVSPost2010Prop39
140
1.0
102
RTVSPost2010PropOp39
 70
     1
102
RTVSPost2010Prop40
 90
        0
102
RTVSPost2010PropOp40
 70
     1
102
RTVSPost2010Prop41ColorIndex
 90
       18
102
RTVSPost2010Prop41ColorRGB
 90
        0
102
RTVSPost2010PropOp41
 70
     1
102
RTVSPost2010Prop42
 90
       50
102
RTVSPost2010PropOp42
 70
     1
102
RTVSPost2010Prop43
 90
        3
102
RTVSPost2010PropOp43
 70
     1
102
RTVSPost2010Prop44ColorIndex
 90
        5
102
RTVSPost2010Prop44ColorRGB
 90
      255
102
RTVSPost2010PropOp44
 70
     1
102
RTVSPost2010Prop45
280
     0
102
RTVSPost2010PropOp45
 70
     1
102
RTVSPost2010Prop46
 90
       50
102
RTVSPost2010PropOp46
 70
     1
102
RTVSPost2010Prop47
 90
       50
102
RTVSPost2010PropOp47
 70
     1
102
RTVSPost2010Prop48
 90
       50
102
RTVSPost2010PropOp48
 70
     1
102
RTVSPost2010Prop49
280
     0
102
RTVSPost2010PropOp49
 70
     1
102
RTVSPost2010Prop50
 90
       50
102
RTVSPost2010PropOp50
 70
     1
102
RTVSPost2010Prop51ColorIndex
 90
      256
102
RTVSPost2010Prop51ColorRGB
 90
-16777216
102
RTVSPost2010PropOp51
 70
     0
102
RTVSPost2010Prop52
140
1.0
102
RTVSPost2010PropOp52
 70
     0
102
RTVSPost2010Prop53
 90
        2
102
RTVSPost2010PropOp53
 70
     1
102
RTVSPost2010Prop54
  1
strokes_ogs.tif
102
RTVSPost2010PropOp54
 70
     1
102
RTVSPost2010Prop55
280
     0
102
RTVSPost2010PropOp55
 70
     1
102
RTVSPost2010Prop56
140
1.0
102
RTVSPost2010PropOp56
 70
     1
102
RTVSPost2010Prop57
140
1.0
102
RTVSPost2010PropOp57
 70
     1
102
RTVSPropertyOp0
 70
     1
102
RTVSPropertyOp1
 70
     1
102
RTVSPropertyOp2
 70
     1
102
RTVSPropertyOp3
 70
     1
102
RTVSPropertyOp4
 70
     1
102
RTVSPropertyOp5
 70
     1
102
RTVSPropertyOp6
 70
     1
102
RTVSPropertyOp7
 70
     1
102
RTVSPropertyOp8
 70
     1
102
RTVSPropertyOp9
 70
     1
102
RTVSPropertyOp10
 70
     1
102
RTVSPropertyOp11
 70
     1
102
RTVSPropertyOp12
 70
     1
102
RTVSPropertyOp13
 70
     1
102
RTVSPropertyOp14
 70
     1
102
RTVSPropertyOp15
 70
     1
102
RTVSPropertyOp16
 70
     1
102
RTVSPropertyOp17
 70
     1
102
RTVSPropertyOp18
 70
     1
102
RTVSPropertyOp19
 70
     1
102
RTVSPropertyOp20
 70
     1
102
RTVSPropertyOp21
 70
     1
102
RTVSPropertyOp22
 70
     1
102
RTVSPropertyOp23
 70
     1
102
RTVSPropertyOp24
 70
     1
102
RTVSPropertyOp25
 70
     1
102
RTVSPropertyOp26
 70
     1
102
RTVSPropertyOp27
 70
     1
102
RTVSPropertyOp28
 70
     1
102
RTVSPropertyOp29
 70
     1
102
RTVSPropertyOp30
 70
     1
102
RTVSPropertyOp31
 70
     1
102
RTVSPropertyOp32
 70
     1
102
RTVSPropertyOp33
 70
     1
102
RTVSPropertyOp34
 70
     1
102
RTVSPropertyOp35
 70
     1
102
RTVSPropertyOp36
 70
     1
102
RTVSPropertyOp37
 70
     1
102
RTVSPropertyOp38
 70
     1
102
RTVSPropertyOp39
 70
     1
102
RTVSPropertyOp40
 70
     1
102
RTVSPropertyOp41
 70
     1
102
RTVSPropertyOp42
 70
     1
102
RTVSPropertyOp43
 70
     1
102
RTVSPropertyOp44
 70
     1
102
RTVSPropertyOp45
 70
     1
102
RTVSPropertyOp46
 70
     1
102
RTVSPropertyOp47
 70
     1
102
RTVSPropertyOp48
 70
     1
102
RTVSPropertyOp49
 70
     1
102
RTVSPropertyOp50
 70
     1
102
RTVSPropertyOp51
 70
     0
102
RTVSPropertyOp52
 70
     0
102
RTVSPropertyOp53
 70
     1
102
RTVSPropertyOp54
 70
     1
102
RTVSPropertyOp55
 70
     1
102
RTVSPropertyOp56
 70
     1
102
RTVSPropertyOp57
 70
     1
102
RTVSPropertyOp58
 70
     1
102
RTVSPropertyOp59
 70
     1
102
RTVSPropertyOp60
 70
     1
102
RTVSPropertyOp61
 70
     1
102
RTVSPropertyOp62
 70
     1
  0
XRECORD
  5
3B2
102
{ACAD_REACTORS
330
3B1
102
}
330
3B1
100
AcDbXrecord
280
     1
102
RTVSPost2010Prop28
280
     0
102
RTVSPost2010PropOp28
 70
     0
102
RTVSPost2010Prop29
280
     1
102
RTVSPost2010PropOp29
 70
     0
102
RTVSPost2010Prop30
280
     1
102
RTVSPost2010PropOp30
 70
     0
102
RTVSPost2010Prop31
280
     0
102
RTVSPost2010PropOp31
 70
     0
102
RTVSPost2010Prop32
280
     0
102
RTVSPost2010PropOp32
 70
     0
102
RTVSPost2010Prop33
280
     0
102
RTVSPost2010PropOp33
 70
     0
102
RTVSPost2010Prop34
280
     0
102
RTVSPost2010PropOp34
 70
     0
102
RTVSPost2010Prop35
280
     0
102
RTVSPost2010PropOp35
 70
     0
102
RTVSPost2010Prop36
280
     0
102
RTVSPost2010PropOp36
 70
     0
102
RTVSPost2010Prop37
 90
       50
102
RTVSPost2010PropOp37
 70
     0
102
RTVSPost2010Prop38
140
0.0
102
RTVSPost2010PropOp38
 70
     0
102
RTVSPost2010Prop39
140
1.0
102
RTVSPost2010PropOp39
 70
     0
102
RTVSPost2010Prop40
 90
        0
102
RTVSPost2010PropOp40
 70
     0
102
RTVSPost2010Prop41ColorIndex
 90
       18
102
RTVSPost2010Prop41ColorRGB
 90
        0
102
RTVSPost2010PropOp41
 70
     0
102
RTVSPost2010Prop42
 90
       50
102
RTVSPost2010PropOp42
 70
     0
102
RTVSPost2010Prop43
 90
        3
102
RTVSPost2010PropOp43
 70
     0
102
RTVSPost2010Prop44ColorIndex
 90
        5
102
RTVSPost2010Prop44ColorRGB
 90
      255
102
RTVSPost2010PropOp44
 70
     0
102
RTVSPost2010Prop45
280
     0
102
RTVSPost2010PropOp45
 70
     0
102
RTVSPost2010Prop46
 90
       50
102
RTVSPost2010PropOp46
 70
     0
102
RTVSPost2010Prop47
 90
       50
102
RTVSPost2010PropOp47
 70
     0
102
RTVSPost2010Prop48
 90
       50
102
RTVSPost2010PropOp48
 70
     0
102
RTVSPost2010Prop49
280
     0
102
RTVSPost2010PropOp49
 70
     0
102
RTVSPost2010Prop50
 90
       50
102
RTVSPost2010PropOp50
 70
     0
102
RTVSPost2010Prop51ColorIndex
 90
      256
102
RTVSPost2010Prop51ColorRGB
 90
-16777216
102
RTVSPost2010PropOp51
 70
     0
102
RTVSPost2010Prop52
140
1.0
102
RTVSPost2010PropOp52
 70
     0
102
RTVSPost2010Prop53
 90
        2
102
RTVSPost2010PropOp53
 70
     0
102
RTVSPost2010Prop54
  1
strokes_ogs.tif
102
RTVSPost2010PropOp54
 70
     0
102
RTVSPost2010Prop55
280
     0
102
RTVSPost2010PropOp55
 70
     0
102
RTVSPost2010Prop56
140
1.0
102
RTVSPost2010PropOp56
 70
     0
102
RTVSPost2010Prop57
140
1.0
102
RTVSPost2010PropOp57
 70
     0
102
RTVSPropertyOp0
 70
     0
102
RTVSPropertyOp1
 70
     0
102
RTVSPropertyOp2
 70
     0
102
RTVSPropertyOp3
 70
     0
102
RTVSPropertyOp4
 70
     0
102
RTVSPropertyOp5
 70
     0
102
RTVSPropertyOp6
 70
     0
102
RTVSPropertyOp7
 70
     0
102
RTVSPropertyOp8
 70
     0
102
RTVSPropertyOp9
 70
     0
102
RTVSPropertyOp10
 70
     0
102
RTVSPropertyOp11
 70
     0
102
RTVSPropertyOp12
 70
     0
102
RTVSPropertyOp13
 70
     0
102
RTVSPropertyOp14
 70
     2
102
RTVSPropertyOp15
 70
     0
102
RTVSPropertyOp16
 70
     0
102
RTVSPropertyOp17
 70
     0
102
RTVSPropertyOp18
 70
     0
102
RTVSPropertyOp19
 70
     0
102
RTVSPropertyOp20
 70
     0
102
RTVSPropertyOp21
 70
     0
102
RTVSPropertyOp22
 70
     0
102
RTVSPropertyOp23
 70
     0
102
RTVSPropertyOp24
 70
     0
102
RTVSPropertyOp25
 70
     0
102
RTVSPropertyOp26
 70
     0
102
RTVSPropertyOp27
 70
     0
102
RTVSPropertyOp28
 70
     0
102
RTVSPropertyOp29
 70
     0
102
RTVSPropertyOp30
 70
     0
102
RTVSPropertyOp31
 70
     0
102
RTVSPropertyOp32
 70
     0
102
RTVSPropertyOp33
 70
     0
102
RTVSPropertyOp34
 70
     0
102
RTVSPropertyOp35
 70
     0
102
RTVSPropertyOp36
 70
     0
102
RTVSPropertyOp37
 70
     0
102
RTVSPropertyOp38
 70
     0
102
RTVSPropertyOp39
 70
     0
102
RTVSPropertyOp40
 70
     0
102
RTVSPropertyOp41
 70
     0
102
RTVSPropertyOp42
 70
     0
102
RTVSPropertyOp43
 70
     0
102
RTVSPropertyOp44
 70
     0
102
RTVSPropertyOp45
 70
     0
102
RTVSPropertyOp46
 70
     0
102
RTVSPropertyOp47
 70
     0
102
RTVSPropertyOp48
 70
     0
102
RTVSPropertyOp49
 70
     0
102
RTVSPropertyOp50
 70
     0
102
RTVSPropertyOp51
 70
     0
102
RTVSPropertyOp52
 70
     0
102
RTVSPropertyOp53
 70
     0
102
RTVSPropertyOp54
 70
     0
102
RTVSPropertyOp55
 70
     0
102
RTVSPropertyOp56
 70
     0
102
RTVSPropertyOp57
 70
     0
102
RTVSPropertyOp58
 70
     1
102
RTVSPropertyOp59
 70
     1
102
RTVSPropertyOp60
 70
     1
102
RTVSPropertyOp61
 70
     1
102
RTVSPropertyOp62
 70
     1
  0
XRECORD
  5
3AA
102
{ACAD_REACTORS
330
3A9
102
}
330
3A9
100
AcDbXrecord
280
     1
102
RTVSPost2010Prop28
280
     0
102
RTVSPost2010PropOp28
 70
     1
102
RTVSPost2010Prop29
280
     1
102
RTVSPost2010PropOp29
 70
     1
102
RTVSPost2010Prop30
280
     1
102
RTVSPost2010PropOp30
 70
     1
102
RTVSPost2010Prop31
280
     0
102
RTVSPost2010PropOp31
 70
     1
102
RTVSPost2010Prop32
280
     0
102
RTVSPost2010PropOp32
 70
     1
102
RTVSPost2010Prop33
280
     0
102
RTVSPost2010PropOp33
 70
     1
102
RTVSPost2010Prop34
280
     0
102
RTVSPost2010PropOp34
 70
     1
102
RTVSPost2010Prop35
280
     0
102
RTVSPost2010PropOp35
 70
     1
102
RTVSPost2010Prop36
280
     0
102
RTVSPost2010PropOp36
 70
     1
102
RTVSPost2010Prop37
 90
       50
102
RTVSPost2010PropOp37
 70
     1
102
RTVSPost2010Prop38
140
0.0
102
RTVSPost2010PropOp38
 70
     1
102
RTVSPost2010Prop39
140
1.0
102
RTVSPost2010PropOp39
 70
     1
102
RTVSPost2010Prop40
 90
        0
102
RTVSPost2010PropOp40
 70
     1
102
RTVSPost2010Prop41ColorIndex
 90
       18
102
RTVSPost2010Prop41ColorRGB
 90
        0
102
RTVSPost2010PropOp41
 70
     1
102
RTVSPost2010Prop42
 90
       50
102
RTVSPost2010PropOp42
 70
     1
102
RTVSPost2010Prop43
 90
        3
102
RTVSPost2010PropOp43
 70
     1
102
RTVSPost2010Prop44ColorIndex
 90
        5
102
RTVSPost2010Prop44ColorRGB
 90
      255
102
RTVSPost2010PropOp44
 70
     1
102
RTVSPost2010Prop45
280
     0
102
RTVSPost2010PropOp45
 70
     1
102
RTVSPost2010Prop46
 90
       50
102
RTVSPost2010PropOp46
 70
     1
102
RTVSPost2010Prop47
 90
       50
102
RTVSPost2010PropOp47
 70
     1
102
RTVSPost2010Prop48
 90
       50
102
RTVSPost2010PropOp48
 70
     1
102
RTVSPost2010Prop49
280
     0
102
RTVSPost2010PropOp49
 70
     1
102
RTVSPost2010Prop50
 90
       50
102
RTVSPost2010PropOp50
 70
     1
102
RTVSPost2010Prop51ColorIndex
 90
      256
102
RTVSPost2010Prop51ColorRGB
 90
-16777216
102
RTVSPost2010PropOp51
 70
     0
102
RTVSPost2010Prop52
140
1.0
102
RTVSPost2010PropOp52
 70
     0
102
RTVSPost2010Prop53
 90
        2
102
RTVSPost2010PropOp53
 70
     1
102
RTVSPost2010Prop54
  1
strokes_ogs.tif
102
RTVSPost2010PropOp54
 70
     1
102
RTVSPost2010Prop55
280
     0
102
RTVSPost2010PropOp55
 70
     1
102
RTVSPost2010Prop56
140
1.0
102
RTVSPost2010PropOp56
 70
     1
102
RTVSPost2010Prop57
140
1.0
102
RTVSPost2010PropOp57
 70
     1
102
RTVSPropertyOp0
 70
     1
102
RTVSPropertyOp1
 70
     1
102
RTVSPropertyOp2
 70
     1
102
RTVSPropertyOp3
 70
     1
102
RTVSPropertyOp4
 70
     1
102
RTVSPropertyOp5
 70
     1
102
RTVSPropertyOp6
 70
     1
102
RTVSPropertyOp7
 70
     1
102
RTVSPropertyOp8
 70
     1
102
RTVSPropertyOp9
 70
     1
102
RTVSPropertyOp10
 70
     1
102
RTVSPropertyOp11
 70
     1
102
RTVSPropertyOp12
 70
     1
102
RTVSPropertyOp13
 70
     1
102
RTVSPropertyOp14
 70
     1
102
RTVSPropertyOp15
 70
     1
102
RTVSPropertyOp16
 70
     1
102
RTVSPropertyOp17
 70
     1
102
RTVSPropertyOp18
 70
     1
102
RTVSPropertyOp19
 70
     1
102
RTVSPropertyOp20
 70
     1
102
RTVSPropertyOp21
 70
     1
102
RTVSPropertyOp22
 70
     1
102
RTVSPropertyOp23
 70
     1
102
RTVSPropertyOp24
 70
     1
102
RTVSPropertyOp25
 70
     1
102
RTVSPropertyOp26
 70
     1
102
RTVSPropertyOp27
 70
     1
102
RTVSPropertyOp28
 70
     1
102
RTVSPropertyOp29
 70
     1
102
RTVSPropertyOp30
 70
     1
102
RTVSPropertyOp31
 70
     1
102
RTVSPropertyOp32
 70
     1
102
RTVSPropertyOp33
 70
     1
102
RTVSPropertyOp34
 70
     1
102
RTVSPropertyOp35
 70
     1
102
RTVSPropertyOp36
 70
     1
102
RTVSPropertyOp37
 70
     1
102
RTVSPropertyOp38
 70
     1
102
RTVSPropertyOp39
 70
     1
102
RTVSPropertyOp40
 70
     1
102
RTVSPropertyOp41
 70
     1
102
RTVSPropertyOp42
 70
     1
102
RTVSPropertyOp43
 70
     1
102
RTVSPropertyOp44
 70
     1
102
RTVSPropertyOp45
 70
     1
102
RTVSPropertyOp46
 70
     1
102
RTVSPropertyOp47
 70
     1
102
RTVSPropertyOp48
 70
     1
102
RTVSPropertyOp49
 70
     1
102
RTVSPropertyOp50
 70
     1
102
RTVSPropertyOp51
 70
     0
102
RTVSPropertyOp52
 70
     0
102
RTVSPropertyOp53
 70
     1
102
RTVSPropertyOp54
 70
     1
102
RTVSPropertyOp55
 70
     1
102
RTVSPropertyOp56
 70
     1
102
RTVSPropertyOp57
 70
     1
102
RTVSPropertyOp58
 70
     1
102
RTVSPropertyOp59
 70
     1
102
RTVSPropertyOp60
 70
     1
102
RTVSPropertyOp61
 70
     1
102
RTVSPropertyOp62
 70
     1
  0
XRECORD
  5
38E
102
{ACAD_REACTORS
330
38D
102
}
330
38D
100
AcDbXrecord
280
     1
102
RTVSPost2010Prop28
280
     0
102
RTVSPost2010PropOp28
 70
     1
102
RTVSPost2010Prop29
280
     1
102
RTVSPost2010PropOp29
 70
     1
102
RTVSPost2010Prop30
280
     1
102
RTVSPost2010PropOp30
 70
     1
102
RTVSPost2010Prop31
280
     0
102
RTVSPost2010PropOp31
 70
     1
102
RTVSPost2010Prop32
280
     0
102
RTVSPost2010PropOp32
 70
     1
102
RTVSPost2010Prop33
280
     0
102
RTVSPost2010PropOp33
 70
     1
102
RTVSPost2010Prop34
280
     0
102
RTVSPost2010PropOp34
 70
     1
102
RTVSPost2010Prop35
280
     0
102
RTVSPost2010PropOp35
 70
     1
102
RTVSPost2010Prop36
280
     0
102
RTVSPost2010PropOp36
 70
     1
102
RTVSPost2010Prop37
 90
       50
102
RTVSPost2010PropOp37
 70
     1
102
RTVSPost2010Prop38
140
0.0
102
RTVSPost2010PropOp38
 70
     1
102
RTVSPost2010Prop39
140
1.0
102
RTVSPost2010PropOp39
 70
     1
102
RTVSPost2010Prop40
 90
        0
102
RTVSPost2010PropOp40
 70
     1
102
RTVSPost2010Prop41ColorIndex
 90
       18
102
RTVSPost2010Prop41ColorRGB
 90
        0
102
RTVSPost2010PropOp41
 70
     1
102
RTVSPost2010Prop42
 90
       50
102
RTVSPost2010PropOp42
 70
     1
102
RTVSPost2010Prop43
 90
        3
102
RTVSPost2010PropOp43
 70
     1
102
RTVSPost2010Prop44ColorIndex
 90
        5
102
RTVSPost2010Prop44ColorRGB
 90
      255
102
RTVSPost2010PropOp44
 70
     1
102
RTVSPost2010Prop45
280
     0
102
RTVSPost2010PropOp45
 70
     1
102
RTVSPost2010Prop46
 90
       50
102
RTVSPost2010PropOp46
 70
     1
102
RTVSPost2010Prop47
 90
       50
102
RTVSPost2010PropOp47
 70
     1
102
RTVSPost2010Prop48
 90
       50
102
RTVSPost2010PropOp48
 70
     1
102
RTVSPost2010Prop49
280
     0
102
RTVSPost2010PropOp49
 70
     1
102
RTVSPost2010Prop50
 90
       50
102
RTVSPost2010PropOp50
 70
     1
102
RTVSPost2010Prop51ColorIndex
 90
      256
102
RTVSPost2010Prop51ColorRGB
 90
-16777216
102
RTVSPost2010PropOp51
 70
     0
102
RTVSPost2010Prop52
140
1.0
102
RTVSPost2010PropOp52
 70
     0
102
RTVSPost2010Prop53
 90
        2
102
RTVSPost2010PropOp53
 70
     1
102
RTVSPost2010Prop54
  1
strokes_ogs.tif
102
RTVSPost2010PropOp54
 70
     1
102
RTVSPost2010Prop55
280
     0
102
RTVSPost2010PropOp55
 70
     1
102
RTVSPost2010Prop56
140
1.0
102
RTVSPost2010PropOp56
 70
     1
102
RTVSPost2010Prop57
140
1.0
102
RTVSPost2010PropOp57
 70
     1
102
RTVSPropertyOp0
 70
     1
102
RTVSPropertyOp1
 70
     1
102
RTVSPropertyOp2
 70
     1
102
RTVSPropertyOp3
 70
     1
102
RTVSPropertyOp4
 70
     1
102
RTVSPropertyOp5
 70
     1
102
RTVSPropertyOp6
 70
     1
102
RTVSPropertyOp7
 70
     1
102
RTVSPropertyOp8
 70
     1
102
RTVSPropertyOp9
 70
     1
102
RTVSPropertyOp10
 70
     1
102
RTVSPropertyOp11
 70
     1
102
RTVSPropertyOp12
 70
     1
102
RTVSPropertyOp13
 70
     1
102
RTVSPropertyOp14
 70
     1
102
RTVSPropertyOp15
 70
     1
102
RTVSPropertyOp16
 70
     1
102
RTVSPropertyOp17
 70
     1
102
RTVSPropertyOp18
 70
     1
102
RTVSPropertyOp19
 70
     1
102
RTVSPropertyOp20
 70
     1
102
RTVSPropertyOp21
 70
     1
102
RTVSPropertyOp22
 70
     1
102
RTVSPropertyOp23
 70
     1
102
RTVSPropertyOp24
 70
     1
102
RTVSPropertyOp25
 70
     1
102
RTVSPropertyOp26
 70
     1
102
RTVSPropertyOp27
 70
     1
102
RTVSPropertyOp28
 70
     1
102
RTVSPropertyOp29
 70
     1
102
RTVSPropertyOp30
 70
     1
102
RTVSPropertyOp31
 70
     1
102
RTVSPropertyOp32
 70
     1
102
RTVSPropertyOp33
 70
     1
102
RTVSPropertyOp34
 70
     1
102
RTVSPropertyOp35
 70
     1
102
RTVSPropertyOp36
 70
     1
102
RTVSPropertyOp37
 70
     1
102
RTVSPropertyOp38
 70
     1
102
RTVSPropertyOp39
 70
     1
102
RTVSPropertyOp40
 70
     1
102
RTVSPropertyOp41
 70
     1
102
RTVSPropertyOp42
 70
     1
102
RTVSPropertyOp43
 70
     1
102
RTVSPropertyOp44
 70
     1
102
RTVSPropertyOp45
 70
     1
102
RTVSPropertyOp46
 70
     1
102
RTVSPropertyOp47
 70
     1
102
RTVSPropertyOp48
 70
     1
102
RTVSPropertyOp49
 70
     1
102
RTVSPropertyOp50
 70
     1
102
RTVSPropertyOp51
 70
     0
102
RTVSPropertyOp52
 70
     0
102
RTVSPropertyOp53
 70
     1
102
RTVSPropertyOp54
 70
     1
102
RTVSPropertyOp55
 70
     1
102
RTVSPropertyOp56
 70
     1
102
RTVSPropertyOp57
 70
     1
102
RTVSPropertyOp58
 70
     1
102
RTVSPropertyOp59
 70
     1
102
RTVSPropertyOp60
 70
     1
102
RTVSPropertyOp61
 70
     1
102
RTVSPropertyOp62
 70
     1
  0
XRECORD
  5
390
102
{ACAD_REACTORS
330
38F
102
}
330
38F
100
AcDbXrecord
280
     1
102
RTVSPost2010Prop28
280
     0
102
RTVSPost2010PropOp28
 70
     1
102
RTVSPost2010Prop29
280
     1
102
RTVSPost2010PropOp29
 70
     1
102
RTVSPost2010Prop30
280
     1
102
RTVSPost2010PropOp30
 70
     1
102
RTVSPost2010Prop31
280
     0
102
RTVSPost2010PropOp31
 70
     1
102
RTVSPost2010Prop32
280
     0
102
RTVSPost2010PropOp32
 70
     1
102
RTVSPost2010Prop33
280
     0
102
RTVSPost2010PropOp33
 70
     1
102
RTVSPost2010Prop34
280
     0
102
RTVSPost2010PropOp34
 70
     1
102
RTVSPost2010Prop35
280
     0
102
RTVSPost2010PropOp35
 70
     1
102
RTVSPost2010Prop36
280
     0
102
RTVSPost2010PropOp36
 70
     1
102
RTVSPost2010Prop37
 90
       50
102
RTVSPost2010PropOp37
 70
     1
102
RTVSPost2010Prop38
140
0.0
102
RTVSPost2010PropOp38
 70
     1
102
RTVSPost2010Prop39
140
1.0
102
RTVSPost2010PropOp39
 70
     1
102
RTVSPost2010Prop40
 90
        0
102
RTVSPost2010PropOp40
 70
     1
102
RTVSPost2010Prop41ColorIndex
 90
       18
102
RTVSPost2010Prop41ColorRGB
 90
        0
102
RTVSPost2010PropOp41
 70
     1
102
RTVSPost2010Prop42
 90
       50
102
RTVSPost2010PropOp42
 70
     1
102
RTVSPost2010Prop43
 90
        3
102
RTVSPost2010PropOp43
 70
     1
102
RTVSPost2010Prop44ColorIndex
 90
        5
102
RTVSPost2010Prop44ColorRGB
 90
      255
102
RTVSPost2010PropOp44
 70
     1
102
RTVSPost2010Prop45
280
     0
102
RTVSPost2010PropOp45
 70
     1
102
RTVSPost2010Prop46
 90
       50
102
RTVSPost2010PropOp46
 70
     1
102
RTVSPost2010Prop47
 90
       50
102
RTVSPost2010PropOp47
 70
     1
102
RTVSPost2010Prop48
 90
       50
102
RTVSPost2010PropOp48
 70
     1
102
RTVSPost2010Prop49
280
     0
102
RTVSPost2010PropOp49
 70
     1
102
RTVSPost2010Prop50
 90
       50
102
RTVSPost2010PropOp50
 70
     1
102
RTVSPost2010Prop51ColorIndex
 90
      256
102
RTVSPost2010Prop51ColorRGB
 90
-16777216
102
RTVSPost2010PropOp51
 70
     0
102
RTVSPost2010Prop52
140
1.0
102
RTVSPost2010PropOp52
 70
     0
102
RTVSPost2010Prop53
 90
        2
102
RTVSPost2010PropOp53
 70
     1
102
RTVSPost2010Prop54
  1
strokes_ogs.tif
102
RTVSPost2010PropOp54
 70
     1
102
RTVSPost2010Prop55
280
     0
102
RTVSPost2010PropOp55
 70
     1
102
RTVSPost2010Prop56
140
1.0
102
RTVSPost2010PropOp56
 70
     1
102
RTVSPost2010Prop57
140
1.0
102
RTVSPost2010PropOp57
 70
     1
102
RTVSPropertyOp0
 70
     1
102
RTVSPropertyOp1
 70
     1
102
RTVSPropertyOp2
 70
     1
102
RTVSPropertyOp3
 70
     1
102
RTVSPropertyOp4
 70
     1
102
RTVSPropertyOp5
 70
     1
102
RTVSPropertyOp6
 70
     1
102
RTVSPropertyOp7
 70
     1
102
RTVSPropertyOp8
 70
     1
102
RTVSPropertyOp9
 70
     1
102
RTVSPropertyOp10
 70
     1
102
RTVSPropertyOp11
 70
     1
102
RTVSPropertyOp12
 70
     1
102
RTVSPropertyOp13
 70
     1
102
RTVSPropertyOp14
 70
     1
102
RTVSPropertyOp15
 70
     1
102
RTVSPropertyOp16
 70
     1
102
RTVSPropertyOp17
 70
     1
102
RTVSPropertyOp18
 70
     1
102
RTVSPropertyOp19
 70
     1
102
RTVSPropertyOp20
 70
     1
102
RTVSPropertyOp21
 70
     1
102
RTVSPropertyOp22
 70
     1
102
RTVSPropertyOp23
 70
     1
102
RTVSPropertyOp24
 70
     1
102
RTVSPropertyOp25
 70
     1
102
RTVSPropertyOp26
 70
     1
102
RTVSPropertyOp27
 70
     1
102
RTVSPropertyOp28
 70
     1
102
RTVSPropertyOp29
 70
     1
102
RTVSPropertyOp30
 70
     1
102
RTVSPropertyOp31
 70
     1
102
RTVSPropertyOp32
 70
     1
102
RTVSPropertyOp33
 70
     1
102
RTVSPropertyOp34
 70
     1
102
RTVSPropertyOp35
 70
     1
102
RTVSPropertyOp36
 70
     1
102
RTVSPropertyOp37
 70
     1
102
RTVSPropertyOp38
 70
     1
102
RTVSPropertyOp39
 70
     1
102
RTVSPropertyOp40
 70
     1
102
RTVSPropertyOp41
 70
     1
102
RTVSPropertyOp42
 70
     1
102
RTVSPropertyOp43
 70
     1
102
RTVSPropertyOp44
 70
     1
102
RTVSPropertyOp45
 70
     1
102
RTVSPropertyOp46
 70
     1
102
RTVSPropertyOp47
 70
     1
102
RTVSPropertyOp48
 70
     1
102
RTVSPropertyOp49
 70
     1
102
RTVSPropertyOp50
 70
     1
102
RTVSPropertyOp51
 70
     0
102
RTVSPropertyOp52
 70
     0
102
RTVSPropertyOp53
 70
     1
102
RTVSPropertyOp54
 70
     1
102
RTVSPropertyOp55
 70
     1
102
RTVSPropertyOp56
 70
     1
102
RTVSPropertyOp57
 70
     1
102
RTVSPropertyOp58
 70
     1
102
RTVSPropertyOp59
 70
     1
102
RTVSPropertyOp60
 70
     1
102
RTVSPropertyOp61
 70
     1
102
RTVSPropertyOp62
 70
     1
  0
XRECORD
  5
392
102
{ACAD_REACTORS
330
391
102
}
330
391
100
AcDbXrecord
280
     1
102
RTVSPost2010Prop28
280
     0
102
RTVSPost2010PropOp28
 70
     1
102
RTVSPost2010Prop29
280
     1
102
RTVSPost2010PropOp29
 70
     1
102
RTVSPost2010Prop30
280
     1
102
RTVSPost2010PropOp30
 70
     1
102
RTVSPost2010Prop31
280
     0
102
RTVSPost2010PropOp31
 70
     1
102
RTVSPost2010Prop32
280
     0
102
RTVSPost2010PropOp32
 70
     1
102
RTVSPost2010Prop33
280
     0
102
RTVSPost2010PropOp33
 70
     1
102
RTVSPost2010Prop34
280
     0
102
RTVSPost2010PropOp34
 70
     1
102
RTVSPost2010Prop35
280
     0
102
RTVSPost2010PropOp35
 70
     1
102
RTVSPost2010Prop36
280
     0
102
RTVSPost2010PropOp36
 70
     1
102
RTVSPost2010Prop37
 90
       50
102
RTVSPost2010PropOp37
 70
     1
102
RTVSPost2010Prop38
140
0.0
102
RTVSPost2010PropOp38
 70
     1
102
RTVSPost2010Prop39
140
1.0
102
RTVSPost2010PropOp39
 70
     1
102
RTVSPost2010Prop40
 90
        0
102
RTVSPost2010PropOp40
 70
     1
102
RTVSPost2010Prop41ColorIndex
 90
       18
102
RTVSPost2010Prop41ColorRGB
 90
        0
102
RTVSPost2010PropOp41
 70
     1
102
RTVSPost2010Prop42
 90
       50
102
RTVSPost2010PropOp42
 70
     1
102
RTVSPost2010Prop43
 90
        3
102
RTVSPost2010PropOp43
 70
     1
102
RTVSPost2010Prop44ColorIndex
 90
        5
102
RTVSPost2010Prop44ColorRGB
 90
      255
102
RTVSPost2010PropOp44
 70
     1
102
RTVSPost2010Prop45
280
     0
102
RTVSPost2010PropOp45
 70
     1
102
RTVSPost2010Prop46
 90
       50
102
RTVSPost2010PropOp46
 70
     1
102
RTVSPost2010Prop47
 90
       50
102
RTVSPost2010PropOp47
 70
     1
102
RTVSPost2010Prop48
 90
       50
102
RTVSPost2010PropOp48
 70
     1
102
RTVSPost2010Prop49
280
     0
102
RTVSPost2010PropOp49
 70
     1
102
RTVSPost2010Prop50
 90
       50
102
RTVSPost2010PropOp50
 70
     1
102
RTVSPost2010Prop51ColorIndex
 90
      256
102
RTVSPost2010Prop51ColorRGB
 90
-16777216
102
RTVSPost2010PropOp51
 70
     0
102
RTVSPost2010Prop52
140
1.0
102
RTVSPost2010PropOp52
 70
     0
102
RTVSPost2010Prop53
 90
        2
102
RTVSPost2010PropOp53
 70
     1
102
RTVSPost2010Prop54
  1
strokes_ogs.tif
102
RTVSPost2010PropOp54
 70
     1
102
RTVSPost2010Prop55
280
     0
102
RTVSPost2010PropOp55
 70
     1
102
RTVSPost2010Prop56
140
1.0
102
RTVSPost2010PropOp56
 70
     1
102
RTVSPost2010Prop57
140
1.0
102
RTVSPost2010PropOp57
 70
     1
102
RTVSPropertyOp0
 70
     1
102
RTVSPropertyOp1
 70
     1
102
RTVSPropertyOp2
 70
     1
102
RTVSPropertyOp3
 70
     1
102
RTVSPropertyOp4
 70
     1
102
RTVSPropertyOp5
 70
     1
102
RTVSPropertyOp6
 70
     1
102
RTVSPropertyOp7
 70
     1
102
RTVSPropertyOp8
 70
     1
102
RTVSPropertyOp9
 70
     1
102
RTVSPropertyOp10
 70
     1
102
RTVSPropertyOp11
 70
     1
102
RTVSPropertyOp12
 70
     1
102
RTVSPropertyOp13
 70
     1
102
RTVSPropertyOp14
 70
     1
102
RTVSPropertyOp15
 70
     1
102
RTVSPropertyOp16
 70
     1
102
RTVSPropertyOp17
 70
     1
102
RTVSPropertyOp18
 70
     1
102
RTVSPropertyOp19
 70
     1
102
RTVSPropertyOp20
 70
     1
102
RTVSPropertyOp21
 70
     1
102
RTVSPropertyOp22
 70
     1
102
RTVSPropertyOp23
 70
     1
102
RTVSPropertyOp24
 70
     1
102
RTVSPropertyOp25
 70
     1
102
RTVSPropertyOp26
 70
     1
102
RTVSPropertyOp27
 70
     1
102
RTVSPropertyOp28
 70
     1
102
RTVSPropertyOp29
 70
     1
102
RTVSPropertyOp30
 70
     1
102
RTVSPropertyOp31
 70
     1
102
RTVSPropertyOp32
 70
     1
102
RTVSPropertyOp33
 70
     1
102
RTVSPropertyOp34
 70
     1
102
RTVSPropertyOp35
 70
     1
102
RTVSPropertyOp36
 70
     1
102
RTVSPropertyOp37
 70
     1
102
RTVSPropertyOp38
 70
     1
102
RTVSPropertyOp39
 70
     1
102
RTVSPropertyOp40
 70
     1
102
RTVSPropertyOp41
 70
     1
102
RTVSPropertyOp42
 70
     1
102
RTVSPropertyOp43
 70
     1
102
RTVSPropertyOp44
 70
     1
102
RTVSPropertyOp45
 70
     1
102
RTVSPropertyOp46
 70
     1
102
RTVSPropertyOp47
 70
     1
102
RTVSPropertyOp48
 70
     1
102
RTVSPropertyOp49
 70
     1
102
RTVSPropertyOp50
 70
     1
102
RTVSPropertyOp51
 70
     0
102
RTVSPropertyOp52
 70
     0
102
RTVSPropertyOp53
 70
     1
102
RTVSPropertyOp54
 70
     1
102
RTVSPropertyOp55
 70
     1
102
RTVSPropertyOp56
 70
     1
102
RTVSPropertyOp57
 70
     1
102
RTVSPropertyOp58
 70
     1
102
RTVSPropertyOp59
 70
     1
102
RTVSPropertyOp60
 70
     1
102
RTVSPropertyOp61
 70
     1
102
RTVSPropertyOp62
 70
     1
  0
XRECORD
  5
394
102
{ACAD_REACTORS
330
393
102
}
330
393
100
AcDbXrecord
280
     1
102
RTVSPost2010Prop28
280
     0
102
RTVSPost2010PropOp28
 70
     1
102
RTVSPost2010Prop29
280
     1
102
RTVSPost2010PropOp29
 70
     1
102
RTVSPost2010Prop30
280
     1
102
RTVSPost2010PropOp30
 70
     1
102
RTVSPost2010Prop31
280
     0
102
RTVSPost2010PropOp31
 70
     1
102
RTVSPost2010Prop32
280
     0
102
RTVSPost2010PropOp32
 70
     1
102
RTVSPost2010Prop33
280
     0
102
RTVSPost2010PropOp33
 70
     1
102
RTVSPost2010Prop34
280
     0
102
RTVSPost2010PropOp34
 70
     1
102
RTVSPost2010Prop35
280
     0
102
RTVSPost2010PropOp35
 70
     1
102
RTVSPost2010Prop36
280
     0
102
RTVSPost2010PropOp36
 70
     1
102
RTVSPost2010Prop37
 90
       50
102
RTVSPost2010PropOp37
 70
     1
102
RTVSPost2010Prop38
140
0.0
102
RTVSPost2010PropOp38
 70
     1
102
RTVSPost2010Prop39
140
1.0
102
RTVSPost2010PropOp39
 70
     1
102
RTVSPost2010Prop40
 90
        0
102
RTVSPost2010PropOp40
 70
     1
102
RTVSPost2010Prop41ColorIndex
 90
       18
102
RTVSPost2010Prop41ColorRGB
 90
        0
102
RTVSPost2010PropOp41
 70
     1
102
RTVSPost2010Prop42
 90
       50
102
RTVSPost2010PropOp42
 70
     1
102
RTVSPost2010Prop43
 90
        3
102
RTVSPost2010PropOp43
 70
     1
102
RTVSPost2010Prop44ColorIndex
 90
        5
102
RTVSPost2010Prop44ColorRGB
 90
      255
102
RTVSPost2010PropOp44
 70
     1
102
RTVSPost2010Prop45
280
     0
102
RTVSPost2010PropOp45
 70
     1
102
RTVSPost2010Prop46
 90
       50
102
RTVSPost2010PropOp46
 70
     1
102
RTVSPost2010Prop47
 90
       50
102
RTVSPost2010PropOp47
 70
     1
102
RTVSPost2010Prop48
 90
       50
102
RTVSPost2010PropOp48
 70
     1
102
RTVSPost2010Prop49
280
     0
102
RTVSPost2010PropOp49
 70
     1
102
RTVSPost2010Prop50
 90
       50
102
RTVSPost2010PropOp50
 70
     1
102
RTVSPost2010Prop51ColorIndex
 90
      256
102
RTVSPost2010Prop51ColorRGB
 90
-16777216
102
RTVSPost2010PropOp51
 70
     0
102
RTVSPost2010Prop52
140
1.0
102
RTVSPost2010PropOp52
 70
     0
102
RTVSPost2010Prop53
 90
        2
102
RTVSPost2010PropOp53
 70
     1
102
RTVSPost2010Prop54
  1
strokes_ogs.tif
102
RTVSPost2010PropOp54
 70
     1
102
RTVSPost2010Prop55
280
     0
102
RTVSPost2010PropOp55
 70
     1
102
RTVSPost2010Prop56
140
1.0
102
RTVSPost2010PropOp56
 70
     1
102
RTVSPost2010Prop57
140
1.0
102
RTVSPost2010PropOp57
 70
     1
102
RTVSPropertyOp0
 70
     1
102
RTVSPropertyOp1
 70
     1
102
RTVSPropertyOp2
 70
     1
102
RTVSPropertyOp3
 70
     1
102
RTVSPropertyOp4
 70
     1
102
RTVSPropertyOp5
 70
     1
102
RTVSPropertyOp6
 70
     1
102
RTVSPropertyOp7
 70
     1
102
RTVSPropertyOp8
 70
     1
102
RTVSPropertyOp9
 70
     1
102
RTVSPropertyOp10
 70
     1
102
RTVSPropertyOp11
 70
     1
102
RTVSPropertyOp12
 70
     1
102
RTVSPropertyOp13
 70
     1
102
RTVSPropertyOp14
 70
     1
102
RTVSPropertyOp15
 70
     1
102
RTVSPropertyOp16
 70
     1
102
RTVSPropertyOp17
 70
     1
102
RTVSPropertyOp18
 70
     1
102
RTVSPropertyOp19
 70
     1
102
RTVSPropertyOp20
 70
     1
102
RTVSPropertyOp21
 70
     1
102
RTVSPropertyOp22
 70
     1
102
RTVSPropertyOp23
 70
     1
102
RTVSPropertyOp24
 70
     1
102
RTVSPropertyOp25
 70
     1
102
RTVSPropertyOp26
 70
     1
102
RTVSPropertyOp27
 70
     1
102
RTVSPropertyOp28
 70
     1
102
RTVSPropertyOp29
 70
     1
102
RTVSPropertyOp30
 70
     1
102
RTVSPropertyOp31
 70
     1
102
RTVSPropertyOp32
 70
     1
102
RTVSPropertyOp33
 70
     1
102
RTVSPropertyOp34
 70
     1
102
RTVSPropertyOp35
 70
     1
102
RTVSPropertyOp36
 70
     1
102
RTVSPropertyOp37
 70
     1
102
RTVSPropertyOp38
 70
     1
102
RTVSPropertyOp39
 70
     1
102
RTVSPropertyOp40
 70
     1
102
RTVSPropertyOp41
 70
     1
102
RTVSPropertyOp42
 70
     1
102
RTVSPropertyOp43
 70
     1
102
RTVSPropertyOp44
 70
     1
102
RTVSPropertyOp45
 70
     1
102
RTVSPropertyOp46
 70
     1
102
RTVSPropertyOp47
 70
     1
102
RTVSPropertyOp48
 70
     1
102
RTVSPropertyOp49
 70
     1
102
RTVSPropertyOp50
 70
     1
102
RTVSPropertyOp51
 70
     0
102
RTVSPropertyOp52
 70
     0
102
RTVSPropertyOp53
 70
     1
102
RTVSPropertyOp54
 70
     1
102
RTVSPropertyOp55
 70
     1
102
RTVSPropertyOp56
 70
     1
102
RTVSPropertyOp57
 70
     1
102
RTVSPropertyOp58
 70
     1
102
RTVSPropertyOp59
 70
     1
102
RTVSPropertyOp60
 70
     1
102
RTVSPropertyOp61
 70
     1
102
RTVSPropertyOp62
 70
     1
  0
XRECORD
  5
39A
102
{ACAD_REACTORS
330
399
102
}
330
399
100
AcDbXrecord
280
     1
102
RTVSPost2010Prop28
280
     0
102
RTVSPost2010PropOp28
 70
     1
102
RTVSPost2010Prop29
280
     1
102
RTVSPost2010PropOp29
 70
     1
102
RTVSPost2010Prop30
280
     1
102
RTVSPost2010PropOp30
 70
     1
102
RTVSPost2010Prop31
280
     0
102
RTVSPost2010PropOp31
 70
     1
102
RTVSPost2010Prop32
280
     0
102
RTVSPost2010PropOp32
 70
     1
102
RTVSPost2010Prop33
280
     0
102
RTVSPost2010PropOp33
 70
     1
102
RTVSPost2010Prop34
280
     0
102
RTVSPost2010PropOp34
 70
     1
102
RTVSPost2010Prop35
280
     0
102
RTVSPost2010PropOp35
 70
     1
102
RTVSPost2010Prop36
280
     0
102
RTVSPost2010PropOp36
 70
     1
102
RTVSPost2010Prop37
 90
       50
102
RTVSPost2010PropOp37
 70
     1
102
RTVSPost2010Prop38
140
0.0
102
RTVSPost2010PropOp38
 70
     1
102
RTVSPost2010Prop39
140
1.0
102
RTVSPost2010PropOp39
 70
     1
102
RTVSPost2010Prop40
 90
        0
102
RTVSPost2010PropOp40
 70
     1
102
RTVSPost2010Prop41ColorIndex
 90
       18
102
RTVSPost2010Prop41ColorRGB
 90
        0
102
RTVSPost2010PropOp41
 70
     1
102
RTVSPost2010Prop42
 90
       50
102
RTVSPost2010PropOp42
 70
     1
102
RTVSPost2010Prop43
 90
        3
102
RTVSPost2010PropOp43
 70
     1
102
RTVSPost2010Prop44ColorIndex
 90
        5
102
RTVSPost2010Prop44ColorRGB
 90
      255
102
RTVSPost2010PropOp44
 70
     1
102
RTVSPost2010Prop45
280
     0
102
RTVSPost2010PropOp45
 70
     1
102
RTVSPost2010Prop46
 90
       50
102
RTVSPost2010PropOp46
 70
     1
102
RTVSPost2010Prop47
 90
       50
102
RTVSPost2010PropOp47
 70
     1
102
RTVSPost2010Prop48
 90
       50
102
RTVSPost2010PropOp48
 70
     1
102
RTVSPost2010Prop49
280
     0
102
RTVSPost2010PropOp49
 70
     1
102
RTVSPost2010Prop50
 90
       50
102
RTVSPost2010PropOp50
 70
     1
102
RTVSPost2010Prop51ColorIndex
 90
      256
102
RTVSPost2010Prop51ColorRGB
 90
-16777216
102
RTVSPost2010PropOp51
 70
     0
102
RTVSPost2010Prop52
140
1.0
102
RTVSPost2010PropOp52
 70
     0
102
RTVSPost2010Prop53
 90
        2
102
RTVSPost2010PropOp53
 70
     1
102
RTVSPost2010Prop54
  1
strokes_ogs.tif
102
RTVSPost2010PropOp54
 70
     1
102
RTVSPost2010Prop55
280
     0
102
RTVSPost2010PropOp55
 70
     1
102
RTVSPost2010Prop56
140
1.0
102
RTVSPost2010PropOp56
 70
     1
102
RTVSPost2010Prop57
140
1.0
102
RTVSPost2010PropOp57
 70
     1
102
RTVSPropertyOp0
 70
     1
102
RTVSPropertyOp1
 70
     1
102
RTVSPropertyOp2
 70
     1
102
RTVSPropertyOp3
 70
     1
102
RTVSPropertyOp4
 70
     1
102
RTVSPropertyOp5
 70
     1
102
RTVSPropertyOp6
 70
     1
102
RTVSPropertyOp7
 70
     1
102
RTVSPropertyOp8
 70
     1
102
RTVSPropertyOp9
 70
     1
102
RTVSPropertyOp10
 70
     1
102
RTVSPropertyOp11
 70
     1
102
RTVSPropertyOp12
 70
     1
102
RTVSPropertyOp13
 70
     1
102
RTVSPropertyOp14
 70
     1
102
RTVSPropertyOp15
 70
     1
102
RTVSPropertyOp16
 70
     1
102
RTVSPropertyOp17
 70
     1
102
RTVSPropertyOp18
 70
     1
102
RTVSPropertyOp19
 70
     1
102
RTVSPropertyOp20
 70
     1
102
RTVSPropertyOp21
 70
     1
102
RTVSPropertyOp22
 70
     1
102
RTVSPropertyOp23
 70
     1
102
RTVSPropertyOp24
 70
     1
102
RTVSPropertyOp25
 70
     1
102
RTVSPropertyOp26
 70
     1
102
RTVSPropertyOp27
 70
     1
102
RTVSPropertyOp28
 70
     1
102
RTVSPropertyOp29
 70
     1
102
RTVSPropertyOp30
 70
     1
102
RTVSPropertyOp31
 70
     1
102
RTVSPropertyOp32
 70
     1
102
RTVSPropertyOp33
 70
     1
102
RTVSPropertyOp34
 70
     1
102
RTVSPropertyOp35
 70
     1
102
RTVSPropertyOp36
 70
     1
102
RTVSPropertyOp37
 70
     1
102
RTVSPropertyOp38
 70
     1
102
RTVSPropertyOp39
 70
     1
102
RTVSPropertyOp40
 70
     1
102
RTVSPropertyOp41
 70
     1
102
RTVSPropertyOp42
 70
     1
102
RTVSPropertyOp43
 70
     1
102
RTVSPropertyOp44
 70
     1
102
RTVSPropertyOp45
 70
     1
102
RTVSPropertyOp46
 70
     1
102
RTVSPropertyOp47
 70
     1
102
RTVSPropertyOp48
 70
     1
102
RTVSPropertyOp49
 70
     1
102
RTVSPropertyOp50
 70
     1
102
RTVSPropertyOp51
 70
     0
102
RTVSPropertyOp52
 70
     0
102
RTVSPropertyOp53
 70
     1
102
RTVSPropertyOp54
 70
     1
102
RTVSPropertyOp55
 70
     1
102
RTVSPropertyOp56
 70
     1
102
RTVSPropertyOp57
 70
     1
102
RTVSPropertyOp58
 70
     1
102
RTVSPropertyOp59
 70
     1
102
RTVSPropertyOp60
 70
     1
102
RTVSPropertyOp61
 70
     1
102
RTVSPropertyOp62
 70
     1
  0
XRECORD
  5
3AE
102
{ACAD_REACTORS
330
3AD
102
}
330
3AD
100
AcDbXrecord
280
     1
102
RTVSPost2010Prop28
280
     0
102
RTVSPost2010PropOp28
 70
     0
102
RTVSPost2010Prop29
280
     1
102
RTVSPost2010PropOp29
 70
     0
102
RTVSPost2010Prop30
280
     1
102
RTVSPost2010PropOp30
 70
     0
102
RTVSPost2010Prop31
280
     0
102
RTVSPost2010PropOp31
 70
     0
102
RTVSPost2010Prop32
280
     0
102
RTVSPost2010PropOp32
 70
     0
102
RTVSPost2010Prop33
280
     0
102
RTVSPost2010PropOp33
 70
     0
102
RTVSPost2010Prop34
280
     0
102
RTVSPost2010PropOp34
 70
     0
102
RTVSPost2010Prop35
280
     0
102
RTVSPost2010PropOp35
 70
     0
102
RTVSPost2010Prop36
280
     0
102
RTVSPost2010PropOp36
 70
     0
102
RTVSPost2010Prop37
 90
       50
102
RTVSPost2010PropOp37
 70
     0
102
RTVSPost2010Prop38
140
0.0
102
RTVSPost2010PropOp38
 70
     0
102
RTVSPost2010Prop39
140
1.0
102
RTVSPost2010PropOp39
 70
     0
102
RTVSPost2010Prop40
 90
        0
102
RTVSPost2010PropOp40
 70
     0
102
RTVSPost2010Prop41ColorIndex
 90
       18
102
RTVSPost2010Prop41ColorRGB
 90
        0
102
RTVSPost2010PropOp41
 70
     0
102
RTVSPost2010Prop42
 90
       50
102
RTVSPost2010PropOp42
 70
     0
102
RTVSPost2010Prop43
 90
        3
102
RTVSPost2010PropOp43
 70
     0
102
RTVSPost2010Prop44ColorIndex
 90
        5
102
RTVSPost2010Prop44ColorRGB
 90
      255
102
RTVSPost2010PropOp44
 70
     0
102
RTVSPost2010Prop45
280
     0
102
RTVSPost2010PropOp45
 70
     0
102
RTVSPost2010Prop46
 90
       50
102
RTVSPost2010PropOp46
 70
     0
102
RTVSPost2010Prop47
 90
       50
102
RTVSPost2010PropOp47
 70
     0
102
RTVSPost2010Prop48
 90
       50
102
RTVSPost2010PropOp48
 70
     0
102
RTVSPost2010Prop49
280
     0
102
RTVSPost2010PropOp49
 70
     0
102
RTVSPost2010Prop50
 90
       50
102
RTVSPost2010PropOp50
 70
     0
102
RTVSPost2010Prop51ColorIndex
 90
      256
102
RTVSPost2010Prop51ColorRGB
 90
-16777216
102
RTVSPost2010PropOp51
 70
     0
102
RTVSPost2010Prop52
140
1.0
102
RTVSPost2010PropOp52
 70
     0
102
RTVSPost2010Prop53
 90
        2
102
RTVSPost2010PropOp53
 70
     0
102
RTVSPost2010Prop54
  1
strokes_ogs.tif
102
RTVSPost2010PropOp54
 70
     0
102
RTVSPost2010Prop55
280
     0
102
RTVSPost2010PropOp55
 70
     0
102
RTVSPost2010Prop56
140
1.0
102
RTVSPost2010PropOp56
 70
     0
102
RTVSPost2010Prop57
140
1.0
102
RTVSPost2010PropOp57
 70
     0
102
RTVSPropertyOp0
 70
     0
102
RTVSPropertyOp1
 70
     0
102
RTVSPropertyOp2
 70
     0
102
RTVSPropertyOp3
 70
     0
102
RTVSPropertyOp4
 70
     0
102
RTVSPropertyOp5
 70
     0
102
RTVSPropertyOp6
 70
     0
102
RTVSPropertyOp7
 70
     0
102
RTVSPropertyOp8
 70
     0
102
RTVSPropertyOp9
 70
     0
102
RTVSPropertyOp10
 70
     0
102
RTVSPropertyOp11
 70
     0
102
RTVSPropertyOp12
 70
     0
102
RTVSPropertyOp13
 70
     0
102
RTVSPropertyOp14
 70
     2
102
RTVSPropertyOp15
 70
     0
102
RTVSPropertyOp16
 70
     0
102
RTVSPropertyOp17
 70
     0
102
RTVSPropertyOp18
 70
     0
102
RTVSPropertyOp19
 70
     0
102
RTVSPropertyOp20
 70
     0
102
RTVSPropertyOp21
 70
     0
102
RTVSPropertyOp22
 70
     0
102
RTVSPropertyOp23
 70
     0
102
RTVSPropertyOp24
 70
     0
102
RTVSPropertyOp25
 70
     0
102
RTVSPropertyOp26
 70
     0
102
RTVSPropertyOp27
 70
     0
102
RTVSPropertyOp28
 70
     0
102
RTVSPropertyOp29
 70
     0
102
RTVSPropertyOp30
 70
     0
102
RTVSPropertyOp31
 70
     0
102
RTVSPropertyOp32
 70
     0
102
RTVSPropertyOp33
 70
     0
102
RTVSPropertyOp34
 70
     0
102
RTVSPropertyOp35
 70
     0
102
RTVSPropertyOp36
 70
     0
102
RTVSPropertyOp37
 70
     0
102
RTVSPropertyOp38
 70
     0
102
RTVSPropertyOp39
 70
     0
102
RTVSPropertyOp40
 70
     0
102
RTVSPropertyOp41
 70
     0
102
RTVSPropertyOp42
 70
     0
102
RTVSPropertyOp43
 70
     0
102
RTVSPropertyOp44
 70
     0
102
RTVSPropertyOp45
 70
     0
102
RTVSPropertyOp46
 70
     0
102
RTVSPropertyOp47
 70
     0
102
RTVSPropertyOp48
 70
     0
102
RTVSPropertyOp49
 70
     0
102
RTVSPropertyOp50
 70
     0
102
RTVSPropertyOp51
 70
     0
102
RTVSPropertyOp52
 70
     0
102
RTVSPropertyOp53
 70
     0
102
RTVSPropertyOp54
 70
     0
102
RTVSPropertyOp55
 70
     0
102
RTVSPropertyOp56
 70
     0
102
RTVSPropertyOp57
 70
     0
102
RTVSPropertyOp58
 70
     1
102
RTVSPropertyOp59
 70
     1
102
RTVSPropertyOp60
 70
     1
102
RTVSPropertyOp61
 70
     1
102
RTVSPropertyOp62
 70
     1
  0
XRECORD
  5
3A8
102
{ACAD_REACTORS
330
3A7
102
}
330
3A7
100
AcDbXrecord
280
     1
102
RTVSPost2010Prop28
280
     0
102
RTVSPost2010PropOp28
 70
     1
102
RTVSPost2010Prop29
280
     1
102
RTVSPost2010PropOp29
 70
     1
102
RTVSPost2010Prop30
280
     1
102
RTVSPost2010PropOp30
 70
     1
102
RTVSPost2010Prop31
280
     0
102
RTVSPost2010PropOp31
 70
     1
102
RTVSPost2010Prop32
280
     0
102
RTVSPost2010PropOp32
 70
     1
102
RTVSPost2010Prop33
280
     0
102
RTVSPost2010PropOp33
 70
     1
102
RTVSPost2010Prop34
280
     0
102
RTVSPost2010PropOp34
 70
     1
102
RTVSPost2010Prop35
280
     0
102
RTVSPost2010PropOp35
 70
     1
102
RTVSPost2010Prop36
280
     0
102
RTVSPost2010PropOp36
 70
     1
102
RTVSPost2010Prop37
 90
       50
102
RTVSPost2010PropOp37
 70
     1
102
RTVSPost2010Prop38
140
0.0
102
RTVSPost2010PropOp38
 70
     1
102
RTVSPost2010Prop39
140
1.0
102
RTVSPost2010PropOp39
 70
     1
102
RTVSPost2010Prop40
 90
        0
102
RTVSPost2010PropOp40
 70
     1
102
RTVSPost2010Prop41ColorIndex
 90
       18
102
RTVSPost2010Prop41ColorRGB
 90
        0
102
RTVSPost2010PropOp41
 70
     1
102
RTVSPost2010Prop42
 90
       50
102
RTVSPost2010PropOp42
 70
     1
102
RTVSPost2010Prop43
 90
        3
102
RTVSPost2010PropOp43
 70
     1
102
RTVSPost2010Prop44ColorIndex
 90
        5
102
RTVSPost2010Prop44ColorRGB
 90
      255
102
RTVSPost2010PropOp44
 70
     1
102
RTVSPost2010Prop45
280
     0
102
RTVSPost2010PropOp45
 70
     1
102
RTVSPost2010Prop46
 90
       50
102
RTVSPost2010PropOp46
 70
     1
102
RTVSPost2010Prop47
 90
       50
102
RTVSPost2010PropOp47
 70
     1
102
RTVSPost2010Prop48
 90
       50
102
RTVSPost2010PropOp48
 70
     1
102
RTVSPost2010Prop49
280
     0
102
RTVSPost2010PropOp49
 70
     1
102
RTVSPost2010Prop50
 90
       50
102
RTVSPost2010PropOp50
 70
     1
102
RTVSPost2010Prop51ColorIndex
 90
      256
102
RTVSPost2010Prop51ColorRGB
 90
-16777216
102
RTVSPost2010PropOp51
 70
     0
102
RTVSPost2010Prop52
140
1.0
102
RTVSPost2010PropOp52
 70
     0
102
RTVSPost2010Prop53
 90
        2
102
RTVSPost2010PropOp53
 70
     1
102
RTVSPost2010Prop54
  1
strokes_ogs.tif
102
RTVSPost2010PropOp54
 70
     1
102
RTVSPost2010Prop55
280
     0
102
RTVSPost2010PropOp55
 70
     1
102
RTVSPost2010Prop56
140
1.0
102
RTVSPost2010PropOp56
 70
     1
102
RTVSPost2010Prop57
140
1.0
102
RTVSPost2010PropOp57
 70
     1
102
RTVSPropertyOp0
 70
     1
102
RTVSPropertyOp1
 70
     1
102
RTVSPropertyOp2
 70
     1
102
RTVSPropertyOp3
 70
     1
102
RTVSPropertyOp4
 70
     1
102
RTVSPropertyOp5
 70
     1
102
RTVSPropertyOp6
 70
     1
102
RTVSPropertyOp7
 70
     1
102
RTVSPropertyOp8
 70
     1
102
RTVSPropertyOp9
 70
     1
102
RTVSPropertyOp10
 70
     1
102
RTVSPropertyOp11
 70
     1
102
RTVSPropertyOp12
 70
     1
102
RTVSPropertyOp13
 70
     1
102
RTVSPropertyOp14
 70
     1
102
RTVSPropertyOp15
 70
     1
102
RTVSPropertyOp16
 70
     1
102
RTVSPropertyOp17
 70
     1
102
RTVSPropertyOp18
 70
     1
102
RTVSPropertyOp19
 70
     1
102
RTVSPropertyOp20
 70
     1
102
RTVSPropertyOp21
 70
     1
102
RTVSPropertyOp22
 70
     1
102
RTVSPropertyOp23
 70
     1
102
RTVSPropertyOp24
 70
     1
102
RTVSPropertyOp25
 70
     1
102
RTVSPropertyOp26
 70
     1
102
RTVSPropertyOp27
 70
     1
102
RTVSPropertyOp28
 70
     1
102
RTVSPropertyOp29
 70
     1
102
RTVSPropertyOp30
 70
     1
102
RTVSPropertyOp31
 70
     1
102
RTVSPropertyOp32
 70
     1
102
RTVSPropertyOp33
 70
     1
102
RTVSPropertyOp34
 70
     1
102
RTVSPropertyOp35
 70
     1
102
RTVSPropertyOp36
 70
     1
102
RTVSPropertyOp37
 70
     1
102
RTVSPropertyOp38
 70
     1
102
RTVSPropertyOp39
 70
     1
102
RTVSPropertyOp40
 70
     1
102
RTVSPropertyOp41
 70
     1
102
RTVSPropertyOp42
 70
     1
102
RTVSPropertyOp43
 70
     1
102
RTVSPropertyOp44
 70
     1
102
RTVSPropertyOp45
 70
     1
102
RTVSPropertyOp46
 70
     1
102
RTVSPropertyOp47
 70
     1
102
RTVSPropertyOp48
 70
     1
102
RTVSPropertyOp49
 70
     1
102
RTVSPropertyOp50
 70
     1
102
RTVSPropertyOp51
 70
     0
102
RTVSPropertyOp52
 70
     0
102
RTVSPropertyOp53
 70
     1
102
RTVSPropertyOp54
 70
     1
102
RTVSPropertyOp55
 70
     1
102
RTVSPropertyOp56
 70
     1
102
RTVSPropertyOp57
 70
     1
102
RTVSPropertyOp58
 70
     1
102
RTVSPropertyOp59
 70
     1
102
RTVSPropertyOp60
 70
     1
102
RTVSPropertyOp61
 70
     1
102
RTVSPropertyOp62
 70
     1
  0
XRECORD
  5
3B0
102
{ACAD_REACTORS
330
3AF
102
}
330
3AF
100
AcDbXrecord
280
     1
102
RTVSPost2010Prop28
280
     0
102
RTVSPost2010PropOp28
 70
     0
102
RTVSPost2010Prop29
280
     1
102
RTVSPost2010PropOp29
 70
     0
102
RTVSPost2010Prop30
280
     1
102
RTVSPost2010PropOp30
 70
     0
102
RTVSPost2010Prop31
280
     0
102
RTVSPost2010PropOp31
 70
     0
102
RTVSPost2010Prop32
280
     0
102
RTVSPost2010PropOp32
 70
     0
102
RTVSPost2010Prop33
280
     0
102
RTVSPost2010PropOp33
 70
     0
102
RTVSPost2010Prop34
280
     0
102
RTVSPost2010PropOp34
 70
     0
102
RTVSPost2010Prop35
280
     0
102
RTVSPost2010PropOp35
 70
     0
102
RTVSPost2010Prop36
280
     0
102
RTVSPost2010PropOp36
 70
     0
102
RTVSPost2010Prop37
 90
       50
102
RTVSPost2010PropOp37
 70
     0
102
RTVSPost2010Prop38
140
0.0
102
RTVSPost2010PropOp38
 70
     0
102
RTVSPost2010Prop39
140
1.0
102
RTVSPost2010PropOp39
 70
     0
102
RTVSPost2010Prop40
 90
        0
102
RTVSPost2010PropOp40
 70
     0
102
RTVSPost2010Prop41ColorIndex
 90
       18
102
RTVSPost2010Prop41ColorRGB
 90
        0
102
RTVSPost2010PropOp41
 70
     0
102
RTVSPost2010Prop42
 90
       50
102
RTVSPost2010PropOp42
 70
     0
102
RTVSPost2010Prop43
 90
        3
102
RTVSPost2010PropOp43
 70
     0
102
RTVSPost2010Prop44ColorIndex
 90
        5
102
RTVSPost2010Prop44ColorRGB
 90
      255
102
RTVSPost2010PropOp44
 70
     0
102
RTVSPost2010Prop45
280
     0
102
RTVSPost2010PropOp45
 70
     0
102
RTVSPost2010Prop46
 90
       50
102
RTVSPost2010PropOp46
 70
     0
102
RTVSPost2010Prop47
 90
       50
102
RTVSPost2010PropOp47
 70
     0
102
RTVSPost2010Prop48
 90
       50
102
RTVSPost2010PropOp48
 70
     0
102
RTVSPost2010Prop49
280
     0
102
RTVSPost2010PropOp49
 70
     0
102
RTVSPost2010Prop50
 90
       50
102
RTVSPost2010PropOp50
 70
     0
102
RTVSPost2010Prop51ColorIndex
 90
      256
102
RTVSPost2010Prop51ColorRGB
 90
-16777216
102
RTVSPost2010PropOp51
 70
     0
102
RTVSPost2010Prop52
140
1.0
102
RTVSPost2010PropOp52
 70
     0
102
RTVSPost2010Prop53
 90
        2
102
RTVSPost2010PropOp53
 70
     0
102
RTVSPost2010Prop54
  1
strokes_ogs.tif
102
RTVSPost2010PropOp54
 70
     0
102
RTVSPost2010Prop55
280
     0
102
RTVSPost2010PropOp55
 70
     0
102
RTVSPost2010Prop56
140
1.0
102
RTVSPost2010PropOp56
 70
     0
102
RTVSPost2010Prop57
140
1.0
102
RTVSPost2010PropOp57
 70
     0
102
RTVSPropertyOp0
 70
     0
102
RTVSPropertyOp1
 70
     0
102
RTVSPropertyOp2
 70
     0
102
RTVSPropertyOp3
 70
     0
102
RTVSPropertyOp4
 70
     0
102
RTVSPropertyOp5
 70
     0
102
RTVSPropertyOp6
 70
     0
102
RTVSPropertyOp7
 70
     0
102
RTVSPropertyOp8
 70
     0
102
RTVSPropertyOp9
 70
     0
102
RTVSPropertyOp10
 70
     0
102
RTVSPropertyOp11
 70
     0
102
RTVSPropertyOp12
 70
     0
102
RTVSPropertyOp13
 70
     0
102
RTVSPropertyOp14
 70
     2
102
RTVSPropertyOp15
 70
     0
102
RTVSPropertyOp16
 70
     0
102
RTVSPropertyOp17
 70
     0
102
RTVSPropertyOp18
 70
     0
102
RTVSPropertyOp19
 70
     0
102
RTVSPropertyOp20
 70
     0
102
RTVSPropertyOp21
 70
     0
102
RTVSPropertyOp22
 70
     0
102
RTVSPropertyOp23
 70
     0
102
RTVSPropertyOp24
 70
     0
102
RTVSPropertyOp25
 70
     0
102
RTVSPropertyOp26
 70
     0
102
RTVSPropertyOp27
 70
     0
102
RTVSPropertyOp28
 70
     0
102
RTVSPropertyOp29
 70
     0
102
RTVSPropertyOp30
 70
     0
102
RTVSPropertyOp31
 70
     0
102
RTVSPropertyOp32
 70
     0
102
RTVSPropertyOp33
 70
     0
102
RTVSPropertyOp34
 70
     0
102
RTVSPropertyOp35
 70
     0
102
RTVSPropertyOp36
 70
     0
102
RTVSPropertyOp37
 70
     0
102
RTVSPropertyOp38
 70
     0
102
RTVSPropertyOp39
 70
     0
102
RTVSPropertyOp40
 70
     0
102
RTVSPropertyOp41
 70
     0
102
RTVSPropertyOp42
 70
     0
102
RTVSPropertyOp43
 70
     0
102
RTVSPropertyOp44
 70
     0
102
RTVSPropertyOp45
 70
     0
102
RTVSPropertyOp46
 70
     0
102
RTVSPropertyOp47
 70
     0
102
RTVSPropertyOp48
 70
     0
102
RTVSPropertyOp49
 70
     0
102
RTVSPropertyOp50
 70
     0
102
RTVSPropertyOp51
 70
     0
102
RTVSPropertyOp52
 70
     0
102
RTVSPropertyOp53
 70
     0
102
RTVSPropertyOp54
 70
     0
102
RTVSPropertyOp55
 70
     0
102
RTVSPropertyOp56
 70
     0
102
RTVSPropertyOp57
 70
     0
102
RTVSPropertyOp58
 70
     1
102
RTVSPropertyOp59
 70
     1
102
RTVSPropertyOp60
 70
     1
102
RTVSPropertyOp61
 70
     1
102
RTVSPropertyOp62
 70
     1
  0
XRECORD
  5
39E
102
{ACAD_REACTORS
330
39D
102
}
330
39D
100
AcDbXrecord
280
     1
102
RTVSPost2010Prop28
280
     0
102
RTVSPost2010PropOp28
 70
     1
102
RTVSPost2010Prop29
280
     1
102
RTVSPost2010PropOp29
 70
     1
102
RTVSPost2010Prop30
280
     1
102
RTVSPost2010PropOp30
 70
     1
102
RTVSPost2010Prop31
280
     0
102
RTVSPost2010PropOp31
 70
     1
102
RTVSPost2010Prop32
280
     0
102
RTVSPost2010PropOp32
 70
     1
102
RTVSPost2010Prop33
280
     0
102
RTVSPost2010PropOp33
 70
     1
102
RTVSPost2010Prop34
280
     0
102
RTVSPost2010PropOp34
 70
     1
102
RTVSPost2010Prop35
280
     0
102
RTVSPost2010PropOp35
 70
     1
102
RTVSPost2010Prop36
280
     0
102
RTVSPost2010PropOp36
 70
     1
102
RTVSPost2010Prop37
 90
       50
102
RTVSPost2010PropOp37
 70
     1
102
RTVSPost2010Prop38
140
0.0
102
RTVSPost2010PropOp38
 70
     1
102
RTVSPost2010Prop39
140
1.0
102
RTVSPost2010PropOp39
 70
     1
102
RTVSPost2010Prop40
 90
        0
102
RTVSPost2010PropOp40
 70
     1
102
RTVSPost2010Prop41ColorIndex
 90
       18
102
RTVSPost2010Prop41ColorRGB
 90
        0
102
RTVSPost2010PropOp41
 70
     1
102
RTVSPost2010Prop42
 90
       50
102
RTVSPost2010PropOp42
 70
     1
102
RTVSPost2010Prop43
 90
        3
102
RTVSPost2010PropOp43
 70
     1
102
RTVSPost2010Prop44ColorIndex
 90
        5
102
RTVSPost2010Prop44ColorRGB
 90
      255
102
RTVSPost2010PropOp44
 70
     1
102
RTVSPost2010Prop45
280
     0
102
RTVSPost2010PropOp45
 70
     1
102
RTVSPost2010Prop46
 90
       50
102
RTVSPost2010PropOp46
 70
     1
102
RTVSPost2010Prop47
 90
       50
102
RTVSPost2010PropOp47
 70
     1
102
RTVSPost2010Prop48
 90
       50
102
RTVSPost2010PropOp48
 70
     1
102
RTVSPost2010Prop49
280
     0
102
RTVSPost2010PropOp49
 70
     1
102
RTVSPost2010Prop50
 90
       50
102
RTVSPost2010PropOp50
 70
     1
102
RTVSPost2010Prop51ColorIndex
 90
      256
102
RTVSPost2010Prop51ColorRGB
 90
-16777216
102
RTVSPost2010PropOp51
 70
     0
102
RTVSPost2010Prop52
140
1.0
102
RTVSPost2010PropOp52
 70
     0
102
RTVSPost2010Prop53
 90
        2
102
RTVSPost2010PropOp53
 70
     1
102
RTVSPost2010Prop54
  1
strokes_ogs.tif
102
RTVSPost2010PropOp54
 70
     1
102
RTVSPost2010Prop55
280
     0
102
RTVSPost2010PropOp55
 70
     1
102
RTVSPost2010Prop56
140
1.0
102
RTVSPost2010PropOp56
 70
     1
102
RTVSPost2010Prop57
140
1.0
102
RTVSPost2010PropOp57
 70
     1
102
RTVSPropertyOp0
 70
     1
102
RTVSPropertyOp1
 70
     1
102
RTVSPropertyOp2
 70
     1
102
RTVSPropertyOp3
 70
     1
102
RTVSPropertyOp4
 70
     1
102
RTVSPropertyOp5
 70
     1
102
RTVSPropertyOp6
 70
     1
102
RTVSPropertyOp7
 70
     1
102
RTVSPropertyOp8
 70
     1
102
RTVSPropertyOp9
 70
     1
102
RTVSPropertyOp10
 70
     1
102
RTVSPropertyOp11
 70
     1
102
RTVSPropertyOp12
 70
     1
102
RTVSPropertyOp13
 70
     1
102
RTVSPropertyOp14
 70
     1
102
RTVSPropertyOp15
 70
     1
102
RTVSPropertyOp16
 70
     1
102
RTVSPropertyOp17
 70
     1
102
RTVSPropertyOp18
 70
     1
102
RTVSPropertyOp19
 70
     1
102
RTVSPropertyOp20
 70
     1
102
RTVSPropertyOp21
 70
     1
102
RTVSPropertyOp22
 70
     1
102
RTVSPropertyOp23
 70
     1
102
RTVSPropertyOp24
 70
     1
102
RTVSPropertyOp25
 70
     1
102
RTVSPropertyOp26
 70
     1
102
RTVSPropertyOp27
 70
     1
102
RTVSPropertyOp28
 70
     1
102
RTVSPropertyOp29
 70
     1
102
RTVSPropertyOp30
 70
     1
102
RTVSPropertyOp31
 70
     1
102
RTVSPropertyOp32
 70
     1
102
RTVSPropertyOp33
 70
     1
102
RTVSPropertyOp34
 70
     1
102
RTVSPropertyOp35
 70
     1
102
RTVSPropertyOp36
 70
     1
102
RTVSPropertyOp37
 70
     1
102
RTVSPropertyOp38
 70
     1
102
RTVSPropertyOp39
 70
     1
102
RTVSPropertyOp40
 70
     1
102
RTVSPropertyOp41
 70
     1
102
RTVSPropertyOp42
 70
     1
102
RTVSPropertyOp43
 70
     1
102
RTVSPropertyOp44
 70
     1
102
RTVSPropertyOp45
 70
     1
102
RTVSPropertyOp46
 70
     1
102
RTVSPropertyOp47
 70
     1
102
RTVSPropertyOp48
 70
     1
102
RTVSPropertyOp49
 70
     1
102
RTVSPropertyOp50
 70
     1
102
RTVSPropertyOp51
 70
     0
102
RTVSPropertyOp52
 70
     0
102
RTVSPropertyOp53
 70
     1
102
RTVSPropertyOp54
 70
     1
102
RTVSPropertyOp55
 70
     1
102
RTVSPropertyOp56
 70
     1
102
RTVSPropertyOp57
 70
     1
102
RTVSPropertyOp58
 70
     1
102
RTVSPropertyOp59
 70
     1
102
RTVSPropertyOp60
 70
     1
102
RTVSPropertyOp61
 70
     1
102
RTVSPropertyOp62
 70
     1
  0
XRECORD
  5
3BC
102
{ACAD_REACTORS
330
3BB
102
}
330
3BB
100
AcDbXrecord
280
     1
102
RTVSPost2010Prop28
280
     0
102
RTVSPost2010PropOp28
 70
     1
102
RTVSPost2010Prop29
280
     1
102
RTVSPost2010PropOp29
 70
     1
102
RTVSPost2010Prop30
280
     1
102
RTVSPost2010PropOp30
 70
     1
102
RTVSPost2010Prop31
280
     0
102
RTVSPost2010PropOp31
 70
     1
102
RTVSPost2010Prop32
280
     0
102
RTVSPost2010PropOp32
 70
     1
102
RTVSPost2010Prop33
280
     0
102
RTVSPost2010PropOp33
 70
     1
102
RTVSPost2010Prop34
280
     0
102
RTVSPost2010PropOp34
 70
     1
102
RTVSPost2010Prop35
280
     0
102
RTVSPost2010PropOp35
 70
     1
102
RTVSPost2010Prop36
280
     0
102
RTVSPost2010PropOp36
 70
     1
102
RTVSPost2010Prop37
 90
       50
102
RTVSPost2010PropOp37
 70
     1
102
RTVSPost2010Prop38
140
0.0
102
RTVSPost2010PropOp38
 70
     1
102
RTVSPost2010Prop39
140
1.0
102
RTVSPost2010PropOp39
 70
     1
102
RTVSPost2010Prop40
 90
        0
102
RTVSPost2010PropOp40
 70
     1
102
RTVSPost2010Prop41ColorIndex
 90
       18
102
RTVSPost2010Prop41ColorRGB
 90
        0
102
RTVSPost2010PropOp41
 70
     1
102
RTVSPost2010Prop42
 90
       50
102
RTVSPost2010PropOp42
 70
     1
102
RTVSPost2010Prop43
 90
        3
102
RTVSPost2010PropOp43
 70
     1
102
RTVSPost2010Prop44ColorIndex
 90
        5
102
RTVSPost2010Prop44ColorRGB
 90
      255
102
RTVSPost2010PropOp44
 70
     1
102
RTVSPost2010Prop45
280
     0
102
RTVSPost2010PropOp45
 70
     1
102
RTVSPost2010Prop46
 90
       50
102
RTVSPost2010PropOp46
 70
     1
102
RTVSPost2010Prop47
 90
       50
102
RTVSPost2010PropOp47
 70
     1
102
RTVSPost2010Prop48
 90
       50
102
RTVSPost2010PropOp48
 70
     1
102
RTVSPost2010Prop49
280
     0
102
RTVSPost2010PropOp49
 70
     1
102
RTVSPost2010Prop50
 90
       50
102
RTVSPost2010PropOp50
 70
     1
102
RTVSPost2010Prop51ColorIndex
 90
      256
102
RTVSPost2010Prop51ColorRGB
 90
-16777216
102
RTVSPost2010PropOp51
 70
     0
102
RTVSPost2010Prop52
140
1.0
102
RTVSPost2010PropOp52
 70
     0
102
RTVSPost2010Prop53
 90
        2
102
RTVSPost2010PropOp53
 70
     1
102
RTVSPost2010Prop54
  1
strokes_ogs.tif
102
RTVSPost2010PropOp54
 70
     1
102
RTVSPost2010Prop55
280
     0
102
RTVSPost2010PropOp55
 70
     1
102
RTVSPost2010Prop56
140
1.0
102
RTVSPost2010PropOp56
 70
     1
102
RTVSPost2010Prop57
140
1.0
102
RTVSPost2010PropOp57
 70
     1
102
RTVSPropertyOp0
 70
     1
102
RTVSPropertyOp1
 70
     1
102
RTVSPropertyOp2
 70
     1
102
RTVSPropertyOp3
 70
     1
102
RTVSPropertyOp4
 70
     1
102
RTVSPropertyOp5
 70
     1
102
RTVSPropertyOp6
 70
     1
102
RTVSPropertyOp7
 70
     1
102
RTVSPropertyOp8
 70
     1
102
RTVSPropertyOp9
 70
     1
102
RTVSPropertyOp10
 70
     1
102
RTVSPropertyOp11
 70
     1
102
RTVSPropertyOp12
 70
     1
102
RTVSPropertyOp13
 70
     1
102
RTVSPropertyOp14
 70
     1
102
RTVSPropertyOp15
 70
     1
102
RTVSPropertyOp16
 70
     1
102
RTVSPropertyOp17
 70
     1
102
RTVSPropertyOp18
 70
     1
102
RTVSPropertyOp19
 70
     1
102
RTVSPropertyOp20
 70
     1
102
RTVSPropertyOp21
 70
     1
102
RTVSPropertyOp22
 70
     1
102
RTVSPropertyOp23
 70
     1
102
RTVSPropertyOp24
 70
     1
102
RTVSPropertyOp25
 70
     1
102
RTVSPropertyOp26
 70
     1
102
RTVSPropertyOp27
 70
     1
102
RTVSPropertyOp28
 70
     1
102
RTVSPropertyOp29
 70
     1
102
RTVSPropertyOp30
 70
     1
102
RTVSPropertyOp31
 70
     1
102
RTVSPropertyOp32
 70
     1
102
RTVSPropertyOp33
 70
     1
102
RTVSPropertyOp34
 70
     1
102
RTVSPropertyOp35
 70
     1
102
RTVSPropertyOp36
 70
     1
102
RTVSPropertyOp37
 70
     1
102
RTVSPropertyOp38
 70
     1
102
RTVSPropertyOp39
 70
     1
102
RTVSPropertyOp40
 70
     1
102
RTVSPropertyOp41
 70
     1
102
RTVSPropertyOp42
 70
     1
102
RTVSPropertyOp43
 70
     1
102
RTVSPropertyOp44
 70
     1
102
RTVSPropertyOp45
 70
     1
102
RTVSPropertyOp46
 70
     1
102
RTVSPropertyOp47
 70
     1
102
RTVSPropertyOp48
 70
     1
102
RTVSPropertyOp49
 70
     1
102
RTVSPropertyOp50
 70
     1
102
RTVSPropertyOp51
 70
     0
102
RTVSPropertyOp52
 70
     0
102
RTVSPropertyOp53
 70
     1
102
RTVSPropertyOp54
 70
     1
102
RTVSPropertyOp55
 70
     1
102
RTVSPropertyOp56
 70
     1
102
RTVSPropertyOp57
 70
     1
102
RTVSPropertyOp58
 70
     1
102
RTVSPropertyOp59
 70
     1
102
RTVSPropertyOp60
 70
     1
102
RTVSPropertyOp61
 70
     1
102
RTVSPropertyOp62
 70
     1
  0
XRECORD
  5
3BA
102
{ACAD_REACTORS
330
3B9
102
}
330
3B9
100
AcDbXrecord
280
     1
102
RTVSPost2010Prop28
280
     0
102
RTVSPost2010PropOp28
 70
     1
102
RTVSPost2010Prop29
280
     1
102
RTVSPost2010PropOp29
 70
     1
102
RTVSPost2010Prop30
280
     1
102
RTVSPost2010PropOp30
 70
     1
102
RTVSPost2010Prop31
280
     0
102
RTVSPost2010PropOp31
 70
     1
102
RTVSPost2010Prop32
280
     0
102
RTVSPost2010PropOp32
 70
     1
102
RTVSPost2010Prop33
280
     0
102
RTVSPost2010PropOp33
 70
     1
102
RTVSPost2010Prop34
280
     0
102
RTVSPost2010PropOp34
 70
     1
102
RTVSPost2010Prop35
280
     0
102
RTVSPost2010PropOp35
 70
     1
102
RTVSPost2010Prop36
280
     0
102
RTVSPost2010PropOp36
 70
     1
102
RTVSPost2010Prop37
 90
       50
102
RTVSPost2010PropOp37
 70
     1
102
RTVSPost2010Prop38
140
0.0
102
RTVSPost2010PropOp38
 70
     1
102
RTVSPost2010Prop39
140
1.0
102
RTVSPost2010PropOp39
 70
     1
102
RTVSPost2010Prop40
 90
        0
102
RTVSPost2010PropOp40
 70
     1
102
RTVSPost2010Prop41ColorIndex
 90
       18
102
RTVSPost2010Prop41ColorRGB
 90
        0
102
RTVSPost2010PropOp41
 70
     1
102
RTVSPost2010Prop42
 90
       50
102
RTVSPost2010PropOp42
 70
     1
102
RTVSPost2010Prop43
 90
        3
102
RTVSPost2010PropOp43
 70
     1
102
RTVSPost2010Prop44ColorIndex
 90
        5
102
RTVSPost2010Prop44ColorRGB
 90
      255
102
RTVSPost2010PropOp44
 70
     1
102
RTVSPost2010Prop45
280
     0
102
RTVSPost2010PropOp45
 70
     1
102
RTVSPost2010Prop46
 90
       50
102
RTVSPost2010PropOp46
 70
     1
102
RTVSPost2010Prop47
 90
       50
102
RTVSPost2010PropOp47
 70
     1
102
RTVSPost2010Prop48
 90
       50
102
RTVSPost2010PropOp48
 70
     1
102
RTVSPost2010Prop49
280
     0
102
RTVSPost2010PropOp49
 70
     1
102
RTVSPost2010Prop50
 90
       50
102
RTVSPost2010PropOp50
 70
     1
102
RTVSPost2010Prop51ColorIndex
 90
      256
102
RTVSPost2010Prop51ColorRGB
 90
-16777216
102
RTVSPost2010PropOp51
 70
     0
102
RTVSPost2010Prop52
140
1.0
102
RTVSPost2010PropOp52
 70
     0
102
RTVSPost2010Prop53
 90
        2
102
RTVSPost2010PropOp53
 70
     1
102
RTVSPost2010Prop54
  1
strokes_ogs.tif
102
RTVSPost2010PropOp54
 70
     1
102
RTVSPost2010Prop55
280
     0
102
RTVSPost2010PropOp55
 70
     1
102
RTVSPost2010Prop56
140
1.0
102
RTVSPost2010PropOp56
 70
     1
102
RTVSPost2010Prop57
140
1.0
102
RTVSPost2010PropOp57
 70
     1
102
RTVSPropertyOp0
 70
     1
102
RTVSPropertyOp1
 70
     1
102
RTVSPropertyOp2
 70
     1
102
RTVSPropertyOp3
 70
     1
102
RTVSPropertyOp4
 70
     1
102
RTVSPropertyOp5
 70
     1
102
RTVSPropertyOp6
 70
     1
102
RTVSPropertyOp7
 70
     1
102
RTVSPropertyOp8
 70
     1
102
RTVSPropertyOp9
 70
     1
102
RTVSPropertyOp10
 70
     1
102
RTVSPropertyOp11
 70
     1
102
RTVSPropertyOp12
 70
     1
102
RTVSPropertyOp13
 70
     1
102
RTVSPropertyOp14
 70
     1
102
RTVSPropertyOp15
 70
     1
102
RTVSPropertyOp16
 70
     1
102
RTVSPropertyOp17
 70
     1
102
RTVSPropertyOp18
 70
     1
102
RTVSPropertyOp19
 70
     1
102
RTVSPropertyOp20
 70
     1
102
RTVSPropertyOp21
 70
     1
102
RTVSPropertyOp22
 70
     1
102
RTVSPropertyOp23
 70
     1
102
RTVSPropertyOp24
 70
     1
102
RTVSPropertyOp25
 70
     1
102
RTVSPropertyOp26
 70
     1
102
RTVSPropertyOp27
 70
     1
102
RTVSPropertyOp28
 70
     1
102
RTVSPropertyOp29
 70
     1
102
RTVSPropertyOp30
 70
     1
102
RTVSPropertyOp31
 70
     1
102
RTVSPropertyOp32
 70
     1
102
RTVSPropertyOp33
 70
     1
102
RTVSPropertyOp34
 70
     1
102
RTVSPropertyOp35
 70
     1
102
RTVSPropertyOp36
 70
     1
102
RTVSPropertyOp37
 70
     1
102
RTVSPropertyOp38
 70
     1
102
RTVSPropertyOp39
 70
     1
102
RTVSPropertyOp40
 70
     1
102
RTVSPropertyOp41
 70
     1
102
RTVSPropertyOp42
 70
     1
102
RTVSPropertyOp43
 70
     1
102
RTVSPropertyOp44
 70
     1
102
RTVSPropertyOp45
 70
     1
102
RTVSPropertyOp46
 70
     1
102
RTVSPropertyOp47
 70
     1
102
RTVSPropertyOp48
 70
     1
102
RTVSPropertyOp49
 70
     1
102
RTVSPropertyOp50
 70
     1
102
RTVSPropertyOp51
 70
     0
102
RTVSPropertyOp52
 70
     0
102
RTVSPropertyOp53
 70
     1
102
RTVSPropertyOp54
 70
     1
102
RTVSPropertyOp55
 70
     1
102
RTVSPropertyOp56
 70
     1
102
RTVSPropertyOp57
 70
     1
102
RTVSPropertyOp58
 70
     1
102
RTVSPropertyOp59
 70
     1
102
RTVSPropertyOp60
 70
     1
102
RTVSPropertyOp61
 70
     1
102
RTVSPropertyOp62
 70
     1
  0
XRECORD
  5
3B4
102
{ACAD_REACTORS
330
3B3
102
}
330
3B3
100
AcDbXrecord
280
     1
102
RTVSPost2010Prop28
280
     0
102
RTVSPost2010PropOp28
 70
     1
102
RTVSPost2010Prop29
280
     1
102
RTVSPost2010PropOp29
 70
     1
102
RTVSPost2010Prop30
280
     1
102
RTVSPost2010PropOp30
 70
     1
102
RTVSPost2010Prop31
280
     0
102
RTVSPost2010PropOp31
 70
     1
102
RTVSPost2010Prop32
280
     0
102
RTVSPost2010PropOp32
 70
     1
102
RTVSPost2010Prop33
280
     0
102
RTVSPost2010PropOp33
 70
     1
102
RTVSPost2010Prop34
280
     0
102
RTVSPost2010PropOp34
 70
     1
102
RTVSPost2010Prop35
280
     0
102
RTVSPost2010PropOp35
 70
     1
102
RTVSPost2010Prop36
280
     0
102
RTVSPost2010PropOp36
 70
     1
102
RTVSPost2010Prop37
 90
       50
102
RTVSPost2010PropOp37
 70
     1
102
RTVSPost2010Prop38
140
0.0
102
RTVSPost2010PropOp38
 70
     1
102
RTVSPost2010Prop39
140
1.0
102
RTVSPost2010PropOp39
 70
     1
102
RTVSPost2010Prop40
 90
        0
102
RTVSPost2010PropOp40
 70
     1
102
RTVSPost2010Prop41ColorIndex
 90
       18
102
RTVSPost2010Prop41ColorRGB
 90
        0
102
RTVSPost2010PropOp41
 70
     1
102
RTVSPost2010Prop42
 90
       50
102
RTVSPost2010PropOp42
 70
     1
102
RTVSPost2010Prop43
 90
        3
102
RTVSPost2010PropOp43
 70
     1
102
RTVSPost2010Prop44ColorIndex
 90
        5
102
RTVSPost2010Prop44ColorRGB
 90
      255
102
RTVSPost2010PropOp44
 70
     1
102
RTVSPost2010Prop45
280
     0
102
RTVSPost2010PropOp45
 70
     1
102
RTVSPost2010Prop46
 90
       50
102
RTVSPost2010PropOp46
 70
     1
102
RTVSPost2010Prop47
 90
       50
102
RTVSPost2010PropOp47
 70
     1
102
RTVSPost2010Prop48
 90
       50
102
RTVSPost2010PropOp48
 70
     1
102
RTVSPost2010Prop49
280
     0
102
RTVSPost2010PropOp49
 70
     1
102
RTVSPost2010Prop50
 90
       50
102
RTVSPost2010PropOp50
 70
     1
102
RTVSPost2010Prop51ColorIndex
 90
      256
102
RTVSPost2010Prop51ColorRGB
 90
-16777216
102
RTVSPost2010PropOp51
 70
     0
102
RTVSPost2010Prop52
140
1.0
102
RTVSPost2010PropOp52
 70
     0
102
RTVSPost2010Prop53
 90
        2
102
RTVSPost2010PropOp53
 70
     1
102
RTVSPost2010Prop54
  1
strokes_ogs.tif
102
RTVSPost2010PropOp54
 70
     1
102
RTVSPost2010Prop55
280
     0
102
RTVSPost2010PropOp55
 70
     1
102
RTVSPost2010Prop56
140
1.0
102
RTVSPost2010PropOp56
 70
     1
102
RTVSPost2010Prop57
140
1.0
102
RTVSPost2010PropOp57
 70
     1
102
RTVSPropertyOp0
 70
     1
102
RTVSPropertyOp1
 70
     1
102
RTVSPropertyOp2
 70
     1
102
RTVSPropertyOp3
 70
     1
102
RTVSPropertyOp4
 70
     1
102
RTVSPropertyOp5
 70
     1
102
RTVSPropertyOp6
 70
     1
102
RTVSPropertyOp7
 70
     1
102
RTVSPropertyOp8
 70
     1
102
RTVSPropertyOp9
 70
     1
102
RTVSPropertyOp10
 70
     1
102
RTVSPropertyOp11
 70
     1
102
RTVSPropertyOp12
 70
     1
102
RTVSPropertyOp13
 70
     1
102
RTVSPropertyOp14
 70
     1
102
RTVSPropertyOp15
 70
     1
102
RTVSPropertyOp16
 70
     1
102
RTVSPropertyOp17
 70
     1
102
RTVSPropertyOp18
 70
     1
102
RTVSPropertyOp19
 70
     1
102
RTVSPropertyOp20
 70
     1
102
RTVSPropertyOp21
 70
     1
102
RTVSPropertyOp22
 70
     1
102
RTVSPropertyOp23
 70
     1
102
RTVSPropertyOp24
 70
     1
102
RTVSPropertyOp25
 70
     1
102
RTVSPropertyOp26
 70
     1
102
RTVSPropertyOp27
 70
     1
102
RTVSPropertyOp28
 70
     1
102
RTVSPropertyOp29
 70
     1
102
RTVSPropertyOp30
 70
     1
102
RTVSPropertyOp31
 70
     1
102
RTVSPropertyOp32
 70
     1
102
RTVSPropertyOp33
 70
     1
102
RTVSPropertyOp34
 70
     1
102
RTVSPropertyOp35
 70
     1
102
RTVSPropertyOp36
 70
     1
102
RTVSPropertyOp37
 70
     1
102
RTVSPropertyOp38
 70
     1
102
RTVSPropertyOp39
 70
     1
102
RTVSPropertyOp40
 70
     1
102
RTVSPropertyOp41
 70
     1
102
RTVSPropertyOp42
 70
     1
102
RTVSPropertyOp43
 70
     1
102
RTVSPropertyOp44
 70
     1
102
RTVSPropertyOp45
 70
     1
102
RTVSPropertyOp46
 70
     1
102
RTVSPropertyOp47
 70
     1
102
RTVSPropertyOp48
 70
     1
102
RTVSPropertyOp49
 70
     1
102
RTVSPropertyOp50
 70
     1
102
RTVSPropertyOp51
 70
     0
102
RTVSPropertyOp52
 70
     0
102
RTVSPropertyOp53
 70
     1
102
RTVSPropertyOp54
 70
     1
102
RTVSPropertyOp55
 70
     1
102
RTVSPropertyOp56
 70
     1
102
RTVSPropertyOp57
 70
     1
102
RTVSPropertyOp58
 70
     1
102
RTVSPropertyOp59
 70
     1
102
RTVSPropertyOp60
 70
     1
102
RTVSPropertyOp61
 70
     1
102
RTVSPropertyOp62
 70
     1
  0
XRECORD
  5
3B6
102
{ACAD_REACTORS
330
3B5
102
}
330
3B5
100
AcDbXrecord
280
     1
102
RTVSPost2010Prop28
280
     0
102
RTVSPost2010PropOp28
 70
     1
102
RTVSPost2010Prop29
280
     1
102
RTVSPost2010PropOp29
 70
     1
102
RTVSPost2010Prop30
280
     1
102
RTVSPost2010PropOp30
 70
     1
102
RTVSPost2010Prop31
280
     0
102
RTVSPost2010PropOp31
 70
     1
102
RTVSPost2010Prop32
280
     0
102
RTVSPost2010PropOp32
 70
     1
102
RTVSPost2010Prop33
280
     0
102
RTVSPost2010PropOp33
 70
     1
102
RTVSPost2010Prop34
280
     0
102
RTVSPost2010PropOp34
 70
     1
102
RTVSPost2010Prop35
280
     0
102
RTVSPost2010PropOp35
 70
     1
102
RTVSPost2010Prop36
280
     0
102
RTVSPost2010PropOp36
 70
     1
102
RTVSPost2010Prop37
 90
       50
102
RTVSPost2010PropOp37
 70
     1
102
RTVSPost2010Prop38
140
0.0
102
RTVSPost2010PropOp38
 70
     1
102
RTVSPost2010Prop39
140
1.0
102
RTVSPost2010PropOp39
 70
     1
102
RTVSPost2010Prop40
 90
        0
102
RTVSPost2010PropOp40
 70
     1
102
RTVSPost2010Prop41ColorIndex
 90
       18
102
RTVSPost2010Prop41ColorRGB
 90
        0
102
RTVSPost2010PropOp41
 70
     1
102
RTVSPost2010Prop42
 90
       50
102
RTVSPost2010PropOp42
 70
     1
102
RTVSPost2010Prop43
 90
        3
102
RTVSPost2010PropOp43
 70
     1
102
RTVSPost2010Prop44ColorIndex
 90
        5
102
RTVSPost2010Prop44ColorRGB
 90
      255
102
RTVSPost2010PropOp44
 70
     1
102
RTVSPost2010Prop45
280
     0
102
RTVSPost2010PropOp45
 70
     1
102
RTVSPost2010Prop46
 90
       50
102
RTVSPost2010PropOp46
 70
     1
102
RTVSPost2010Prop47
 90
       50
102
RTVSPost2010PropOp47
 70
     1
102
RTVSPost2010Prop48
 90
       50
102
RTVSPost2010PropOp48
 70
     1
102
RTVSPost2010Prop49
280
     0
102
RTVSPost2010PropOp49
 70
     1
102
RTVSPost2010Prop50
 90
       50
102
RTVSPost2010PropOp50
 70
     1
102
RTVSPost2010Prop51ColorIndex
 90
      256
102
RTVSPost2010Prop51ColorRGB
 90
-16777216
102
RTVSPost2010PropOp51
 70
     0
102
RTVSPost2010Prop52
140
1.0
102
RTVSPost2010PropOp52
 70
     0
102
RTVSPost2010Prop53
 90
        2
102
RTVSPost2010PropOp53
 70
     1
102
RTVSPost2010Prop54
  1
strokes_ogs.tif
102
RTVSPost2010PropOp54
 70
     1
102
RTVSPost2010Prop55
280
     0
102
RTVSPost2010PropOp55
 70
     1
102
RTVSPost2010Prop56
140
1.0
102
RTVSPost2010PropOp56
 70
     1
102
RTVSPost2010Prop57
140
1.0
102
RTVSPost2010PropOp57
 70
     1
102
RTVSPropertyOp0
 70
     1
102
RTVSPropertyOp1
 70
     1
102
RTVSPropertyOp2
 70
     1
102
RTVSPropertyOp3
 70
     1
102
RTVSPropertyOp4
 70
     1
102
RTVSPropertyOp5
 70
     1
102
RTVSPropertyOp6
 70
     1
102
RTVSPropertyOp7
 70
     1
102
RTVSPropertyOp8
 70
     1
102
RTVSPropertyOp9
 70
     1
102
RTVSPropertyOp10
 70
     1
102
RTVSPropertyOp11
 70
     1
102
RTVSPropertyOp12
 70
     1
102
RTVSPropertyOp13
 70
     1
102
RTVSPropertyOp14
 70
     1
102
RTVSPropertyOp15
 70
     1
102
RTVSPropertyOp16
 70
     1
102
RTVSPropertyOp17
 70
     1
102
RTVSPropertyOp18
 70
     1
102
RTVSPropertyOp19
 70
     1
102
RTVSPropertyOp20
 70
     1
102
RTVSPropertyOp21
 70
     1
102
RTVSPropertyOp22
 70
     1
102
RTVSPropertyOp23
 70
     1
102
RTVSPropertyOp24
 70
     1
102
RTVSPropertyOp25
 70
     1
102
RTVSPropertyOp26
 70
     1
102
RTVSPropertyOp27
 70
     1
102
RTVSPropertyOp28
 70
     1
102
RTVSPropertyOp29
 70
     1
102
RTVSPropertyOp30
 70
     1
102
RTVSPropertyOp31
 70
     1
102
RTVSPropertyOp32
 70
     1
102
RTVSPropertyOp33
 70
     1
102
RTVSPropertyOp34
 70
     1
102
RTVSPropertyOp35
 70
     1
102
RTVSPropertyOp36
 70
     1
102
RTVSPropertyOp37
 70
     1
102
RTVSPropertyOp38
 70
     1
102
RTVSPropertyOp39
 70
     1
102
RTVSPropertyOp40
 70
     1
102
RTVSPropertyOp41
 70
     1
102
RTVSPropertyOp42
 70
     1
102
RTVSPropertyOp43
 70
     1
102
RTVSPropertyOp44
 70
     1
102
RTVSPropertyOp45
 70
     1
102
RTVSPropertyOp46
 70
     1
102
RTVSPropertyOp47
 70
     1
102
RTVSPropertyOp48
 70
     1
102
RTVSPropertyOp49
 70
     1
102
RTVSPropertyOp50
 70
     1
102
RTVSPropertyOp51
 70
     0
102
RTVSPropertyOp52
 70
     0
102
RTVSPropertyOp53
 70
     1
102
RTVSPropertyOp54
 70
     1
102
RTVSPropertyOp55
 70
     1
102
RTVSPropertyOp56
 70
     1
102
RTVSPropertyOp57
 70
     1
102
RTVSPropertyOp58
 70
     1
102
RTVSPropertyOp59
 70
     1
102
RTVSPropertyOp60
 70
     1
102
RTVSPropertyOp61
 70
     1
102
RTVSPropertyOp62
 70
     1
  0
XRECORD
  5
3A6
102
{ACAD_REACTORS
330
3A5
102
}
330
3A5
100
AcDbXrecord
280
     1
102
RTVSPost2010Prop28
280
     0
102
RTVSPost2010PropOp28
 70
     1
102
RTVSPost2010Prop29
280
     1
102
RTVSPost2010PropOp29
 70
     1
102
RTVSPost2010Prop30
280
     1
102
RTVSPost2010PropOp30
 70
     1
102
RTVSPost2010Prop31
280
     0
102
RTVSPost2010PropOp31
 70
     1
102
RTVSPost2010Prop32
280
     0
102
RTVSPost2010PropOp32
 70
     1
102
RTVSPost2010Prop33
280
     0
102
RTVSPost2010PropOp33
 70
     1
102
RTVSPost2010Prop34
280
     0
102
RTVSPost2010PropOp34
 70
     1
102
RTVSPost2010Prop35
280
     0
102
RTVSPost2010PropOp35
 70
     1
102
RTVSPost2010Prop36
280
     0
102
RTVSPost2010PropOp36
 70
     1
102
RTVSPost2010Prop37
 90
       50
102
RTVSPost2010PropOp37
 70
     1
102
RTVSPost2010Prop38
140
0.0
102
RTVSPost2010PropOp38
 70
     1
102
RTVSPost2010Prop39
140
1.0
102
RTVSPost2010PropOp39
 70
     1
102
RTVSPost2010Prop40
 90
        0
102
RTVSPost2010PropOp40
 70
     1
102
RTVSPost2010Prop41ColorIndex
 90
       18
102
RTVSPost2010Prop41ColorRGB
 90
        0
102
RTVSPost2010PropOp41
 70
     1
102
RTVSPost2010Prop42
 90
       50
102
RTVSPost2010PropOp42
 70
     1
102
RTVSPost2010Prop43
 90
        3
102
RTVSPost2010PropOp43
 70
     1
102
RTVSPost2010Prop44ColorIndex
 90
        5
102
RTVSPost2010Prop44ColorRGB
 90
      255
102
RTVSPost2010PropOp44
 70
     1
102
RTVSPost2010Prop45
280
     0
102
RTVSPost2010PropOp45
 70
     1
102
RTVSPost2010Prop46
 90
       50
102
RTVSPost2010PropOp46
 70
     1
102
RTVSPost2010Prop47
 90
       50
102
RTVSPost2010PropOp47
 70
     1
102
RTVSPost2010Prop48
 90
       50
102
RTVSPost2010PropOp48
 70
     1
102
RTVSPost2010Prop49
280
     0
102
RTVSPost2010PropOp49
 70
     1
102
RTVSPost2010Prop50
 90
       50
102
RTVSPost2010PropOp50
 70
     1
102
RTVSPost2010Prop51ColorIndex
 90
      256
102
RTVSPost2010Prop51ColorRGB
 90
-16777216
102
RTVSPost2010PropOp51
 70
     0
102
RTVSPost2010Prop52
140
1.0
102
RTVSPost2010PropOp52
 70
     0
102
RTVSPost2010Prop53
 90
        2
102
RTVSPost2010PropOp53
 70
     1
102
RTVSPost2010Prop54
  1
strokes_ogs.tif
102
RTVSPost2010PropOp54
 70
     1
102
RTVSPost2010Prop55
280
     0
102
RTVSPost2010PropOp55
 70
     1
102
RTVSPost2010Prop56
140
1.0
102
RTVSPost2010PropOp56
 70
     1
102
RTVSPost2010Prop57
140
1.0
102
RTVSPost2010PropOp57
 70
     1
102
RTVSPropertyOp0
 70
     1
102
RTVSPropertyOp1
 70
     1
102
RTVSPropertyOp2
 70
     1
102
RTVSPropertyOp3
 70
     1
102
RTVSPropertyOp4
 70
     1
102
RTVSPropertyOp5
 70
     1
102
RTVSPropertyOp6
 70
     1
102
RTVSPropertyOp7
 70
     1
102
RTVSPropertyOp8
 70
     1
102
RTVSPropertyOp9
 70
     1
102
RTVSPropertyOp10
 70
     1
102
RTVSPropertyOp11
 70
     1
102
RTVSPropertyOp12
 70
     1
102
RTVSPropertyOp13
 70
     1
102
RTVSPropertyOp14
 70
     1
102
RTVSPropertyOp15
 70
     1
102
RTVSPropertyOp16
 70
     1
102
RTVSPropertyOp17
 70
     1
102
RTVSPropertyOp18
 70
     1
102
RTVSPropertyOp19
 70
     1
102
RTVSPropertyOp20
 70
     1
102
RTVSPropertyOp21
 70
     1
102
RTVSPropertyOp22
 70
     1
102
RTVSPropertyOp23
 70
     1
102
RTVSPropertyOp24
 70
     1
102
RTVSPropertyOp25
 70
     1
102
RTVSPropertyOp26
 70
     1
102
RTVSPropertyOp27
 70
     1
102
RTVSPropertyOp28
 70
     1
102
RTVSPropertyOp29
 70
     1
102
RTVSPropertyOp30
 70
     1
102
RTVSPropertyOp31
 70
     1
102
RTVSPropertyOp32
 70
     1
102
RTVSPropertyOp33
 70
     1
102
RTVSPropertyOp34
 70
     1
102
RTVSPropertyOp35
 70
     1
102
RTVSPropertyOp36
 70
     1
102
RTVSPropertyOp37
 70
     1
102
RTVSPropertyOp38
 70
     1
102
RTVSPropertyOp39
 70
     1
102
RTVSPropertyOp40
 70
     1
102
RTVSPropertyOp41
 70
     1
102
RTVSPropertyOp42
 70
     1
102
RTVSPropertyOp43
 70
     1
102
RTVSPropertyOp44
 70
     1
102
RTVSPropertyOp45
 70
     1
102
RTVSPropertyOp46
 70
     1
102
RTVSPropertyOp47
 70
     1
102
RTVSPropertyOp48
 70
     1
102
RTVSPropertyOp49
 70
     1
102
RTVSPropertyOp50
 70
     1
102
RTVSPropertyOp51
 70
     0
102
RTVSPropertyOp52
 70
     0
102
RTVSPropertyOp53
 70
     1
102
RTVSPropertyOp54
 70
     1
102
RTVSPropertyOp55
 70
     1
102
RTVSPropertyOp56
 70
     1
102
RTVSPropertyOp57
 70
     1
102
RTVSPropertyOp58
 70
     1
102
RTVSPropertyOp59
 70
     1
102
RTVSPropertyOp60
 70
     1
102
RTVSPropertyOp61
 70
     1
102
RTVSPropertyOp62
 70
     1
  0
XRECORD
  5
398
102
{ACAD_REACTORS
330
397
102
}
330
397
100
AcDbXrecord
280
     1
102
RTVSPost2010Prop28
280
     0
102
RTVSPost2010PropOp28
 70
     1
102
RTVSPost2010Prop29
280
     1
102
RTVSPost2010PropOp29
 70
     1
102
RTVSPost2010Prop30
280
     1
102
RTVSPost2010PropOp30
 70
     1
102
RTVSPost2010Prop31
280
     0
102
RTVSPost2010PropOp31
 70
     1
102
RTVSPost2010Prop32
280
     0
102
RTVSPost2010PropOp32
 70
     1
102
RTVSPost2010Prop33
280
     0
102
RTVSPost2010PropOp33
 70
     1
102
RTVSPost2010Prop34
280
     0
102
RTVSPost2010PropOp34
 70
     1
102
RTVSPost2010Prop35
280
     0
102
RTVSPost2010PropOp35
 70
     1
102
RTVSPost2010Prop36
280
     0
102
RTVSPost2010PropOp36
 70
     1
102
RTVSPost2010Prop37
 90
       50
102
RTVSPost2010PropOp37
 70
     1
102
RTVSPost2010Prop38
140
0.0
102
RTVSPost2010PropOp38
 70
     1
102
RTVSPost2010Prop39
140
1.0
102
RTVSPost2010PropOp39
 70
     1
102
RTVSPost2010Prop40
 90
        0
102
RTVSPost2010PropOp40
 70
     1
102
RTVSPost2010Prop41ColorIndex
 90
       18
102
RTVSPost2010Prop41ColorRGB
 90
        0
102
RTVSPost2010PropOp41
 70
     1
102
RTVSPost2010Prop42
 90
       50
102
RTVSPost2010PropOp42
 70
     1
102
RTVSPost2010Prop43
 90
        3
102
RTVSPost2010PropOp43
 70
     1
102
RTVSPost2010Prop44ColorIndex
 90
        5
102
RTVSPost2010Prop44ColorRGB
 90
      255
102
RTVSPost2010PropOp44
 70
     1
102
RTVSPost2010Prop45
280
     0
102
RTVSPost2010PropOp45
 70
     1
102
RTVSPost2010Prop46
 90
       50
102
RTVSPost2010PropOp46
 70
     1
102
RTVSPost2010Prop47
 90
       50
102
RTVSPost2010PropOp47
 70
     1
102
RTVSPost2010Prop48
 90
       50
102
RTVSPost2010PropOp48
 70
     1
102
RTVSPost2010Prop49
280
     0
102
RTVSPost2010PropOp49
 70
     1
102
RTVSPost2010Prop50
 90
       50
102
RTVSPost2010PropOp50
 70
     1
102
RTVSPost2010Prop51ColorIndex
 90
      256
102
RTVSPost2010Prop51ColorRGB
 90
-16777216
102
RTVSPost2010PropOp51
 70
     0
102
RTVSPost2010Prop52
140
1.0
102
RTVSPost2010PropOp52
 70
     0
102
RTVSPost2010Prop53
 90
        2
102
RTVSPost2010PropOp53
 70
     1
102
RTVSPost2010Prop54
  1
strokes_ogs.tif
102
RTVSPost2010PropOp54
 70
     1
102
RTVSPost2010Prop55
280
     0
102
RTVSPost2010PropOp55
 70
     1
102
RTVSPost2010Prop56
140
1.0
102
RTVSPost2010PropOp56
 70
     1
102
RTVSPost2010Prop57
140
1.0
102
RTVSPost2010PropOp57
 70
     1
102
RTVSPropertyOp0
 70
     1
102
RTVSPropertyOp1
 70
     1
102
RTVSPropertyOp2
 70
     1
102
RTVSPropertyOp3
 70
     1
102
RTVSPropertyOp4
 70
     1
102
RTVSPropertyOp5
 70
     1
102
RTVSPropertyOp6
 70
     1
102
RTVSPropertyOp7
 70
     1
102
RTVSPropertyOp8
 70
     1
102
RTVSPropertyOp9
 70
     1
102
RTVSPropertyOp10
 70
     1
102
RTVSPropertyOp11
 70
     1
102
RTVSPropertyOp12
 70
     1
102
RTVSPropertyOp13
 70
     1
102
RTVSPropertyOp14
 70
     1
102
RTVSPropertyOp15
 70
     1
102
RTVSPropertyOp16
 70
     1
102
RTVSPropertyOp17
 70
     1
102
RTVSPropertyOp18
 70
     1
102
RTVSPropertyOp19
 70
     1
102
RTVSPropertyOp20
 70
     1
102
RTVSPropertyOp21
 70
     1
102
RTVSPropertyOp22
 70
     1
102
RTVSPropertyOp23
 70
     1
102
RTVSPropertyOp24
 70
     1
102
RTVSPropertyOp25
 70
     1
102
RTVSPropertyOp26
 70
     1
102
RTVSPropertyOp27
 70
     1
102
RTVSPropertyOp28
 70
     1
102
RTVSPropertyOp29
 70
     1
102
RTVSPropertyOp30
 70
     1
102
RTVSPropertyOp31
 70
     1
102
RTVSPropertyOp32
 70
     1
102
RTVSPropertyOp33
 70
     1
102
RTVSPropertyOp34
 70
     1
102
RTVSPropertyOp35
 70
     1
102
RTVSPropertyOp36
 70
     1
102
RTVSPropertyOp37
 70
     1
102
RTVSPropertyOp38
 70
     1
102
RTVSPropertyOp39
 70
     1
102
RTVSPropertyOp40
 70
     1
102
RTVSPropertyOp41
 70
     1
102
RTVSPropertyOp42
 70
     1
102
RTVSPropertyOp43
 70
     1
102
RTVSPropertyOp44
 70
     1
102
RTVSPropertyOp45
 70
     1
102
RTVSPropertyOp46
 70
     1
102
RTVSPropertyOp47
 70
     1
102
RTVSPropertyOp48
 70
     1
102
RTVSPropertyOp49
 70
     1
102
RTVSPropertyOp50
 70
     1
102
RTVSPropertyOp51
 70
     0
102
RTVSPropertyOp52
 70
     0
102
RTVSPropertyOp53
 70
     1
102
RTVSPropertyOp54
 70
     1
102
RTVSPropertyOp55
 70
     1
102
RTVSPropertyOp56
 70
     1
102
RTVSPropertyOp57
 70
     1
102
RTVSPropertyOp58
 70
     1
102
RTVSPropertyOp59
 70
     1
102
RTVSPropertyOp60
 70
     1
102
RTVSPropertyOp61
 70
     1
102
RTVSPropertyOp62
 70
     1
  0
XRECORD
  5
3B8
102
{ACAD_REACTORS
330
3B7
102
}
330
3B7
100
AcDbXrecord
280
     1
102
RTVSPost2010Prop28
280
     0
102
RTVSPost2010PropOp28
 70
     1
102
RTVSPost2010Prop29
280
     1
102
RTVSPost2010PropOp29
 70
     1
102
RTVSPost2010Prop30
280
     1
102
RTVSPost2010PropOp30
 70
     1
102
RTVSPost2010Prop31
280
     0
102
RTVSPost2010PropOp31
 70
     1
102
RTVSPost2010Prop32
280
     0
102
RTVSPost2010PropOp32
 70
     1
102
RTVSPost2010Prop33
280
     0
102
RTVSPost2010PropOp33
 70
     1
102
RTVSPost2010Prop34
280
     0
102
RTVSPost2010PropOp34
 70
     1
102
RTVSPost2010Prop35
280
     0
102
RTVSPost2010PropOp35
 70
     1
102
RTVSPost2010Prop36
280
     0
102
RTVSPost2010PropOp36
 70
     1
102
RTVSPost2010Prop37
 90
       50
102
RTVSPost2010PropOp37
 70
     1
102
RTVSPost2010Prop38
140
0.0
102
RTVSPost2010PropOp38
 70
     1
102
RTVSPost2010Prop39
140
1.0
102
RTVSPost2010PropOp39
 70
     1
102
RTVSPost2010Prop40
 90
        0
102
RTVSPost2010PropOp40
 70
     1
102
RTVSPost2010Prop41ColorIndex
 90
       18
102
RTVSPost2010Prop41ColorRGB
 90
        0
102
RTVSPost2010PropOp41
 70
     1
102
RTVSPost2010Prop42
 90
       50
102
RTVSPost2010PropOp42
 70
     1
102
RTVSPost2010Prop43
 90
        3
102
RTVSPost2010PropOp43
 70
     1
102
RTVSPost2010Prop44ColorIndex
 90
        5
102
RTVSPost2010Prop44ColorRGB
 90
      255
102
RTVSPost2010PropOp44
 70
     1
102
RTVSPost2010Prop45
280
     0
102
RTVSPost2010PropOp45
 70
     1
102
RTVSPost2010Prop46
 90
       50
102
RTVSPost2010PropOp46
 70
     1
102
RTVSPost2010Prop47
 90
       50
102
RTVSPost2010PropOp47
 70
     1
102
RTVSPost2010Prop48
 90
       50
102
RTVSPost2010PropOp48
 70
     1
102
RTVSPost2010Prop49
280
     0
102
RTVSPost2010PropOp49
 70
     1
102
RTVSPost2010Prop50
 90
       50
102
RTVSPost2010PropOp50
 70
     1
102
RTVSPost2010Prop51ColorIndex
 90
      256
102
RTVSPost2010Prop51ColorRGB
 90
-16777216
102
RTVSPost2010PropOp51
 70
     0
102
RTVSPost2010Prop52
140
1.0
102
RTVSPost2010PropOp52
 70
     0
102
RTVSPost2010Prop53
 90
        2
102
RTVSPost2010PropOp53
 70
     1
102
RTVSPost2010Prop54
  1
strokes_ogs.tif
102
RTVSPost2010PropOp54
 70
     1
102
RTVSPost2010Prop55
280
     0
102
RTVSPost2010PropOp55
 70
     1
102
RTVSPost2010Prop56
140
1.0
102
RTVSPost2010PropOp56
 70
     1
102
RTVSPost2010Prop57
140
1.0
102
RTVSPost2010PropOp57
 70
     1
102
RTVSPropertyOp0
 70
     1
102
RTVSPropertyOp1
 70
     1
102
RTVSPropertyOp2
 70
     1
102
RTVSPropertyOp3
 70
     1
102
RTVSPropertyOp4
 70
     1
102
RTVSPropertyOp5
 70
     1
102
RTVSPropertyOp6
 70
     1
102
RTVSPropertyOp7
 70
     1
102
RTVSPropertyOp8
 70
     1
102
RTVSPropertyOp9
 70
     1
102
RTVSPropertyOp10
 70
     1
102
RTVSPropertyOp11
 70
     1
102
RTVSPropertyOp12
 70
     1
102
RTVSPropertyOp13
 70
     1
102
RTVSPropertyOp14
 70
     1
102
RTVSPropertyOp15
 70
     1
102
RTVSPropertyOp16
 70
     1
102
RTVSPropertyOp17
 70
     1
102
RTVSPropertyOp18
 70
     1
102
RTVSPropertyOp19
 70
     1
102
RTVSPropertyOp20
 70
     1
102
RTVSPropertyOp21
 70
     1
102
RTVSPropertyOp22
 70
     1
102
RTVSPropertyOp23
 70
     1
102
RTVSPropertyOp24
 70
     1
102
RTVSPropertyOp25
 70
     1
102
RTVSPropertyOp26
 70
     1
102
RTVSPropertyOp27
 70
     1
102
RTVSPropertyOp28
 70
     1
102
RTVSPropertyOp29
 70
     1
102
RTVSPropertyOp30
 70
     1
102
RTVSPropertyOp31
 70
     1
102
RTVSPropertyOp32
 70
     1
102
RTVSPropertyOp33
 70
     1
102
RTVSPropertyOp34
 70
     1
102
RTVSPropertyOp35
 70
     1
102
RTVSPropertyOp36
 70
     1
102
RTVSPropertyOp37
 70
     1
102
RTVSPropertyOp38
 70
     1
102
RTVSPropertyOp39
 70
     1
102
RTVSPropertyOp40
 70
     1
102
RTVSPropertyOp41
 70
     1
102
RTVSPropertyOp42
 70
     1
102
RTVSPropertyOp43
 70
     1
102
RTVSPropertyOp44
 70
     1
102
RTVSPropertyOp45
 70
     1
102
RTVSPropertyOp46
 70
     1
102
RTVSPropertyOp47
 70
     1
102
RTVSPropertyOp48
 70
     1
102
RTVSPropertyOp49
 70
     1
102
RTVSPropertyOp50
 70
     1
102
RTVSPropertyOp51
 70
     0
102
RTVSPropertyOp52
 70
     0
102
RTVSPropertyOp53
 70
     1
102
RTVSPropertyOp54
 70
     1
102
RTVSPropertyOp55
 70
     1
102
RTVSPropertyOp56
 70
     1
102
RTVSPropertyOp57
 70
     1
102
RTVSPropertyOp58
 70
     1
102
RTVSPropertyOp59
 70
     1
102
RTVSPropertyOp60
 70
     1
102
RTVSPropertyOp61
 70
     1
102
RTVSPropertyOp62
 70
     1
  0
ENDSEC
  0
EOF
