ISO-10303-21;
HEADER;
/* Generated by software containing ST-Developer
 * from STEP Tools, Inc. (www.steptools.com) 
 */
/* OPTION: using custom schema-name function */

FILE_DESCRIPTION(
/* description */ (''),
/* implementation_level */ '2;1');

FILE_NAME(
/* name */ '10L2R030A10-SZP10_115008932ndi000_00-SIM.stp',
/* time_stamp */ '2020-01-14T07:49:37+01:00',
/* author */ (''),
/* organization */ (''),
/* preprocessor_version */ 'ST-DEVELOPER v16.7',
/* originating_system */ 'SIEMENS PLM Software NX 12.0',
/* authorisation */ '');

FILE_SCHEMA (('AUTOMOTIVE_DESIGN { 1 0 10303 214 3 1 1 1 }'));
ENDSEC;

DATA;
#10=PROPERTY_DEFINITION_REPRESENTATION(#14,#12);
#11=PROPERTY_DEFINITION_REPRESENTATION(#15,#13);
#12=REPRESENTATION('',(#16),#467);
#13=REPRESENTATION('',(#17),#467);
#14=PROPERTY_DEFINITION('pmi validation property','',#21);
#15=PROPERTY_DEFINITION('pmi validation property','',#21);
#16=VALUE_REPRESENTATION_ITEM('number of annotations',COUNT_MEASURE(0.));
#17=VALUE_REPRESENTATION_ITEM('number of views',COUNT_MEASURE(0.));
#18=SHAPE_REPRESENTATION_RELATIONSHIP('None',
'relationship between hm15442C0F16339f-None and hm15442C0F16339f-None',
#30,#19);
#19=ADVANCED_BREP_SHAPE_REPRESENTATION('hm15442C0F16339f-None',(#74,#75),
#467);
#20=SHAPE_DEFINITION_REPRESENTATION(#21,#30);
#21=PRODUCT_DEFINITION_SHAPE('','',#22);
#22=PRODUCT_DEFINITION(' ','',#24,#23);
#23=PRODUCT_DEFINITION_CONTEXT('part definition',#29,'design');
#24=PRODUCT_DEFINITION_FORMATION_WITH_SPECIFIED_SOURCE(' ',' ',#26,
 .NOT_KNOWN.);
#25=PRODUCT_RELATED_PRODUCT_CATEGORY('part','',(#26));
#26=PRODUCT('hm15442C0F16339f','hm15442C0F16339f',' ',(#27));
#27=PRODUCT_CONTEXT(' ',#29,'mechanical');
#28=APPLICATION_PROTOCOL_DEFINITION('international standard',
'automotive_design',2010,#29);
#29=APPLICATION_CONTEXT(
'core data for automotive mechanical design processes');
#30=SHAPE_REPRESENTATION('hm15442C0F16339f-None',(#283),#467);
#31=(
BOUNDED_CURVE()
B_SPLINE_CURVE(3,(#443,#444,#445,#446),.UNSPECIFIED.,.F.,.F.)
B_SPLINE_CURVE_WITH_KNOTS((4,4),(0.,1.),.UNSPECIFIED.)
CURVE()
GEOMETRIC_REPRESENTATION_ITEM()
RATIONAL_B_SPLINE_CURVE((1.,0.797356284687163,0.797356284687163,1.))
REPRESENTATION_ITEM('')
);
#32=SURFACE_OF_REVOLUTION('',#46,#39);
#33=SURFACE_OF_REVOLUTION('',#31,#40);
#34=SURFACE_OF_REVOLUTION('',#47,#41);
#35=SURFACE_OF_REVOLUTION('',#48,#42);
#36=SURFACE_OF_REVOLUTION('',#49,#43);
#37=SURFACE_OF_REVOLUTION('',#282,#44);
#38=SURFACE_OF_REVOLUTION('',#50,#45);
#39=AXIS1_PLACEMENT('',#440,#374);
#40=AXIS1_PLACEMENT('',#447,#377);
#41=AXIS1_PLACEMENT('',#451,#381);
#42=AXIS1_PLACEMENT('',#455,#385);
#43=AXIS1_PLACEMENT('',#459,#389);
#44=AXIS1_PLACEMENT('',#463,#394);
#45=AXIS1_PLACEMENT('',#465,#396);
#46=LINE('',#439,#51);
#47=LINE('',#450,#52);
#48=LINE('',#454,#53);
#49=LINE('',#458,#54);
#50=LINE('',#464,#55);
#51=VECTOR('',#373,0.866609043913096);
#52=VECTOR('',#380,4.06829120581549);
#53=VECTOR('',#384,0.391622186799674);
#54=VECTOR('',#388,0.207055236082154);
#55=VECTOR('',#395,4.4090839042389);
#56=PRESENTATION_LAYER_ASSIGNMENT('14','Layer 14',(#74));
#57=PRESENTATION_LAYER_ASSIGNMENT('96','Layer 96',(#75));
#58=STYLED_ITEM('',(#60),#74);
#59=STYLED_ITEM('',(#61),#75);
#60=PRESENTATION_STYLE_ASSIGNMENT((#62));
#61=PRESENTATION_STYLE_ASSIGNMENT((#63));
#62=SURFACE_STYLE_USAGE(.BOTH.,#64);
#63=SURFACE_STYLE_USAGE(.BOTH.,#65);
#64=SURFACE_SIDE_STYLE('',(#66));
#65=SURFACE_SIDE_STYLE('',(#67));
#66=SURFACE_STYLE_FILL_AREA(#68);
#67=SURFACE_STYLE_FILL_AREA(#69);
#68=FILL_AREA_STYLE('',(#70));
#69=FILL_AREA_STYLE('',(#71));
#70=FILL_AREA_STYLE_COLOUR('',#72);
#71=FILL_AREA_STYLE_COLOUR('',#73);
#72=COLOUR_RGB('Silver Gray',0.6,0.6,0.6);
#73=COLOUR_RGB('Light Gray',0.8,0.8,0.8);
#74=MANIFOLD_SOLID_BREP('',#76);
#75=MANIFOLD_SOLID_BREP('',#77);
#76=CLOSED_SHELL('',(#88,#89,#90,#91,#92,#93,#94,#95,#96,#97,#98,#99,#100));
#77=CLOSED_SHELL('',(#101,#102,#103,#104,#105,#106,#107));
#78=TOROIDAL_SURFACE('',#308,5.79999999999999,1.2);
#79=CYLINDRICAL_SURFACE('',#296,4.6);
#80=CYLINDRICAL_SURFACE('',#306,5.);
#81=PLANE('',#292);
#82=PLANE('',#303);
#83=FACE_OUTER_BOUND('',#155,.T.);
#84=FACE_OUTER_BOUND('',#166,.T.);
#85=SPHERICAL_SURFACE('',#288,4.8);
#86=SPHERICAL_SURFACE('',#293,4.6);
#87=SPHERICAL_SURFACE('',#301,4.59999999999999);
#88=ADVANCED_FACE('',(#113,#114),#108,.F.);
#89=ADVANCED_FACE('',(#115,#116),#85,.T.);
#90=ADVANCED_FACE('',(#117,#118),#109,.T.);
#91=ADVANCED_FACE('',(#83),#81,.F.);
#92=ADVANCED_FACE('',(#119,#120),#86,.T.);
#93=ADVANCED_FACE('',(#121,#122),#79,.T.);
#94=ADVANCED_FACE('',(#123,#124),#110,.T.);
#95=ADVANCED_FACE('',(#125,#126),#111,.T.);
#96=ADVANCED_FACE('',(#127,#128),#87,.T.);
#97=ADVANCED_FACE('',(#84),#82,.T.);
#98=ADVANCED_FACE('',(#129,#130),#80,.T.);
#99=ADVANCED_FACE('',(#131,#132),#112,.T.);
#100=ADVANCED_FACE('',(#133,#134),#78,.F.);
#101=ADVANCED_FACE('',(#135,#136),#32,.F.);
#102=ADVANCED_FACE('',(#137,#138),#33,.F.);
#103=ADVANCED_FACE('',(#139,#140),#34,.F.);
#104=ADVANCED_FACE('',(#141,#142),#35,.F.);
#105=ADVANCED_FACE('',(#143,#144),#36,.F.);
#106=ADVANCED_FACE('',(#145,#146),#37,.F.);
#107=ADVANCED_FACE('',(#147,#148),#38,.F.);
#108=CONICAL_SURFACE('',#286,3.71011363473321,59.9999999999997);
#109=CONICAL_SURFACE('',#290,4.21011363473321,59.9999999999988);
#110=CONICAL_SURFACE('',#298,4.6,44.9999999999997);
#111=CONICAL_SURFACE('',#300,4.322863963979,4.24999999999976);
#112=CONICAL_SURFACE('',#307,4.,45.);
#113=FACE_BOUND('',#149,.T.);
#114=FACE_BOUND('',#150,.T.);
#115=FACE_BOUND('',#151,.T.);
#116=FACE_BOUND('',#152,.T.);
#117=FACE_BOUND('',#153,.T.);
#118=FACE_BOUND('',#154,.T.);
#119=FACE_BOUND('',#156,.T.);
#120=FACE_BOUND('',#157,.T.);
#121=FACE_BOUND('',#158,.T.);
#122=FACE_BOUND('',#159,.T.);
#123=FACE_BOUND('',#160,.T.);
#124=FACE_BOUND('',#161,.T.);
#125=FACE_BOUND('',#162,.T.);
#126=FACE_BOUND('',#163,.T.);
#127=FACE_BOUND('',#164,.T.);
#128=FACE_BOUND('',#165,.T.);
#129=FACE_BOUND('',#167,.T.);
#130=FACE_BOUND('',#168,.T.);
#131=FACE_BOUND('',#169,.T.);
#132=FACE_BOUND('',#170,.T.);
#133=FACE_BOUND('',#171,.T.);
#134=FACE_BOUND('',#172,.T.);
#135=FACE_BOUND('',#173,.T.);
#136=FACE_BOUND('',#174,.T.);
#137=FACE_BOUND('',#175,.T.);
#138=FACE_BOUND('',#176,.T.);
#139=FACE_BOUND('',#177,.T.);
#140=FACE_BOUND('',#178,.T.);
#141=FACE_BOUND('',#179,.T.);
#142=FACE_BOUND('',#180,.T.);
#143=FACE_BOUND('',#181,.T.);
#144=FACE_BOUND('',#182,.T.);
#145=FACE_BOUND('',#183,.T.);
#146=FACE_BOUND('',#184,.T.);
#147=FACE_BOUND('',#185,.T.);
#148=FACE_BOUND('',#186,.T.);
#149=EDGE_LOOP('',(#187));
#150=EDGE_LOOP('',(#188));
#151=EDGE_LOOP('',(#189));
#152=EDGE_LOOP('',(#190));
#153=EDGE_LOOP('',(#191));
#154=EDGE_LOOP('',(#192));
#155=EDGE_LOOP('',(#193));
#156=EDGE_LOOP('',(#194));
#157=EDGE_LOOP('',(#195));
#158=EDGE_LOOP('',(#196));
#159=EDGE_LOOP('',(#197));
#160=EDGE_LOOP('',(#198));
#161=EDGE_LOOP('',(#199));
#162=EDGE_LOOP('',(#200));
#163=EDGE_LOOP('',(#201));
#164=EDGE_LOOP('',(#202));
#165=EDGE_LOOP('',(#203));
#166=EDGE_LOOP('',(#204));
#167=EDGE_LOOP('',(#205));
#168=EDGE_LOOP('',(#206));
#169=EDGE_LOOP('',(#207));
#170=EDGE_LOOP('',(#208));
#171=EDGE_LOOP('',(#209));
#172=EDGE_LOOP('',(#210));
#173=EDGE_LOOP('',(#211));
#174=EDGE_LOOP('',(#212));
#175=EDGE_LOOP('',(#213));
#176=EDGE_LOOP('',(#214));
#177=EDGE_LOOP('',(#215));
#178=EDGE_LOOP('',(#216));
#179=EDGE_LOOP('',(#217));
#180=EDGE_LOOP('',(#218));
#181=EDGE_LOOP('',(#219));
#182=EDGE_LOOP('',(#220));
#183=EDGE_LOOP('',(#221));
#184=EDGE_LOOP('',(#222));
#185=EDGE_LOOP('',(#223));
#186=EDGE_LOOP('',(#224));
#187=ORIENTED_EDGE('',*,*,#244,.T.);
#188=ORIENTED_EDGE('',*,*,#245,.F.);
#189=ORIENTED_EDGE('',*,*,#246,.T.);
#190=ORIENTED_EDGE('',*,*,#244,.F.);
#191=ORIENTED_EDGE('',*,*,#246,.F.);
#192=ORIENTED_EDGE('',*,*,#247,.T.);
#193=ORIENTED_EDGE('',*,*,#248,.T.);
#194=ORIENTED_EDGE('',*,*,#245,.T.);
#195=ORIENTED_EDGE('',*,*,#248,.F.);
#196=ORIENTED_EDGE('',*,*,#249,.F.);
#197=ORIENTED_EDGE('',*,*,#250,.F.);
#198=ORIENTED_EDGE('',*,*,#251,.F.);
#199=ORIENTED_EDGE('',*,*,#249,.T.);
#200=ORIENTED_EDGE('',*,*,#252,.F.);
#201=ORIENTED_EDGE('',*,*,#251,.T.);
#202=ORIENTED_EDGE('',*,*,#252,.T.);
#203=ORIENTED_EDGE('',*,*,#247,.F.);
#204=ORIENTED_EDGE('',*,*,#253,.T.);
#205=ORIENTED_EDGE('',*,*,#254,.T.);
#206=ORIENTED_EDGE('',*,*,#255,.F.);
#207=ORIENTED_EDGE('',*,*,#254,.F.);
#208=ORIENTED_EDGE('',*,*,#253,.F.);
#209=ORIENTED_EDGE('',*,*,#250,.T.);
#210=ORIENTED_EDGE('',*,*,#255,.T.);
#211=ORIENTED_EDGE('',*,*,#256,.T.);
#212=ORIENTED_EDGE('',*,*,#257,.F.);
#213=ORIENTED_EDGE('',*,*,#258,.T.);
#214=ORIENTED_EDGE('',*,*,#256,.F.);
#215=ORIENTED_EDGE('',*,*,#259,.T.);
#216=ORIENTED_EDGE('',*,*,#258,.F.);
#217=ORIENTED_EDGE('',*,*,#260,.T.);
#218=ORIENTED_EDGE('',*,*,#259,.F.);
#219=ORIENTED_EDGE('',*,*,#261,.T.);
#220=ORIENTED_EDGE('',*,*,#260,.F.);
#221=ORIENTED_EDGE('',*,*,#262,.T.);
#222=ORIENTED_EDGE('',*,*,#261,.F.);
#223=ORIENTED_EDGE('',*,*,#257,.T.);
#224=ORIENTED_EDGE('',*,*,#262,.F.);
#225=VERTEX_POINT('',#399);
#226=VERTEX_POINT('',#401);
#227=VERTEX_POINT('',#404);
#228=VERTEX_POINT('',#407);
#229=VERTEX_POINT('',#410);
#230=VERTEX_POINT('',#414);
#231=VERTEX_POINT('',#416);
#232=VERTEX_POINT('',#419);
#233=VERTEX_POINT('',#422);
#234=VERTEX_POINT('',#426);
#235=VERTEX_POINT('',#429);
#236=VERTEX_POINT('',#431);
#237=VERTEX_POINT('',#436);
#238=VERTEX_POINT('',#438);
#239=VERTEX_POINT('',#442);
#240=VERTEX_POINT('',#449);
#241=VERTEX_POINT('',#453);
#242=VERTEX_POINT('',#457);
#243=VERTEX_POINT('',#461);
#244=EDGE_CURVE('',#225,#225,#263,.T.);
#245=EDGE_CURVE('',#226,#226,#264,.T.);
#246=EDGE_CURVE('',#227,#227,#265,.T.);
#247=EDGE_CURVE('',#228,#228,#266,.T.);
#248=EDGE_CURVE('',#229,#229,#267,.T.);
#249=EDGE_CURVE('',#230,#230,#268,.T.);
#250=EDGE_CURVE('',#231,#231,#269,.T.);
#251=EDGE_CURVE('',#232,#232,#270,.T.);
#252=EDGE_CURVE('',#233,#233,#271,.T.);
#253=EDGE_CURVE('',#234,#234,#272,.T.);
#254=EDGE_CURVE('',#235,#235,#273,.T.);
#255=EDGE_CURVE('',#236,#236,#274,.T.);
#256=EDGE_CURVE('',#237,#237,#275,.T.);
#257=EDGE_CURVE('',#238,#238,#276,.T.);
#258=EDGE_CURVE('',#239,#239,#277,.T.);
#259=EDGE_CURVE('',#240,#240,#278,.T.);
#260=EDGE_CURVE('',#241,#241,#279,.T.);
#261=EDGE_CURVE('',#242,#242,#280,.T.);
#262=EDGE_CURVE('',#243,#243,#281,.T.);
#263=CIRCLE('',#284,3.88430768085781);
#264=CIRCLE('',#285,3.71011363473321);
#265=CIRCLE('',#287,4.38430768085781);
#266=CIRCLE('',#289,4.21011363473322);
#267=CIRCLE('',#291,1.34164078649988);
#268=CIRCLE('',#294,4.6);
#269=CIRCLE('',#295,4.59999999999999);
#270=CIRCLE('',#297,4.322863963979);
#271=CIRCLE('',#299,4.58735085145763);
#272=CIRCLE('',#302,4.);
#273=CIRCLE('',#304,5.);
#274=CIRCLE('',#305,4.99999999999999);
#275=CIRCLE('',#309,0.049997039186556);
#276=CIRCLE('',#310,0.211712279148407);
#277=CIRCLE('',#311,4.95937946844968);
#278=CIRCLE('',#312,4.96111001933974);
#279=CIRCLE('',#313,4.68204497188976);
#280=CIRCLE('',#314,4.49597971125236);
#281=CIRCLE('',#315,0.969373826829948);
#282=CIRCLE('',#316,4.9);
#283=AXIS2_PLACEMENT_3D('',#397,#317,#318);
#284=AXIS2_PLACEMENT_3D('',#398,#319,#320);
#285=AXIS2_PLACEMENT_3D('',#400,#321,#322);
#286=AXIS2_PLACEMENT_3D('',#402,#323,#324);
#287=AXIS2_PLACEMENT_3D('',#403,#325,#326);
#288=AXIS2_PLACEMENT_3D('',#405,#327,#328);
#289=AXIS2_PLACEMENT_3D('',#406,#329,#330);
#290=AXIS2_PLACEMENT_3D('',#408,#331,#332);
#291=AXIS2_PLACEMENT_3D('',#409,#333,#334);
#292=AXIS2_PLACEMENT_3D('',#411,#335,#336);
#293=AXIS2_PLACEMENT_3D('',#412,#337,#338);
#294=AXIS2_PLACEMENT_3D('',#413,#339,#340);
#295=AXIS2_PLACEMENT_3D('',#415,#341,#342);
#296=AXIS2_PLACEMENT_3D('',#417,#343,#344);
#297=AXIS2_PLACEMENT_3D('',#418,#345,#346);
#298=AXIS2_PLACEMENT_3D('',#420,#347,#348);
#299=AXIS2_PLACEMENT_3D('',#421,#349,#350);
#300=AXIS2_PLACEMENT_3D('',#423,#351,#352);
#301=AXIS2_PLACEMENT_3D('',#424,#353,#354);
#302=AXIS2_PLACEMENT_3D('',#425,#355,#356);
#303=AXIS2_PLACEMENT_3D('',#427,#357,#358);
#304=AXIS2_PLACEMENT_3D('',#428,#359,#360);
#305=AXIS2_PLACEMENT_3D('',#430,#361,#362);
#306=AXIS2_PLACEMENT_3D('',#432,#363,#364);
#307=AXIS2_PLACEMENT_3D('',#433,#365,#366);
#308=AXIS2_PLACEMENT_3D('',#434,#367,#368);
#309=AXIS2_PLACEMENT_3D('',#435,#369,#370);
#310=AXIS2_PLACEMENT_3D('',#437,#371,#372);
#311=AXIS2_PLACEMENT_3D('',#441,#375,#376);
#312=AXIS2_PLACEMENT_3D('',#448,#378,#379);
#313=AXIS2_PLACEMENT_3D('',#452,#382,#383);
#314=AXIS2_PLACEMENT_3D('',#456,#386,#387);
#315=AXIS2_PLACEMENT_3D('',#460,#390,#391);
#316=AXIS2_PLACEMENT_3D('',#462,#392,#393);
#317=DIRECTION('',(0.,0.,1.));
#318=DIRECTION('',(1.,0.,0.));
#319=DIRECTION('',(-3.08148791101958E-33,2.77555756156289E-17,-1.));
#320=DIRECTION('',(-0.175039677842986,-0.984561380098074,0.));
#321=DIRECTION('',(-3.08148791101958E-33,2.77555756156289E-17,-1.));
#322=DIRECTION('',(-0.175039677842986,-0.984561380098074,0.));
#323=DIRECTION('',(-3.08148791101958E-33,2.77555756156289E-17,-1.));
#324=DIRECTION('',(-0.175039677842986,-0.984561380098074,5.19689201714742E-17));
#325=DIRECTION('',(-3.08148791101958E-33,2.77555756156289E-17,-1.));
#326=DIRECTION('',(-0.175039677842986,-0.984561380098074,0.));
#327=DIRECTION('',(0.175039677842986,0.984561380098074,0.));
#328=DIRECTION('',(-0.984561380098074,0.175039677842986,0.));
#329=DIRECTION('',(-3.08148791101958E-33,2.77555756156289E-17,-1.));
#330=DIRECTION('',(-0.175039677842986,-0.984561380098074,0.));
#331=DIRECTION('',(-3.08148791101958E-33,2.77555756156289E-17,-1.));
#332=DIRECTION('',(-0.175039677842986,-0.984561380098074,5.19539544138711E-17));
#333=DIRECTION('',(-3.08148791101958E-33,2.77555756156289E-17,-1.));
#334=DIRECTION('',(-0.175039677842986,-0.984561380098074,0.));
#335=DIRECTION('',(3.08148791101958E-33,-2.77555756156289E-17,1.));
#336=DIRECTION('',(0.175039677842986,0.984561380098074,2.77555756156289E-17));
#337=DIRECTION('',(0.175039677842985,0.984561380098074,0.));
#338=DIRECTION('',(-0.984561380098074,0.175039677842986,0.));
#339=DIRECTION('',(-3.08148791101958E-33,2.77555756156289E-17,-1.));
#340=DIRECTION('',(-0.175039677842986,-0.984561380098074,0.));
#341=DIRECTION('',(3.08148791101958E-33,-2.77555756156289E-17,1.));
#342=DIRECTION('',(0.175039677842986,0.984561380098074,2.35696124453371E-17));
#343=DIRECTION('',(-3.08148791101958E-33,2.77555756156289E-17,-1.));
#344=DIRECTION('',(-0.175039677842986,-0.984561380098074,0.));
#345=DIRECTION('',(-3.08148791101958E-33,2.77555756156289E-17,-1.));
#346=DIRECTION('',(-0.175039677842986,-0.984561380098074,0.));
#347=DIRECTION('',(3.08148791101958E-33,-2.77555756156289E-17,1.));
#348=DIRECTION('',(0.175039677842986,0.984561380098074,-1.38142422932656E-17));
#349=DIRECTION('',(-3.08148791101958E-33,2.77555756156289E-17,-1.));
#350=DIRECTION('',(-0.175039677842986,-0.984561380098074,0.));
#351=DIRECTION('',(-3.08148791101958E-33,2.77555756156289E-17,-1.));
#352=DIRECTION('',(-0.175039677842986,-0.984561380098074,-1.1471331715989E-15));
#353=DIRECTION('',(0.175039677842985,0.984561380098074,0.));
#354=DIRECTION('',(-0.984561380098074,0.175039677842986,0.));
#355=DIRECTION('',(3.08148791101958E-33,-2.77555756156289E-17,1.));
#356=DIRECTION('',(0.175039677842986,0.984561380098074,0.));
#357=DIRECTION('',(3.08148791101958E-33,-2.77555756156289E-17,1.));
#358=DIRECTION('',(0.175039677842986,0.984561380098074,2.77555756156289E-17));
#359=DIRECTION('',(-3.08148791101958E-33,2.77555756156289E-17,-1.));
#360=DIRECTION('',(0.175039677842986,0.984561380098074,0.));
#361=DIRECTION('',(-3.08148791101958E-33,2.77555756156289E-17,-1.));
#362=DIRECTION('',(0.175039677842986,0.984561380098074,2.73270678335385E-17));
#363=DIRECTION('',(3.08148791101958E-33,-2.77555756156289E-17,1.));
#364=DIRECTION('',(0.175039677842986,0.984561380098074,2.73270678335384E-17));
#365=DIRECTION('',(-3.08148791101958E-33,2.77555756156289E-17,-1.));
#366=DIRECTION('',(-0.175039677842986,-0.984561380098074,0.));
#367=DIRECTION('',(3.08148791101958E-33,-2.77555756156289E-17,1.));
#368=DIRECTION('',(0.175039677842986,0.984561380098074,3.09772049281573E-17));
#369=DIRECTION('',(0.,0.,-1.));
#370=DIRECTION('',(-1.,0.,0.));
#371=DIRECTION('',(0.,0.,-1.));
#372=DIRECTION('',(-1.,0.,0.));
#373=DIRECTION('',(0.234337884910338,0.168812980926497,-0.957385989643915));
#374=DIRECTION('',(0.,0.,-1.));
#375=DIRECTION('',(0.,0.,-1.));
#376=DIRECTION('',(-1.,0.,0.));
#377=DIRECTION('',(0.,0.,-1.));
#378=DIRECTION('',(0.,0.,-1.));
#379=DIRECTION('',(-1.,0.,0.));
#380=DIRECTION('',(-0.044536478639154,-0.173475876784471,0.983830586150016));
#381=DIRECTION('',(0.,0.,-1.));
#382=DIRECTION('',(0.,0.,-1.));
#383=DIRECTION('',(-1.,0.,0.));
#384=DIRECTION('',(-0.793911838882129,-0.10558380284755,0.598795501535412));
#385=DIRECTION('',(0.,0.,-1.));
#386=DIRECTION('',(0.,0.,-1.));
#387=DIRECTION('',(-1.,0.,0.));
#388=DIRECTION('',(-0.976494283726803,-0.0374287011219943,0.212268712205069));
#389=DIRECTION('',(0.,0.,-1.));
#390=DIRECTION('',(0.,0.,-1.));
#391=DIRECTION('',(-1.,0.,0.));
#392=DIRECTION('',(-5.55111512312578E-17,-0.984807753012208,-0.17364817766693));
#393=DIRECTION('',(0.993675355705853,0.0194991420406311,-0.110585129753175));
#394=DIRECTION('',(0.,0.,-1.));
#395=DIRECTION('',(-0.112291083630213,0.17254991471086,-0.978579194276287));
#396=DIRECTION('',(0.,0.,-1.));
#397=CARTESIAN_POINT('',(0.,0.,0.));
#398=CARTESIAN_POINT('',(-3.11708124589583E-15,-1.65679644482941E-14,-27.8191998323519));
#399=CARTESIAN_POINT('',(-0.679907965100389,-3.82433933099093,-27.8191998323519));
#400=CARTESIAN_POINT('',(-3.11708124589583E-15,-1.65747407118721E-14,-27.7186288529306));
#401=CARTESIAN_POINT('',(-0.649417095384573,-3.65283460053363,-27.7186288529306));
#402=CARTESIAN_POINT('',(-3.11708124589583E-15,-1.65747407118721E-14,-27.7186288529306));
#403=CARTESIAN_POINT('',(-3.11708124589583E-15,-1.65950695026063E-14,-26.9531744285674));
#404=CARTESIAN_POINT('',(-0.767427804021882,-4.31662002103997,-26.9531744285674));
#405=CARTESIAN_POINT('',(-6.7762635780344E-16,-1.70829604802247E-14,-24.9992434780036));
#406=CARTESIAN_POINT('',(-3.11708124589583E-15,-1.65950695026063E-14,-26.8526034491462));
#407=CARTESIAN_POINT('',(-0.736936934306067,-4.14511529058267,-26.8526034491462));
#408=CARTESIAN_POINT('',(-3.11708124589583E-15,-1.65950695026063E-14,-26.8526034491462));
#409=CARTESIAN_POINT('',(-3.11708124589583E-15,-1.65273068668259E-14,-29.3992434780036));
#410=CARTESIAN_POINT('',(-0.234840371049952,-1.3209277043522,-29.3992434780036));
#411=CARTESIAN_POINT('',(-1.32092770435219,0.234840371049932,-29.3992434780036));
#412=CARTESIAN_POINT('',(-2.22261445359528E-15,-1.68119099371034E-14,-24.9992434780036));
#413=CARTESIAN_POINT('',(-3.11708124589583E-15,-1.67644760920571E-14,-20.8221074419826));
#414=CARTESIAN_POINT('',(-0.805182518077737,-4.52898234845116,-20.8221074419826));
#415=CARTESIAN_POINT('',(2.65629532258949E-15,1.77402580472941E-14,-0.894427191000146));
#416=CARTESIAN_POINT('',(0.805182518077734,4.52898234845114,-0.894427191000146));
#417=CARTESIAN_POINT('',(-3.11708124589583E-15,-1.70626316894906E-14,-10.0000000000002));
#418=CARTESIAN_POINT('',(-3.11708124589583E-15,-1.67576998284791E-14,-21.0992434780036));
#419=CARTESIAN_POINT('',(-0.756672715613938,-4.25612491035141,-21.0992434780036));
#420=CARTESIAN_POINT('',(-3.11708124589583E-15,-1.67644760920571E-14,-20.8221074419826));
#421=CARTESIAN_POINT('',(-3.11708124589583E-15,-1.66560558748086E-14,-24.6583444231048));
#422=CARTESIAN_POINT('',(-0.802968415191892,-4.51652848530521,-24.6583444231048));
#423=CARTESIAN_POINT('',(-3.11708124589583E-15,-1.67576998284791E-14,-21.0992434780036));
#424=CARTESIAN_POINT('',(-2.22261445359528E-15,-1.68119099371034E-14,-24.9992434780036));
#425=CARTESIAN_POINT('',(-1.0842021724855E-16,2.03287907341032E-17,99.9999999999998));
#426=CARTESIAN_POINT('',(0.700158711371942,3.9382455203923,99.9999999999998));
#427=CARTESIAN_POINT('',(-1.0842021724855E-16,2.03287907341032E-17,99.9999999999998));
#428=CARTESIAN_POINT('',(-1.0842021724855E-16,4.74338450462408E-17,98.9999999999998));
#429=CARTESIAN_POINT('',(0.875198389214928,4.92280690049037,98.9999999999998));
#430=CARTESIAN_POINT('',(2.65629532258949E-15,1.771992925656E-14,-2.28983498828939E-13));
#431=CARTESIAN_POINT('',(0.875198389214928,4.92280690049037,-2.28846863489771E-13));
#432=CARTESIAN_POINT('',(-1.0842021724855E-16,2.79182059415017E-15,-2.28983498828939E-13));
#433=CARTESIAN_POINT('',(-1.0842021724855E-16,2.03287907341032E-17,99.9999999999998));
#434=CARTESIAN_POINT('',(2.65629532258949E-15,1.77402580472941E-14,-0.894427191000146));
#435=CARTESIAN_POINT('',(0.,0.,-29.9995205262819));
#436=CARTESIAN_POINT('',(-0.049997039186556,0.,-29.9995205262819));
#437=CARTESIAN_POINT('',(0.,0.,-29.1698411691408));
#438=CARTESIAN_POINT('',(-0.211712279148407,0.,-29.1698411691408));
#439=CARTESIAN_POINT('',(-0.153082315073914,-0.146246004915772,-29.1698411691408));
#440=CARTESIAN_POINT('',(0.,0.,0.));
#441=CARTESIAN_POINT('',(0.,0.,-24.9594872102907));
#442=CARTESIAN_POINT('',(-4.95937946844968,0.,-24.9594872102907));
#443=CARTESIAN_POINT('',(0.0499970153208526,4.8851085057461E-5,-29.9995205262819));
#444=CARTESIAN_POINT('',(2.99131857259154,-0.00683351062819657,-29.9604887134215));
#445=CARTESIAN_POINT('',(5.01012213412157,-0.378350348770159,-27.8535120235851));
#446=CARTESIAN_POINT('',(4.87911413732525,-0.888645006193734,-24.9594872102907));
#447=CARTESIAN_POINT('',(0.,0.,0.));
#448=CARTESIAN_POINT('',(0.,0.,-20.9569778886443));
#449=CARTESIAN_POINT('',(-4.96111001933974,0.,-20.9569778886443));
#450=CARTESIAN_POINT('',(4.87911413732526,-0.888645006193733,-24.9594872102907));
#451=CARTESIAN_POINT('',(0.,0.,0.));
#452=CARTESIAN_POINT('',(0.,0.,-20.7224762848872));
#453=CARTESIAN_POINT('',(-4.68204497188976,0.,-20.7224762848872));
#454=CARTESIAN_POINT('',(4.6979267729396,-1.59439539013713,-20.9569778886443));
#455=CARTESIAN_POINT('',(0.,0.,0.));
#456=CARTESIAN_POINT('',(0.,0.,-20.6785249365687));
#457=CARTESIAN_POINT('',(-4.49597971125236,0.,-20.6785249365687));
#458=CARTESIAN_POINT('',(4.38701328247043,-1.63574434989891,-20.7224762848872));
#459=CARTESIAN_POINT('',(0.,0.,0.));
#460=CARTESIAN_POINT('',(0.,0.,-24.8552033946341));
#461=CARTESIAN_POINT('',(-0.969373826829948,0.,-24.8552033946341));
#462=CARTESIAN_POINT('',(5.21102773730828,-0.811487260546129,-25.3970705304247));
#463=CARTESIAN_POINT('',(0.,0.,0.));
#464=CARTESIAN_POINT('',(0.3420184943496,-0.907033056545219,-24.8552033946341));
#465=CARTESIAN_POINT('',(0.,0.,0.));
#466=MECHANICAL_DESIGN_GEOMETRIC_PRESENTATION_REPRESENTATION('',(#58,#59),
#467);
#467=(
GEOMETRIC_REPRESENTATION_CONTEXT(3)
GLOBAL_UNCERTAINTY_ASSIGNED_CONTEXT((#468))
GLOBAL_UNIT_ASSIGNED_CONTEXT((#474,#470,#469))
REPRESENTATION_CONTEXT('10L2R030A10-SZP10_115008932ndi000_00-SIM',
'TOP_LEVEL_ASSEMBLY_PART')
);
#468=UNCERTAINTY_MEASURE_WITH_UNIT(LENGTH_MEASURE(2.E-5),#474,
'DISTANCE_ACCURACY_VALUE','Maximum Tolerance applied to model');
#469=(
NAMED_UNIT(*)
SI_UNIT($,.STERADIAN.)
SOLID_ANGLE_UNIT()
);
#470=(
CONVERSION_BASED_UNIT('DEGREE',#472)
NAMED_UNIT(#471)
PLANE_ANGLE_UNIT()
);
#471=DIMENSIONAL_EXPONENTS(0.,0.,0.,0.,0.,0.,0.);
#472=PLANE_ANGLE_MEASURE_WITH_UNIT(PLANE_ANGLE_MEASURE(0.0174532925),#473);
#473=(
NAMED_UNIT(*)
PLANE_ANGLE_UNIT()
SI_UNIT($,.RADIAN.)
);
#474=(
LENGTH_UNIT()
NAMED_UNIT(*)
SI_UNIT(.MILLI.,.METRE.)
);
ENDSEC;
END-ISO-10303-21;
