  0
SECTION
  2
HEADER
  9
$ACADVER
  1
AC1015
  9
$ACADMAINTVER
 70
    20
  9
$DWGCODEPAGE
  3
ANSI_1250
  9
$INSBASE
 10
0.0
 20
0.0
 30
0.0
  9
$EXTMIN
 10
162.7959811000234
 20
117.872275
 30
0.0
  9
$EXTMAX
 10
277.14995
 20
208.1698448999766
 30
0.0
  9
$LIMMIN
 10
-0.5
 20
-0.5
  9
$LIMMAX
 10
5.0
 20
5.0
  9
$ORTHOMODE
 70
     0
  9
$REGENMODE
 70
     1
  9
$FILLMODE
 70
     1
  9
$QTEXTMODE
 70
     0
  9
$MIRRTEXT
 70
     1
  9
$LTSCALE
 40
1.0
  9
$ATTMODE
 70
     1
  9
$TEXTSIZE
 40
0.2
  9
$TRACEWID
 40
0.05
  9
$TEXTSTYLE
  7
Standard
  9
$CLAYER
  8
0
  9
$CELTYPE
  6
BYLAYER
  9
$CECOLOR
 62
   256
  9
$CELTSCALE
 40
1.0
  9
$DISPSILH
 70
     0
  9
$DIMSCALE
 40
1.0
  9
$DIMASZ
 40
0.18
  9
$DIMEXO
 40
0.0625
  9
$DIMDLI
 40
0.38
  9
$DIMRND
 40
0.0
  9
$DIMDLE
 40
0.0
  9
$DIMEXE
 40
0.18
  9
$DIMTP
 40
0.0
  9
$DIMTM
 40
0.0
  9
$DIMTXT
 40
0.18
  9
$DIMCEN
 40
0.09
  9
$DIMTSZ
 40
0.0
  9
$DIMTOL
 70
     0
  9
$DIMLIM
 70
     0
  9
$DIMTIH
 70
     1
  9
$DIMTOH
 70
     1
  9
$DIMSE1
 70
     0
  9
$DIMSE2
 70
     0
  9
$DIMTAD
 70
     0
  9
$DIMZIN
 70
     0
  9
$DIMBLK
  1

  9
$DIMASO
 70
     1
  9
$DIMSHO
 70
     1
  9
$DIMPOST
  1

  9
$DIMAPOST
  1

  9
$DIMALT
 70
     0
  9
$DIMALTD
 70
     2
  9
$DIMALTF
 40
25.4
  9
$DIMLFAC
 40
1.0
  9
$DIMTOFL
 70
     0
  9
$DIMTVP
 40
0.0
  9
$DIMTIX
 70
     0
  9
$DIMSOXD
 70
     0
  9
$DIMSAH
 70
     0
  9
$DIMBLK1
  1

  9
$DIMBLK2
  1

  9
$DIMSTYLE
  2
Standard
  9
$DIMCLRD
 70
     0
  9
$DIMCLRE
 70
     0
  9
$DIMCLRT
 70
     0
  9
$DIMTFAC
 40
1.0
  9
$DIMGAP
 40
0.09
  9
$DIMJUST
 70
     0
  9
$DIMSD1
 70
     0
  9
$DIMSD2
 70
     0
  9
$DIMTOLJ
 70
     1
  9
$DIMTZIN
 70
     0
  9
$DIMALTZ
 70
     0
  9
$DIMALTTZ
 70
     0
  9
$DIMUPT
 70
     0
  9
$DIMDEC
 70
     4
  9
$DIMTDEC
 70
     4
  9
$DIMALTU
 70
     2
  9
$DIMALTTD
 70
     2
  9
$DIMTXSTY
  7
Standard
  9
$DIMAUNIT
 70
     0
  9
$DIMADEC
 70
     0
  9
$DIMALTRND
 40
0.0
  9
$DIMAZIN
 70
     0
  9
$DIMDSEP
 70
    46
  9
$DIMATFIT
 70
     3
  9
$DIMFRAC
 70
     0
  9
$DIMLDRBLK
  1

  9
$DIMLUNIT
 70
     2
  9
$DIMLWD
 70
    -2
  9
$DIMLWE
 70
    -2
  9
$DIMTMOVE
 70
     0
  9
$LUNITS
 70
     2
  9
$LUPREC
 70
     4
  9
$SKETCHINC
 40
0.1
  9
$FILLETRAD
 40
0.5
  9
$AUNITS
 70
     0
  9
$AUPREC
 70
     0
  9
$MENU
  1
.
  9
$ELEVATION
 40
0.0
  9
$PELEVATION
 40
0.0
  9
$THICKNESS
 40
0.0
  9
$LIMCHECK
 70
     0
  9
$CHAMFERA
 40
0.0
  9
$CHAMFERB
 40
0.0
  9
$CHAMFERC
 40
0.0
  9
$CHAMFERD
 40
0.0
  9
$SKPOLY
 70
     0
  9
$TDCREATE
 40
2457920.394842569
  9
$TDUCREATE
 40
2457920.311509236
  9
$TDUPDATE
 40
2457920.414887142
  9
$TDUUPDATE
 40
2457920.331553808
  9
$TDINDWG
 40
0.0199170370
  9
$TDUSRTIMER
 40
0.0199170370
  9
$USRTIMER
 70
     1
  9
$ANGBASE
 50
0.0
  9
$ANGDIR
 70
     0
  9
$PDMODE
 70
     0
  9
$PDSIZE
 40
0.0
  9
$PLINEWID
 40
0.0
  9
$SPLFRAME
 70
     0
  9
$SPLINETYPE
 70
     6
  9
$SPLINESEGS
 70
     8
  9
$HANDSEED
  5
3F9
  9
$SURFTAB1
 70
     6
  9
$SURFTAB2
 70
     6
  9
$SURFTYPE
 70
     6
  9
$SURFU
 70
     6
  9
$SURFV
 70
     6
  9
$UCSBASE
  2

  9
$UCSNAME
  2

  9
$UCSORG
 10
0.0
 20
0.0
 30
0.0
  9
$UCSXDIR
 10
1.0
 20
0.0
 30
0.0
  9
$UCSYDIR
 10
0.0
 20
1.0
 30
0.0
  9
$UCSORTHOREF
  2

  9
$UCSORTHOVIEW
 70
     0
  9
$UCSORGTOP
 10
0.0
 20
0.0
 30
0.0
  9
$UCSORGBOTTOM
 10
0.0
 20
0.0
 30
0.0
  9
$UCSORGLEFT
 10
0.0
 20
0.0
 30
0.0
  9
$UCSORGRIGHT
 10
0.0
 20
0.0
 30
0.0
  9
$UCSORGFRONT
 10
0.0
 20
0.0
 30
0.0
  9
$UCSORGBACK
 10
0.0
 20
0.0
 30
0.0
  9
$PUCSBASE
  2

  9
$PUCSNAME
  2

  9
$PUCSORG
 10
0.0
 20
0.0
 30
0.0
  9
$PUCSXDIR
 10
1.0
 20
0.0
 30
0.0
  9
$PUCSYDIR
 10
0.0
 20
1.0
 30
0.0
  9
$PUCSORTHOREF
  2

  9
$PUCSORTHOVIEW
 70
     0
  9
$PUCSORGTOP
 10
0.0
 20
0.0
 30
0.0
  9
$PUCSORGBOTTOM
 10
0.0
 20
0.0
 30
0.0
  9
$PUCSORGLEFT
 10
0.0
 20
0.0
 30
0.0
  9
$PUCSORGRIGHT
 10
0.0
 20
0.0
 30
0.0
  9
$PUCSORGFRONT
 10
0.0
 20
0.0
 30
0.0
  9
$PUCSORGBACK
 10
0.0
 20
0.0
 30
0.0
  9
$USERI1
 70
     0
  9
$USERI2
 70
     0
  9
$USERI3
 70
     0
  9
$USERI4
 70
     0
  9
$USERI5
 70
     0
  9
$USERR1
 40
0.0
  9
$USERR2
 40
0.0
  9
$USERR3
 40
0.0
  9
$USERR4
 40
0.0
  9
$USERR5
 40
0.0
  9
$WORLDVIEW
 70
     1
  9
$SHADEDGE
 70
     3
  9
$SHADEDIF
 70
    70
  9
$TILEMODE
 70
     1
  9
$MAXACTVP
 70
    64
  9
$PINSBASE
 10
0.0
 20
0.0
 30
0.0
  9
$PLIMCHECK
 70
     0
  9
$PEXTMIN
 10
-0.5
 20
-0.5
 30
-0.5
  9
$PEXTMAX
 10
5.0
 20
5.0
 30
5.0
  9
$PLIMMIN
 10
-0.5
 20
-0.5
  9
$PLIMMAX
 10
5.0
 20
5.0
  9
$UNITMODE
 70
     0
  9
$VISRETAIN
 70
     1
  9
$PLINEGEN
 70
     0
  9
$PSLTSCALE
 70
     1
  9
$TREEDEPTH
 70
  3020
  9
$CMLSTYLE
  2
Standard
  9
$CMLJUST
 70
     0
  9
$CMLSCALE
 40
1.0
  9
$PROXYGRAPHICS
 70
     1
  9
$MEASUREMENT
 70
     1
  9
$CELWEIGHT
370
    13
  9
$ENDCAPS
280
     0
  9
$JOINSTYLE
280
     0
  9
$LWDISPLAY
290
     1
  9
$INSUNITS
 70
     4
  9
$HYPERLINKBASE
  1

  9
$STYLESHEET
  1

  9
$XEDIT
290
     1
  9
$CEPSNTYPE
380
     0
  9
$PSTYLEMODE
290
     1
  9
$FINGERPRINTGUID
  2
{99F42962-77A6-4652-8CE9-D146F0699CAB}
  9
$VERSIONGUID
  2
{B11762D5-5CC2-4A4E-B997-2AF81DD0ED06}
  9
$EXTNAMES
290
     1
  9
$PSVPSCALE
 40
0.0
  9
$OLESTARTUP
290
     0
  0
ENDSEC
  0
SECTION
  2
CLASSES
  0
CLASS
  1
ACDBDICTIONARYWDFLT
  2
AcDbDictionaryWithDefault
  3
ObjectDBX Classes
 90
        0
280
     0
281
     0
  0
CLASS
  1
VISUALSTYLE
  2
AcDbVisualStyle
  3
ObjectDBX Classes
 90
     4095
280
     0
281
     0
  0
CLASS
  1
MATERIAL
  2
AcDbMaterial
  3
ObjectDBX Classes
 90
     1153
280
     0
281
     0
  0
CLASS
  1
SCALE
  2
AcDbScale
  3
ObjectDBX Classes
 90
     1153
280
     0
281
     0
  0
CLASS
  1
SUN
  2
AcDbSun
  3
SCENEOE
 90
    33921
280
     0
281
     0
  0
CLASS
  1
DICTIONARYVAR
  2
AcDbDictionaryVar
  3
ObjectDBX Classes
 90
        0
280
     0
281
     0
  0
CLASS
  1
ACDBPLACEHOLDER
  2
AcDbPlaceHolder
  3
ObjectDBX Classes
 90
        0
280
     0
281
     0
  0
CLASS
  1
LAYOUT
  2
AcDbLayout
  3
ObjectDBX Classes
 90
        0
280
     0
281
     0
  0
CLASS
  1
TABLESTYLE
  2
AcDbTableStyle
  3
ObjectDBX Classes
 90
     4095
280
     0
281
     0
  0
CLASS
  1
MLEADERSTYLE
  2
AcDbMLeaderStyle
  3
ACDB_MLEADERSTYLE_CLASS
 90
     4095
280
     0
281
     0
  0
CLASS
  1
ACDBSECTIONVIEWSTYLE
  2
AcDbSectionViewStyle
  3
ObjectDBX Classes
 90
     1025
280
     0
281
     0
  0
CLASS
  1
ACDBDETAILVIEWSTYLE
  2
AcDbDetailViewStyle
  3
ObjectDBX Classes
 90
     1025
280
     0
281
     0
  0
CLASS
  1
SORTENTSTABLE
  2
AcDbSortentsTable
  3
ObjectDBX Classes
 90
        0
280
     0
281
     0
  0
CLASS
  1
CELLSTYLEMAP
  2
AcDbCellStyleMap
  3
ObjectDBX Classes
 90
     1152
280
     0
281
     0
  0
ENDSEC
  0
SECTION
  2
TABLES
  0
TABLE
  2
VPORT
  5
8
330
0
100
AcDbSymbolTable
 70
    17
  0
VPORT
  5
29
330
8
100
AcDbSymbolTableRecord
100
AcDbViewportTableRecord
  2
DUMMY
 70
     0
 10
0.0
 20
0.0
 11
1.0
 21
1.0
 12
10.429907
 22
4.5
 13
0.0
 23
0.0
 14
0.5
 24
0.5
 15
0.5
 25
0.5
 16
0.0
 26
0.0
 36
1.0
 17
0.0
 27
0.0
 37
0.0
 40
9.0
 41
1.972972999999999
 42
50.0
 43
0.0
 44
0.0
 50
0.0
 51
0.0
 71
     0
 72
   100
 73
     1
 74
     3
 75
     0
 76
     0
 77
     0
 78
     0
281
     0
 65
     1
110
0.0
120
0.0
130
0.0
111
1.0
121
0.0
131
0.0
112
0.0
122
1.0
132
0.0
 79
     0
146
0.0
  0
VPORT
  5
234
330
8
100
AcDbSymbolTableRecord
100
AcDbViewportTableRecord
  2
*ACTIVE
 70
     0
 10
0.0
 20
0.0
 11
1.0
 21
1.0
 12
182.1767590284744
 22
165.6252223863671
 13
0.0
 23
0.0
 14
0.5
 24
0.5
 15
0.5
 25
0.5
 16
0.0
 26
0.0
 36
1.0
 17
0.0
 27
0.0
 37
0.0
 40
101.875859228101
 41
2.037154989384288
 42
50.0
 43
214.753557
 44
-214.753557
 50
0.0
 51
0.0
 71
     0
 72
   100
 73
     1
 74
     3
 75
     0
 76
     0
 77
     0
 78
     0
281
     0
 65
     1
110
0.0
120
0.0
130
0.0
111
1.0
121
0.0
131
0.0
112
0.0
122
1.0
132
0.0
 79
     0
146
0.0
1001
ACAD_NAV_VCDISPLAY
1070
     3
  0
VPORT
  5
236
330
8
100
AcDbSymbolTableRecord
100
AcDbViewportTableRecord
  2
L1
 70
     0
 10
0.0
 20
0.0
 11
1.0
 21
1.0
 12
220.12729
 22
162.429233
 13
0.0
 23
0.0
 14
0.5
 24
0.5
 15
0.5
 25
0.5
 16
0.0
 26
0.0
 36
1.0
 17
0.0
 27
0.0
 37
0.0
 40
264.583333
 41
0.067112
 42
50.0
 43
214.753557
 44
-214.753557
 50
0.0
 51
0.0
 71
     0
 72
   100
 73
     1
 74
     3
 75
     0
 76
     0
 77
     0
 78
     0
281
     0
 65
     1
110
0.0
120
0.0
130
0.0
111
1.0
121
0.0
131
0.0
112
0.0
122
1.0
132
0.0
 79
     0
146
0.0
  0
VPORT
  5
237
330
8
100
AcDbSymbolTableRecord
100
AcDbViewportTableRecord
  2
L2
 70
     0
 10
0.0
 20
0.0
 11
0.5
 21
1.0
 12
0.0
 22
0.0
 13
0.0
 23
0.0
 14
0.5
 24
0.5
 15
0.5
 25
0.5
 16
0.0
 26
-1.0
 36
0.0
 17
0.0
 27
0.0
 37
0.0
 40
1602.038428
 41
0.011084
 42
50.0
 43
823.3602069999999
 44
-823.3602069999999
 50
0.0
 51
0.0
 71
     0
 72
   100
 73
     1
 74
     3
 75
     0
 76
     0
 77
     0
 78
     0
281
     0
 65
     1
110
0.0
120
0.0
130
0.0
111
1.0
121
0.0
131
0.0
112
0.0
122
1.0
132
0.0
 79
     0
146
0.0
  0
VPORT
  5
238
330
8
100
AcDbSymbolTableRecord
100
AcDbViewportTableRecord
  2
L2
 70
     0
 10
0.5
 20
0.0
 11
1.0
 21
1.0
 12
0.0
 22
0.0
 13
0.0
 23
0.0
 14
0.5
 24
0.5
 15
0.5
 25
0.5
 16
1.0
 26
0.0
 36
0.0
 17
0.0
 27
0.0
 37
0.0
 40
1602.038428
 41
0.011084
 42
50.0
 43
811.8699809999998
 44
-811.8699809999998
 50
0.0
 51
0.0
 71
     0
 72
   100
 73
     1
 74
     3
 75
     0
 76
     0
 77
     0
 78
     0
281
     0
 65
     1
110
0.0
120
0.0
130
0.0
111
1.0
121
0.0
131
0.0
112
0.0
122
1.0
132
0.0
 79
     0
146
0.0
  0
VPORT
  5
239
330
8
100
AcDbSymbolTableRecord
100
AcDbViewportTableRecord
  2
L3
 70
     0
 10
0.0
 20
0.5
 11
1.0
 21
1.0
 12
220.12729
 22
162.429233
 13
0.0
 23
0.0
 14
0.5
 24
0.5
 15
0.5
 25
0.5
 16
0.0
 26
0.0
 36
1.0
 17
0.0
 27
0.0
 37
0.0
 40
264.583333
 41
0.067112
 42
50.0
 43
214.753557
 44
-214.753557
 50
0.0
 51
0.0
 71
     0
 72
   100
 73
     1
 74
     3
 75
     0
 76
     0
 77
     0
 78
     0
281
     0
 65
     1
110
0.0
120
0.0
130
0.0
111
1.0
121
0.0
131
0.0
112
0.0
122
1.0
132
0.0
 79
     0
146
0.0
  0
VPORT
  5
23A
330
8
100
AcDbSymbolTableRecord
100
AcDbViewportTableRecord
  2
L3
 70
     0
 10
0.0
 20
0.0
 11
1.0
 21
0.5
 12
0.0
 22
0.0
 13
0.0
 23
0.0
 14
0.5
 24
0.5
 15
0.5
 25
0.5
 16
0.0
 26
-1.0
 36
0.0
 17
0.0
 27
0.0
 37
0.0
 40
1602.038428
 41
0.011084
 42
50.0
 43
823.3602069999999
 44
-823.3602069999999
 50
0.0
 51
0.0
 71
     0
 72
   100
 73
     1
 74
     3
 75
     0
 76
     0
 77
     0
 78
     0
281
     0
 65
     1
110
0.0
120
0.0
130
0.0
111
1.0
121
0.0
131
0.0
112
0.0
122
1.0
132
0.0
 79
     0
146
0.0
  0
VPORT
  5
23B
330
8
100
AcDbSymbolTableRecord
100
AcDbViewportTableRecord
  2
L4
 70
     0
 10
0.0
 20
0.5
 11
0.5
 21
1.0
 12
220.12729
 22
162.429233
 13
0.0
 23
0.0
 14
0.5
 24
0.5
 15
0.5
 25
0.5
 16
0.0
 26
0.0
 36
1.0
 17
0.0
 27
0.0
 37
0.0
 40
264.583333
 41
0.067112
 42
50.0
 43
214.753557
 44
-214.753557
 50
0.0
 51
0.0
 71
     0
 72
   100
 73
     1
 74
     3
 75
     0
 76
     0
 77
     0
 78
     0
281
     0
 65
     1
110
0.0
120
0.0
130
0.0
111
1.0
121
0.0
131
0.0
112
0.0
122
1.0
132
0.0
 79
     0
146
0.0
  0
VPORT
  5
23C
330
8
100
AcDbSymbolTableRecord
100
AcDbViewportTableRecord
  2
L4
 70
     0
 10
0.0
 20
0.0
 11
0.5
 21
0.5
 12
0.0
 22
0.0
 13
0.0
 23
0.0
 14
0.5
 24
0.5
 15
0.5
 25
0.5
 16
0.0
 26
-1.0
 36
0.0
 17
0.0
 27
0.0
 37
0.0
 40
1602.038428
 41
0.011084
 42
50.0
 43
823.3602069999999
 44
-823.3602069999999
 50
0.0
 51
0.0
 71
     0
 72
   100
 73
     1
 74
     3
 75
     0
 76
     0
 77
     0
 78
     0
281
     0
 65
     1
110
0.0
120
0.0
130
0.0
111
1.0
121
0.0
131
0.0
112
0.0
122
1.0
132
0.0
 79
     0
146
0.0
  0
VPORT
  5
23D
330
8
100
AcDbSymbolTableRecord
100
AcDbViewportTableRecord
  2
L4
 70
     0
 10
0.5
 20
0.0
 11
1.0
 21
0.5
 12
0.0
 22
0.0
 13
0.0
 23
0.0
 14
0.5
 24
0.5
 15
0.5
 25
0.5
 16
1.0
 26
0.0
 36
0.0
 17
0.0
 27
0.0
 37
0.0
 40
1602.038428
 41
0.011084
 42
50.0
 43
811.8699809999998
 44
-811.8699809999998
 50
0.0
 51
0.0
 71
     0
 72
   100
 73
     1
 74
     3
 75
     0
 76
     0
 77
     0
 78
     0
281
     0
 65
     1
110
0.0
120
0.0
130
0.0
111
1.0
121
0.0
131
0.0
112
0.0
122
1.0
132
0.0
 79
     0
146
0.0
  0
VPORT
  5
23E
330
8
100
AcDbSymbolTableRecord
100
AcDbViewportTableRecord
  2
L4
 70
     0
 10
0.5
 20
0.5
 11
1.0
 21
1.0
 12
0.0
 22
0.0
 13
0.0
 23
0.0
 14
0.5
 24
0.5
 15
0.5
 25
0.5
 16
0.5773502691896259
 26
-0.5773502691896259
 36
0.5773502691896259
 17
0.0
 27
0.0
 37
0.0
 40
1571.617191
 41
0.011298
 42
50.0
 43
818.286245
 44
-818.286245
 50
0.0
 51
0.0
 71
     0
 72
   100
 73
     1
 74
     3
 75
     0
 76
     0
 77
     0
 78
     0
281
     0
 65
     1
110
0.0
120
0.0
130
0.0
111
1.0
121
0.0
131
0.0
112
0.0
122
1.0
132
0.0
 79
     0
146
0.0
  0
VPORT
  5
23F
330
8
100
AcDbSymbolTableRecord
100
AcDbViewportTableRecord
  2
L6
 70
     0
 10
0.0
 20
0.5
 11
0.333333
 21
1.0
 12
0.0
 22
0.0
 13
0.0
 23
0.0
 14
0.5
 24
0.5
 15
0.5
 25
0.5
 16
0.7188730927569434
 26
-0.5850486126764433
 36
0.3754192287502549
 17
0.0
 27
0.0
 37
0.0
 40
1658.494684
 41
0.010707
 42
50.0
 43
858.6703250000001
 44
-858.6703250000001
 50
0.0
 51
0.0
 71
     0
 72
   100
 73
     1
 74
     3
 75
     0
 76
     0
 77
     0
 78
     0
281
     0
 65
     1
110
0.0
120
0.0
130
0.0
111
1.0
121
0.0
131
0.0
112
0.0
122
1.0
132
0.0
 79
     0
146
0.0
  0
VPORT
  5
240
330
8
100
AcDbSymbolTableRecord
100
AcDbViewportTableRecord
  2
L6
 70
     0
 10
0.0
 20
0.0
 11
0.333333
 21
0.5
 12
0.0
 22
0.0
 13
0.0
 23
0.0
 14
0.5
 24
0.5
 15
0.5
 25
0.5
 16
-1.0
 26
0.0
 36
0.0
 17
0.0
 27
0.0
 37
0.0
 40
1602.038428
 41
0.011084
 42
50.0
 43
811.8699809999998
 44
-811.8699809999998
 50
0.0
 51
0.0
 71
     0
 72
   100
 73
     1
 74
     3
 75
     0
 76
     0
 77
     0
 78
     0
281
     0
 65
     1
110
0.0
120
0.0
130
0.0
111
1.0
121
0.0
131
0.0
112
0.0
122
1.0
132
0.0
 79
     0
146
0.0
  0
VPORT
  5
241
330
8
100
AcDbSymbolTableRecord
100
AcDbViewportTableRecord
  2
L6
 70
     0
 10
0.333333
 20
0.5
 11
0.666667
 21
1.0
 12
220.12729
 22
162.429233
 13
0.0
 23
0.0
 14
0.5
 24
0.5
 15
0.5
 25
0.5
 16
0.0
 26
0.0
 36
1.0
 17
0.0
 27
0.0
 37
0.0
 40
264.583333
 41
0.067112
 42
50.0
 43
214.753557
 44
-214.753557
 50
0.0
 51
0.0
 71
     0
 72
   100
 73
     1
 74
     3
 75
     0
 76
     0
 77
     0
 78
     0
281
     0
 65
     1
110
0.0
120
0.0
130
0.0
111
1.0
121
0.0
131
0.0
112
0.0
122
1.0
132
0.0
 79
     0
146
0.0
  0
VPORT
  5
242
330
8
100
AcDbSymbolTableRecord
100
AcDbViewportTableRecord
  2
L6
 70
     0
 10
0.333333
 20
0.0
 11
0.666667
 21
0.5
 12
0.0
 22
0.0
 13
0.0
 23
0.0
 14
0.5
 24
0.5
 15
0.5
 25
0.5
 16
0.0
 26
-1.0
 36
0.0
 17
0.0
 27
0.0
 37
0.0
 40
1602.038428
 41
0.011084
 42
50.0
 43
823.3602069999999
 44
-823.3602069999999
 50
0.0
 51
0.0
 71
     0
 72
   100
 73
     1
 74
     3
 75
     0
 76
     0
 77
     0
 78
     0
281
     0
 65
     1
110
0.0
120
0.0
130
0.0
111
1.0
121
0.0
131
0.0
112
0.0
122
1.0
132
0.0
 79
     0
146
0.0
  0
VPORT
  5
243
330
8
100
AcDbSymbolTableRecord
100
AcDbViewportTableRecord
  2
L6
 70
     0
 10
0.666667
 20
0.5
 11
1.0
 21
1.0
 12
0.0
 22
0.0
 13
0.0
 23
0.0
 14
0.5
 24
0.5
 15
0.5
 25
0.5
 16
0.5773502691896259
 26
-0.5773502691896259
 36
0.5773502691896259
 17
0.0
 27
0.0
 37
0.0
 40
1571.617191
 41
0.011298
 42
50.0
 43
818.286245
 44
-818.286245
 50
0.0
 51
0.0
 71
     0
 72
   100
 73
     1
 74
     3
 75
     0
 76
     0
 77
     0
 78
     0
281
     0
 65
     1
110
0.0
120
0.0
130
0.0
111
1.0
121
0.0
131
0.0
112
0.0
122
1.0
132
0.0
 79
     0
146
0.0
  0
VPORT
  5
244
330
8
100
AcDbSymbolTableRecord
100
AcDbViewportTableRecord
  2
L6
 70
     0
 10
0.666667
 20
0.0
 11
1.0
 21
0.5
 12
0.0
 22
0.0
 13
0.0
 23
0.0
 14
0.5
 24
0.5
 15
0.5
 25
0.5
 16
1.0
 26
0.0
 36
0.0
 17
0.0
 27
0.0
 37
0.0
 40
1602.038428
 41
0.011084
 42
50.0
 43
811.8699809999998
 44
-811.8699809999998
 50
0.0
 51
0.0
 71
     0
 72
   100
 73
     1
 74
     3
 75
     0
 76
     0
 77
     0
 78
     0
281
     0
 65
     1
110
0.0
120
0.0
130
0.0
111
1.0
121
0.0
131
0.0
112
0.0
122
1.0
132
0.0
 79
     0
146
0.0
  0
ENDTAB
  0
TABLE
  2
LTYPE
  5
5
330
0
100
AcDbSymbolTable
 70
     7
  0
LTYPE
  5
14
330
5
100
AcDbSymbolTableRecord
100
AcDbLinetypeTableRecord
  2
BYBLOCK
 70
     0
  3

 72
    65
 73
     0
 40
0.0
  0
LTYPE
  5
15
330
5
100
AcDbSymbolTableRecord
100
AcDbLinetypeTableRecord
  2
BYLAYER
 70
     0
  3

 72
    65
 73
     0
 40
0.0
  0
LTYPE
  5
16
330
5
100
AcDbSymbolTableRecord
100
AcDbLinetypeTableRecord
  2
CONTINUOUS
 70
     0
  3
Solid line
 72
    65
 73
     0
 40
0.0
  0
LTYPE
  5
6A
330
5
100
AcDbSymbolTableRecord
100
AcDbLinetypeTableRecord
  2
CENTER2
 70
     0
  3
Center (.5x) ___ _ ___ _ ___ _ ___ _ ___ _ ___
 72
    65
 73
     4
 40
28.575
 49
19.05
 74
     4
 75
     0
340
0
 46
0.0
 50
0.0
 44
0.0
 45
0.0
 49
-3.174999999999999
 74
     4
 75
     0
340
0
 46
0.0
 50
0.0
 44
0.0
 45
0.0
 49
3.174999999999999
 74
     4
 75
     0
340
0
 46
0.0
 50
0.0
 44
0.0
 45
0.0
 49
-3.174999999999999
 74
     4
 75
     0
340
0
 46
0.0
 50
0.0
 44
0.0
 45
0.0
  0
LTYPE
  5
6B
330
5
100
AcDbSymbolTableRecord
100
AcDbLinetypeTableRecord
  2
DASHDOT
 70
     0
  3
_._._._._._._._._._._._._._._._.
 72
    65
 73
     4
 40
70.0
 49
31.0
 74
     4
 75
     0
340
0
 46
0.0
 50
0.0
 44
0.0
 45
0.0
 49
-13.0
 74
     4
 75
     0
340
0
 46
0.0
 50
0.0
 44
0.0
 45
0.0
 49
13.0
 74
     4
 75
     0
340
0
 46
0.0
 50
0.0
 44
0.0
 45
0.0
 49
-13.0
 74
     4
 75
     0
340
0
 46
0.0
 50
0.0
 44
0.0
 45
0.0
  0
LTYPE
  5
6C
330
5
100
AcDbSymbolTableRecord
100
AcDbLinetypeTableRecord
  2
DASHED
 70
     0
  3
__ __ __ __ __ __ __ __ __
 72
    65
 73
     2
 40
25.72
 49
12.86
 74
     4
 75
     0
340
0
 46
0.0
 50
0.0
 44
0.0
 45
0.0
 49
-12.86
 74
     4
 75
     0
340
0
 46
0.0
 50
0.0
 44
0.0
 45
0.0
  0
LTYPE
  5
6D
330
5
100
AcDbSymbolTableRecord
100
AcDbLinetypeTableRecord
  2
DOT
 70
     0
  3
.........................
 72
    65
 73
     2
 40
10.0
 49
0.0
 74
     4
 75
     0
340
0
 46
0.0
 50
0.0
 44
0.0
 45
0.0
 49
-10.0
 74
     4
 75
     0
340
0
 46
0.0
 50
0.0
 44
0.0
 45
0.0
  0
LTYPE
  5
6E
330
5
100
AcDbSymbolTableRecord
100
AcDbLinetypeTableRecord
  2
PHANTOM
 70
     0
  3
____ _ _ ____ _ _ _____ _ _ ____
 72
    65
 73
     6
 40
50.5
 49
18.0
 74
     4
 75
     0
340
0
 46
0.0
 50
0.0
 44
0.0
 45
0.0
 49
-6.5
 74
     4
 75
     0
340
0
 46
0.0
 50
0.0
 44
0.0
 45
0.0
 49
6.5
 74
     4
 75
     0
340
0
 46
0.0
 50
0.0
 44
0.0
 45
0.0
 49
-6.5
 74
     4
 75
     0
340
0
 46
0.0
 50
0.0
 44
0.0
 45
0.0
 49
6.5
 74
     4
 75
     0
340
0
 46
0.0
 50
0.0
 44
0.0
 45
0.0
 49
-6.5
 74
     4
 75
     0
340
0
 46
0.0
 50
0.0
 44
0.0
 45
0.0
  0
ENDTAB
  0
TABLE
  2
LAYER
  5
2
330
0
100
AcDbSymbolTable
 70
    19
  0
LAYER
  5
10
102
{ACAD_XDICTIONARY
360
357
102
}
330
2
100
AcDbSymbolTableRecord
100
AcDbLayerTableRecord
  2
0
 70
     0
 62
     7
  6
CONTINUOUS
370
    -3
390
F
  0
LAYER
  5
34B
102
{ACAD_XDICTIONARY
360
359
102
}
330
2
100
AcDbSymbolTableRecord
100
AcDbLayerTableRecord
  2
1
 70
     0
 62
     4
  6
CONTINUOUS
370
    -3
390
F
  0
LAYER
  5
34C
102
{ACAD_XDICTIONARY
360
35B
102
}
330
2
100
AcDbSymbolTableRecord
100
AcDbLayerTableRecord
  2
2
 70
     0
 62
     7
  6
CONTINUOUS
370
    -3
390
F
  0
LAYER
  5
34D
102
{ACAD_XDICTIONARY
360
35D
102
}
330
2
100
AcDbSymbolTableRecord
100
AcDbLayerTableRecord
  2
4
 70
     0
 62
     2
  6
CENTER2
370
    -3
390
F
  0
LAYER
  5
34E
102
{ACAD_XDICTIONARY
360
35F
102
}
330
2
100
AcDbSymbolTableRecord
100
AcDbLayerTableRecord
  2
SK1
 70
     0
 62
     4
  6
CONTINUOUS
370
    -3
390
F
  0
LAYER
  5
34F
102
{ACAD_XDICTIONARY
360
361
102
}
330
2
100
AcDbSymbolTableRecord
100
AcDbLayerTableRecord
  2
SK2
 70
     0
 62
     7
  6
CONTINUOUS
370
    -3
390
F
  0
LAYER
  5
351
102
{ACAD_XDICTIONARY
360
363
102
}
330
2
100
AcDbSymbolTableRecord
100
AcDbLayerTableRecord
  2
SK4
 70
     0
 62
     2
  6
CENTER2
370
    -3
390
F
  0
LAYER
  5
352
102
{ACAD_XDICTIONARY
360
365
102
}
330
2
100
AcDbSymbolTableRecord
100
AcDbLayerTableRecord
  2
SK6
 70
     0
 62
     5
  6
CONTINUOUS
370
    -3
390
F
  0
LAYER
  5
353
102
{ACAD_XDICTIONARY
360
367
102
}
330
2
100
AcDbSymbolTableRecord
100
AcDbLayerTableRecord
  2
CUT
 70
     0
 62
     1
  6
CONTINUOUS
370
    -3
390
F
  0
LAYER
  5
354
102
{ACAD_XDICTIONARY
360
369
102
}
330
2
100
AcDbSymbolTableRecord
100
AcDbLayerTableRecord
  2
NOCUT
 70
     0
 62
     7
  6
CONTINUOUS
370
    -3
390
F
  0
LAYER
  5
355
102
{ACAD_XDICTIONARY
360
36B
102
}
330
2
100
AcDbSymbolTableRecord
100
AcDbLayerTableRecord
  2
80
 70
     0
 62
     6
  6
CONTINUOUS
370
    -3
390
F
  0
LAYER
  5
356
102
{ACAD_XDICTIONARY
360
36D
102
}
330
2
100
AcDbSymbolTableRecord
100
AcDbLayerTableRecord
  2
81
 70
     0
 62
     3
  6
CONTINUOUS
370
    -3
390
F
  0
ENDTAB
  0
TABLE
  2
STYLE
  5
3
330
0
100
AcDbSymbolTable
 70
     2
  0
STYLE
  5
11
330
3
100
AcDbSymbolTableRecord
100
AcDbTextStyleTableRecord
  2
Standard
 70
     0
 40
0.0
 41
1.0
 50
0.0
 71
     0
 42
0.2
  3
txt
  4

  0
STYLE
  5
200
330
3
100
AcDbSymbolTableRecord
100
AcDbTextStyleTableRecord
  2
cesky
 70
     0
 40
0.0
 41
1.0
 50
0.0
 71
     0
 42
0.2
  3
Monospac821 BT
  4

1001
ACAD
1000
Monospac821 BT
1071
        0
  0
ENDTAB
  0
TABLE
  2
VIEW
  5
6
330
0
100
AcDbSymbolTable
 70
     0
  0
ENDTAB
  0
TABLE
  2
UCS
  5
7
330
0
100
AcDbSymbolTable
 70
     0
  0
ENDTAB
  0
TABLE
  2
APPID
  5
9
330
0
100
AcDbSymbolTable
 70
     4
  0
APPID
  5
12
330
9
100
AcDbSymbolTableRecord
100
AcDbRegAppTableRecord
  2
ACAD
 70
     0
  0
APPID
  5
376
330
9
100
AcDbSymbolTableRecord
100
AcDbRegAppTableRecord
  2
ACAD_NAV_VCDISPLAY
 70
     0
  0
APPID
  5
3B7
330
9
100
AcDbSymbolTableRecord
100
AcDbRegAppTableRecord
  2
ACAD_EXEMPT_FROM_CAD_STANDARDS
 70
     0
  0
APPID
  5
3F4
330
9
100
AcDbSymbolTableRecord
100
AcDbRegAppTableRecord
  2
ACAD_MLEADERVER
 70
     0
  0
ENDTAB
  0
TABLE
  2
DIMSTYLE
  5
A
330
0
100
AcDbSymbolTable
 70
     1
100
AcDbDimStyleTable
 71
     0
  0
DIMSTYLE
105
27
330
A
100
AcDbSymbolTableRecord
100
AcDbDimStyleTableRecord
  2
Standard
 70
     0
340
11
  0
ENDTAB
  0
TABLE
  2
BLOCK_RECORD
  5
1
330
0
100
AcDbSymbolTable
 70
     3
  0
BLOCK_RECORD
  5
1F
102
{ACAD_XDICTIONARY
360
2B4
102
}
330
1
100
AcDbSymbolTableRecord
100
AcDbBlockTableRecord
  2
*Model_Space
340
22
  0
BLOCK_RECORD
  5
1B
330
1
100
AcDbSymbolTableRecord
100
AcDbBlockTableRecord
  2
*Paper_Space
340
1E
  0
BLOCK_RECORD
  5
23
330
1
100
AcDbSymbolTableRecord
100
AcDbBlockTableRecord
  2
*Paper_Space0
340
26
  0
BLOCK_RECORD
  5
219
330
1
100
AcDbSymbolTableRecord
100
AcDbBlockTableRecord
  2
DimnDraft3D1
340
0
  0
BLOCK_RECORD
  5
224
330
1
100
AcDbSymbolTableRecord
100
AcDbBlockTableRecord
  2
DimnDraft3D2
340
0
  0
ENDTAB
  0
ENDSEC
  0
SECTION
  2
BLOCKS
  0
BLOCK
  5
20
330
1F
100
AcDbEntity
  8
0
100
AcDbBlockBegin
  2
*Model_Space
 70
     0
 10
0.0
 20
0.0
 30
0.0
  3
*Model_Space
  1
*Model_Space
  0
ENDBLK
  5
21
330
1F
100
AcDbEntity
  8
0
100
AcDbBlockEnd
  0
BLOCK
  5
1C
330
1B
100
AcDbEntity
 67
     1
  8
0
100
AcDbBlockBegin
  2
*Paper_Space
 70
     0
 10
0.0
 20
0.0
 30
0.0
  3
*Paper_Space
  1
*Paper_Space
  0
ENDBLK
  5
1D
330
1B
100
AcDbEntity
 67
     1
  8
0
100
AcDbBlockEnd
  0
BLOCK
  5
24
330
23
100
AcDbEntity
 67
     1
  8
0
100
AcDbBlockBegin
  2
*Paper_Space0
 70
     0
 10
0.0
 20
0.0
 30
0.0
  3
*Paper_Space0
  1
*Paper_Space0
  0
ENDBLK
  5
25
330
23
100
AcDbEntity
 67
     1
  8
0
100
AcDbBlockEnd
  0
BLOCK
  5
221
330
219
100
AcDbEntity
  8
0
100
AcDbBlockBegin
  2
DimnDraft3D1
 70
     0
 10
0.0
 20
0.0
 30
0.0
  3
DimnDraft3D1
  1
DimnDraft3D1
  0
ENDBLK
  5
222
330
219
100
AcDbEntity
  8
0
100
AcDbBlockEnd
  0
BLOCK
  5
22C
330
224
100
AcDbEntity
  8
0
100
AcDbBlockBegin
  2
DimnDraft3D2
 70
     0
 10
0.0
 20
0.0
 30
0.0
  3
DimnDraft3D2
  1
DimnDraft3D2
  0
ENDBLK
  5
22D
330
224
100
AcDbEntity
  8
0
100
AcDbBlockEnd
  0
ENDSEC
  0
SECTION
  2
ENTITIES
  0
POINT
  5
6F
330
1F
100
AcDbEntity
  8
SK4
 60
     1
100
AcDbPoint
 10
188.5057139999999
 20
173.2145379999999
 30
0.0
  0
POINT
  5
71
330
1F
100
AcDbEntity
  8
SK4
 60
     1
100
AcDbPoint
 10
210.505714
 20
173.2145379999999
 30
0.0
  0
POINT
  5
72
330
1F
100
AcDbEntity
  8
4
 60
     1
100
AcDbPoint
 10
210.505714
 20
173.2145379999999
 30
0.0
  0
POINT
  5
73
330
1F
100
AcDbEntity
  8
4
 60
     1
100
AcDbPoint
 10
241.159429
 20
173.2145379999999
 30
0.0
  0
POINT
  5
74
330
1F
100
AcDbEntity
  8
SK6
 60
     1
100
AcDbPoint
 10
242.505716
 20
185.889434
 30
0.0
  0
LINE
  5
85
330
1F
100
AcDbEntity
  8
SK1
100
AcDbLine
 10
188.5057139999999
 20
168.2145379999999
 30
0.0
 11
188.5057139999999
 21
178.214538
 31
0.0
  0
LINE
  5
87
330
1F
100
AcDbEntity
  8
1
100
AcDbLine
 10
232.805914
 20
169.783825
 30
0.0
 11
232.805914
 21
170.303168
 31
0.0
  0
LINE
  5
88
330
1F
100
AcDbEntity
  8
1
100
AcDbLine
 10
234.374371
 20
175.884034
 30
0.0
 11
234.374371
 21
176.258592
 31
0.0
  0
LINE
  5
89
330
1F
100
AcDbEntity
  8
1
100
AcDbLine
 10
238.27977
 20
162.209656
 30
0.0
 11
238.248584
 21
161.617102
 31
0.0
  0
LINE
  5
8A
330
1F
100
AcDbEntity
  8
1
100
AcDbLine
 10
240.634974
 20
166.484789
 30
0.0
 11
236.893148
 21
166.117446
 31
0.0
  0
LINE
  5
8B
330
1F
100
AcDbEntity
  8
1
100
AcDbLine
 10
241.067796
 20
167.203939
 30
0.0
 11
240.702305
 21
167.442076
 31
0.0
  0
LINE
  5
8D
330
1F
100
AcDbEntity
  8
1
100
AcDbLine
 10
241.209429
 20
165.335218
 30
0.0
 11
241.209429
 21
167.00175
 31
0.0
  0
LINE
  5
8E
330
1F
100
AcDbEntity
  8
1
100
AcDbLine
 10
233.303559
 20
177.997181
 30
0.0
 11
233.390443
 21
177.909209
 31
0.0
  0
LINE
  5
8F
330
1F
100
AcDbEntity
  8
1
100
AcDbLine
 10
234.279149
 20
162.410312
 30
0.0
 11
234.276047
 21
162.404773
 31
0.0
  0
LINE
  5
90
330
1F
100
AcDbEntity
  8
1
100
AcDbLine
 10
233.099957
 20
171.052753
 30
0.0
 11
235.199216
 21
170.32192
 31
0.0
  0
LINE
  5
91
330
1F
100
AcDbEntity
  8
1
100
AcDbLine
 10
235.541147
 20
170.294495
 30
0.0
 11
238.578285
 21
170.626308
 31
0.0
  0
LINE
  5
92
330
1F
100
AcDbEntity
  8
1
100
AcDbLine
 10
238.248584
 20
177.074208
 30
0.0
 11
238.27977
 21
177.163712
 31
0.0
  0
LINE
  5
93
330
1F
100
AcDbEntity
  8
1
100
AcDbLine
 10
236.565571
 20
183.088517
 30
0.0
 11
236.503368
 21
183.061967
 31
0.0
  0
LINE
  5
95
330
1F
100
AcDbEntity
  8
1
100
AcDbLine
 10
211.005714
 20
183.7145379999999
 30
0.0
 11
210.505714
 21
183.214538
 31
0.0
  0
LINE
  5
96
330
1F
100
AcDbEntity
  8
SK1
100
AcDbLine
 10
188.5057139999999
 20
168.2145379999999
 30
0.0
 11
189.505714
 21
167.214538
 31
0.0
  0
LINE
  5
97
330
1F
100
AcDbEntity
  8
1
100
AcDbLine
 10
210.505714
 20
163.214538
 30
0.0
 11
211.005714
 21
162.7145379999999
 31
0.0
  0
LINE
  5
98
330
1F
100
AcDbEntity
  8
1
100
AcDbLine
 10
238.387673
 20
178.647287
 30
0.0
 11
238.449876
 21
178.673837
 31
0.0
  0
LINE
  5
99
330
1F
100
AcDbEntity
  8
SK1
100
AcDbLine
 10
209.352125
 20
167.164538
 30
0.0
 11
210.305714
 21
167.164538
 31
0.0
  0
LINE
  5
9A
330
1F
100
AcDbEntity
  8
SK1
100
AcDbLine
 10
210.305714
 20
179.264538
 30
0.0
 11
209.352125
 21
179.264538
 31
0.0
  0
LINE
  5
9B
330
1F
100
AcDbEntity
  8
SK1
100
AcDbLine
 10
205.505714
 20
167.214538
 30
0.0
 11
205.755714
 21
166.9645379999999
 31
0.0
  0
LINE
  5
9C
330
1F
100
AcDbEntity
  8
SK1
100
AcDbLine
 10
205.755714
 20
179.4645379999999
 30
0.0
 11
205.505714
 21
179.214538
 31
0.0
  0
LINE
  5
9D
330
1F
100
AcDbEntity
  8
SK1
100
AcDbLine
 10
209.005714
 20
179.4645379999999
 30
0.0
 11
205.755714
 21
179.4645379999999
 31
0.0
  0
LINE
  5
9E
330
1F
100
AcDbEntity
  8
SK1
100
AcDbLine
 10
205.755714
 20
166.9645379999999
 30
0.0
 11
209.005714
 21
166.9645379999999
 31
0.0
  0
LINE
  5
9F
330
1F
100
AcDbEntity
  8
1
100
AcDbLine
 10
214.005714
 20
166.981762
 30
0.0
 11
223.005714
 21
166.981762
 31
0.0
  0
LINE
  5
A0
330
1F
100
AcDbEntity
  8
1
100
AcDbLine
 10
223.005714
 20
179.447315
 30
0.0
 11
214.005714
 21
179.447315
 31
0.0
  0
LINE
  5
A1
330
1F
100
AcDbEntity
  8
1
100
AcDbLine
 10
223.505714
 20
167.723865
 30
0.0
 11
223.505714
 21
178.705212
 31
0.0
  0
LINE
  5
A2
330
1F
100
AcDbEntity
  8
1
100
AcDbLine
 10
232.61029
 20
183.600858
 30
0.0
 11
232.61029
 21
181.478176
 31
0.0
  0
LINE
  5
A3
330
1F
100
AcDbEntity
  8
1
100
AcDbLine
 10
232.61029
 20
180.337158
 30
0.0
 11
232.61029
 21
179.123807
 31
0.0
  0
LINE
  5
A4
330
1F
100
AcDbEntity
  8
1
100
AcDbLine
 10
232.510492
 20
179.144256
 30
0.0
 11
232.510492
 21
183.6061879999999
 31
0.0
  0
LINE
  5
A5
330
1F
100
AcDbEntity
  8
1
100
AcDbLine
 10
232.580078
 20
180.91206
 30
0.0
 11
232.580225
 21
180.865706
 31
0.0
  0
LINE
  5
A7
330
1F
100
AcDbEntity
  8
1
100
AcDbLine
 10
241.209429
 20
172.117226
 30
0.0
 11
241.209429
 21
173.506384
 31
0.0
  0
LINE
  5
A8
330
1F
100
AcDbEntity
  8
1
100
AcDbLine
 10
238.114669
 20
179.983683
 30
0.0
 11
237.953771
 21
179.915007
 31
0.0
  0
LINE
  5
A9
330
1F
100
AcDbEntity
  8
1
100
AcDbLine
 10
236.78586
 20
181.729621
 30
0.0
 11
236.946758
 21
181.798297
 31
0.0
  0
LINE
  5
AA
330
1F
100
AcDbEntity
  8
1
100
AcDbLine
 10
232.805914
 20
183.41789
 30
0.0
 11
232.805914
 21
182.415728
 31
0.0
  0
LINE
  5
AB
330
1F
100
AcDbEntity
  8
1
100
AcDbLine
 10
232.805914
 20
179.347987
 30
0.0
 11
232.805914
 21
179.202695
 31
0.0
  0
LINE
  5
AC
330
1F
100
AcDbEntity
  8
1
100
AcDbLine
 10
240.634974
 20
177.775055
 30
0.0
 11
236.893148
 21
177.779695
 31
0.0
  0
LINE
  5
AD
330
1F
100
AcDbEntity
  8
1
100
AcDbLine
 10
232.510492
 20
183.6061879999999
 30
0.0
 11
232.610289
 21
183.600858
 31
0.0
  0
LINE
  5
AE
330
1F
100
AcDbEntity
  8
1
100
AcDbLine
 10
238.920216
 20
170.728446
 30
0.0
 11
241.067796
 21
171.945357
 31
0.0
  0
LINE
  5
AF
330
1F
100
AcDbEntity
  8
SK1
100
AcDbLine
 10
205.755714
 20
166.9645379999999
 30
0.0
 11
205.755714
 21
179.4645379999999
 31
0.0
  0
LINE
  5
B0
330
1F
100
AcDbEntity
  8
SK1
100
AcDbLine
 10
205.505714
 20
167.214538
 30
0.0
 11
205.505714
 21
179.214538
 31
0.0
  0
LINE
  5
B1
330
1F
100
AcDbEntity
  8
SK1
100
AcDbLine
 10
189.505714
 20
167.214538
 30
0.0
 11
189.505714
 21
179.214538
 31
0.0
  0
LINE
  5
B2
330
1F
100
AcDbEntity
  8
SK1
100
AcDbLine
 10
209.005714
 20
166.9645379999999
 30
0.0
 11
209.005714
 21
179.4645379999999
 31
0.0
  0
LINE
  5
B3
330
1F
100
AcDbEntity
  8
1
100
AcDbLine
 10
211.005714
 20
183.7145379999999
 30
0.0
 11
211.005714
 21
162.7145379999999
 31
0.0
  0
LINE
  5
B4
330
1F
100
AcDbEntity
  8
1
100
AcDbLine
 10
213.505714
 20
178.705212
 30
0.0
 11
213.505714
 21
167.723865
 31
0.0
  0
LINE
  5
B5
330
1F
100
AcDbEntity
  8
1
100
AcDbLine
 10
210.505714
 20
183.214538
 30
0.0
 11
210.505714
 21
163.214538
 31
0.0
  0
LINE
  5
B6
330
1F
100
AcDbEntity
  8
SK1
100
AcDbLine
 10
189.505714
 20
179.214538
 30
0.0
 11
188.5057139999999
 21
178.214538
 31
0.0
  0
LINE
  5
B7
330
1F
100
AcDbEntity
  8
1
100
AcDbLine
 10
232.61029
 20
168.018665
 30
0.0
 11
232.510492
 21
167.927817
 31
0.0
  0
LINE
  5
B8
330
1F
100
AcDbEntity
  8
1
100
AcDbLine
 10
242.108154
 20
167.844658
 30
0.0
 11
242.444014
 21
168.967904
 31
0.0
  0
LINE
  5
B9
330
1F
100
AcDbEntity
  8
1
100
AcDbLine
 10
242.467641
 20
169.66612
 30
0.0
 11
242.176404
 21
170.703495
 31
0.0
  0
LINE
  5
BA
330
1F
100
AcDbEntity
  8
1
100
AcDbLine
 10
241.266986
 20
173.393233
 30
0.0
 11
241.201099
 21
173.546457
 31
0.0
  0
LINE
  5
BB
330
1F
100
AcDbEntity
  8
1
100
AcDbLine
 10
236.293113
 20
180.559957
 30
0.0
 11
236.331352
 21
180.576278
 31
0.0
  0
LINE
  5
BC
330
1F
100
AcDbEntity
  8
1
100
AcDbLine
 10
241.195765
 20
165.273856
 30
0.0
 11
241.261273
 21
165.415156
 31
0.0
  0
LINE
  5
BD
330
1F
100
AcDbEntity
  8
1
100
AcDbLine
 10
238.236893
 20
181.693659
 30
0.0
 11
238.390814
 21
181.759356
 31
0.0
  0
LINE
  5
BE
330
1F
100
AcDbEntity
  8
1
100
AcDbLine
 10
232.580078
 20
180.91206
 30
0.0
 11
232.580225
 21
180.865706
 31
0.0
  0
LINE
  5
BF
330
1F
100
AcDbEntity
  8
1
100
AcDbLine
 10
238.730076
 20
181.205702
 30
0.0
 11
238.576998
 21
181.140365
 31
0.0
  0
LINE
  5
C0
330
1F
100
AcDbEntity
  8
1
100
AcDbLine
 10
236.670614
 20
180.022624
 30
0.0
 11
236.573281
 21
179.98108
 31
0.0
  0
LINE
  5
C1
330
1F
100
AcDbEntity
  8
1
100
AcDbLine
 10
235.069328
 20
162.250272
 30
0.0
 11
235.344012
 21
162.010446
 31
0.0
  0
LINE
  5
C2
330
1F
100
AcDbEntity
  8
1
100
AcDbLine
 10
237.391048
 20
161.711162
 30
0.0
 11
237.722893
 21
161.862312
 31
0.0
  0
LINE
  5
C3
330
1F
100
AcDbEntity
  8
1
100
AcDbLine
 10
238.215644
 20
162.404632
 30
0.0
 11
238.245033
 21
162.605649
 31
0.0
  0
LINE
  5
C4
330
1F
100
AcDbEntity
  8
1
100
AcDbLine
 10
237.926377
 20
177.14186
 30
0.0
 11
237.548021
 21
177.358405
 31
0.0
  0
LINE
  5
C5
330
1F
100
AcDbEntity
  8
1
100
AcDbLine
 10
235.238995
 20
177.040647
 30
0.0
 11
234.933195
 21
176.729951
 31
0.0
  0
LINE
  5
C6
330
1F
100
AcDbEntity
  8
1
100
AcDbLine
 10
241.159429
 20
172.912795
 30
0.0
 11
241.159429
 21
177.406535
 31
0.0
  0
LINE
  5
C7
330
1F
100
AcDbEntity
  8
1
100
AcDbLine
 10
211.005714
 20
162.7145379999999
 30
0.0
 11
230.130234
 21
162.7145379999999
 31
0.0
  0
LINE
  5
C8
330
1F
100
AcDbEntity
  8
1
100
AcDbLine
 10
232.428857
 20
183.7145379999999
 30
0.0
 11
211.005714
 21
183.7145379999999
 31
0.0
  0
LINE
  5
C9
330
1F
100
AcDbEntity
  8
SK1
100
AcDbLine
 10
205.505714
 20
179.214538
 30
0.0
 11
189.505714
 21
179.214538
 31
0.0
  0
LINE
  5
CA
330
1F
100
AcDbEntity
  8
SK1
100
AcDbLine
 10
189.505714
 20
167.214538
 30
0.0
 11
205.505714
 21
167.214538
 31
0.0
  0
LINE
  5
CB
330
1F
100
AcDbEntity
  8
1
100
AcDbLine
 10
241.159429
 20
164.805736
 30
0.0
 11
241.159429
 21
166.094149
 31
0.0
  0
LINE
  5
CC
330
1F
100
AcDbEntity
  8
SK1
100
AcDbLine
 10
188.951433
 20
178.660038
 30
0.0
 11
205.505714
 21
178.660038
 31
0.0
  0
LINE
  5
CD
330
1F
100
AcDbEntity
  8
SK1
100
AcDbLine
 10
188.951433
 20
167.769038
 30
0.0
 11
205.505714
 21
167.769038
 31
0.0
  0
LINE
  5
CE
330
1F
100
AcDbEntity
  8
NOCUT
100
AcDbLine
 10
240.422862
 20
166.961329
 30
0.0
 11
238.24028
 21
169.782139
 31
0.0
  0
LINE
  5
D0
330
1F
100
AcDbEntity
  8
NOCUT
100
AcDbLine
 10
237.905714
 20
170.761259
 30
0.0
 11
237.905714
 21
175.6678179999999
 31
0.0
  0
LINE
  5
D1
330
1F
100
AcDbEntity
  8
NOCUT
100
AcDbLine
 10
238.24028
 20
176.646938
 30
0.0
 11
240.422862
 21
179.467748
 31
0.0
  0
LINE
  5
D2
330
1F
100
AcDbEntity
  8
NOCUT
100
AcDbLine
 10
237.636932
 20
185.145838
 30
0.0
 11
236.47283
 21
185.145838
 31
0.0
  0
LINE
  5
D3
330
1F
100
AcDbEntity
  8
NOCUT
100
AcDbLine
 10
235.47283
 20
184.877888
 30
0.0
 11
233.921951
 21
183.982488
 31
0.0
  0
LINE
  5
D4
330
1F
100
AcDbEntity
  8
NOCUT
100
AcDbLine
 10
232.921951
 20
183.7145379999999
 30
0.0
 11
211.005714
 21
183.7145379999999
 31
0.0
  0
LINE
  5
D5
330
1F
100
AcDbEntity
  8
NOCUT
100
AcDbLine
 10
211.005714
 20
183.7145379999999
 30
0.0
 11
210.505714
 21
183.214538
 31
0.0
  0
LINE
  5
D6
330
1F
100
AcDbEntity
  8
NOCUT
100
AcDbLine
 10
210.505714
 20
183.214538
 30
0.0
 11
210.505714
 21
180.46361
 31
0.0
  0
LINE
  5
D7
330
1F
100
AcDbEntity
  8
NOCUT
100
AcDbLine
 10
210.505714
 20
180.46361
 30
0.0
 11
210.692085
 21
179.768066
 31
0.0
  0
LINE
  5
D8
330
1F
100
AcDbEntity
  8
NOCUT
100
AcDbLine
 10
210.305714
 20
179.264538
 30
0.0
 11
209.352125
 21
179.264538
 31
0.0
  0
LINE
  5
D9
330
1F
100
AcDbEntity
  8
NOCUT
100
AcDbLine
 10
205.755714
 20
179.4645379999999
 30
0.0
 11
209.005714
 21
179.4645379999999
 31
0.0
  0
LINE
  5
DA
330
1F
100
AcDbEntity
  8
NOCUT
100
AcDbLine
 10
205.755714
 20
179.4645379999999
 30
0.0
 11
205.505714
 21
179.214538
 31
0.0
  0
LINE
  5
DB
330
1F
100
AcDbEntity
  8
NOCUT
100
AcDbLine
 10
189.505714
 20
179.214538
 30
0.0
 11
205.505714
 21
179.214538
 31
0.0
  0
LINE
  5
DC
330
1F
100
AcDbEntity
  8
NOCUT
100
AcDbLine
 10
188.5057139999999
 20
175.791888
 30
0.0
 11
188.5057139999999
 21
178.214538
 31
0.0
  0
LINE
  5
DD
330
1F
100
AcDbEntity
  8
NOCUT
100
AcDbLine
 10
189.505714
 20
175.2145379999999
 30
0.0
 11
188.5057139999999
 21
175.791888
 31
0.0
  0
LINE
  5
DE
330
1F
100
AcDbEntity
  8
NOCUT
100
AcDbLine
 10
224.505714
 20
175.2145379999999
 30
0.0
 11
189.505714
 21
175.2145379999999
 31
0.0
  0
LINE
  5
DF
330
1F
100
AcDbEntity
  8
NOCUT
100
AcDbLine
 10
225.660415
 20
173.2145379999999
 30
0.0
 11
224.505714
 21
175.2145379999999
 31
0.0
  0
LINE
  5
E0
330
1F
100
AcDbEntity
  8
NOCUT
100
AcDbLine
 10
224.505714
 20
171.2145379999999
 30
0.0
 11
225.660415
 21
173.2145379999999
 31
0.0
  0
LINE
  5
E1
330
1F
100
AcDbEntity
  8
NOCUT
100
AcDbLine
 10
189.505714
 20
171.2145379999999
 30
0.0
 11
224.505714
 21
171.2145379999999
 31
0.0
  0
LINE
  5
E2
330
1F
100
AcDbEntity
  8
NOCUT
100
AcDbLine
 10
188.5057139999999
 20
170.637188
 30
0.0
 11
189.505714
 21
171.2145379999999
 31
0.0
  0
LINE
  5
E3
330
1F
100
AcDbEntity
  8
NOCUT
100
AcDbLine
 10
188.5057139999999
 20
168.2145379999999
 30
0.0
 11
188.5057139999999
 21
170.637188
 31
0.0
  0
LINE
  5
E4
330
1F
100
AcDbEntity
  8
NOCUT
100
AcDbLine
 10
188.5057139999999
 20
168.2145379999999
 30
0.0
 11
189.505714
 21
167.214538
 31
0.0
  0
LINE
  5
E5
330
1F
100
AcDbEntity
  8
NOCUT
100
AcDbLine
 10
205.505714
 20
167.214538
 30
0.0
 11
189.505714
 21
167.214538
 31
0.0
  0
LINE
  5
E6
330
1F
100
AcDbEntity
  8
NOCUT
100
AcDbLine
 10
205.505714
 20
167.214538
 30
0.0
 11
205.755714
 21
166.9645379999999
 31
0.0
  0
LINE
  5
E7
330
1F
100
AcDbEntity
  8
NOCUT
100
AcDbLine
 10
209.005714
 20
166.9645379999999
 30
0.0
 11
205.755714
 21
166.9645379999999
 31
0.0
  0
LINE
  5
E8
330
1F
100
AcDbEntity
  8
NOCUT
100
AcDbLine
 10
209.352125
 20
167.164538
 30
0.0
 11
210.305714
 21
167.164538
 31
0.0
  0
LINE
  5
E9
330
1F
100
AcDbEntity
  8
NOCUT
100
AcDbLine
 10
210.692085
 20
166.661011
 30
0.0
 11
210.505714
 21
165.965467
 31
0.0
  0
LINE
  5
EA
330
1F
100
AcDbEntity
  8
NOCUT
100
AcDbLine
 10
210.505714
 20
165.965467
 30
0.0
 11
210.505714
 21
163.214538
 31
0.0
  0
LINE
  5
EB
330
1F
100
AcDbEntity
  8
NOCUT
100
AcDbLine
 10
210.505714
 20
163.214538
 30
0.0
 11
211.005714
 21
162.7145379999999
 31
0.0
  0
LINE
  5
EC
330
1F
100
AcDbEntity
  8
NOCUT
100
AcDbLine
 10
211.005714
 20
162.7145379999999
 30
0.0
 11
232.921951
 21
162.7145379999999
 31
0.0
  0
LINE
  5
ED
330
1F
100
AcDbEntity
  8
NOCUT
100
AcDbLine
 10
233.921951
 20
162.446589
 30
0.0
 11
235.47283
 21
161.551189
 31
0.0
  0
LINE
  5
EE
330
1F
100
AcDbEntity
  8
NOCUT
100
AcDbLine
 10
236.47283
 20
161.283239
 30
0.0
 11
237.636932
 21
161.283239
 31
0.0
  0
LINE
  5
EF
330
1F
100
AcDbEntity
  8
1
100
AcDbLine
 10
188.951433
 20
167.769038
 30
0.0
 11
205.505714
 21
167.769038
 31
0.0
  0
LINE
  5
F0
330
1F
100
AcDbEntity
  8
1
100
AcDbLine
 10
188.951433
 20
178.660038
 30
0.0
 11
205.505714
 21
178.660038
 31
0.0
  0
LINE
  5
F1
330
1F
100
AcDbEntity
  8
NOCUT
100
AcDbLine
 10
189.505714
 20
179.214538
 30
0.0
 11
188.5057139999999
 21
178.214538
 31
0.0
  0
LINE
  5
F2
102
{ACAD_REACTORS
330
22F
102
}
330
1F
100
AcDbEntity
  8
80
100
AcDbLine
 10
209.005714
 20
173.2145379999999
 30
0.0
 11
212.005714
 21
173.2145379999999
 31
0.0
  0
LINE
  5
F3
102
{ACAD_REACTORS
330
22F
102
}
330
1F
100
AcDbEntity
  8
80
100
AcDbLine
 10
210.505714
 20
171.714538
 30
0.0
 11
210.505714
 21
174.714538
 31
0.0
  0
LINE
  5
F4
102
{ACAD_REACTORS
330
230
102
}
330
1F
100
AcDbEntity
  8
81
100
AcDbLine
 10
242.505716
 20
182.889434
 30
0.0
 11
242.505716
 21
188.889434
 31
0.0
  0
LINE
  5
F5
102
{ACAD_REACTORS
330
230
102
}
330
1F
100
AcDbEntity
  8
81
100
AcDbLine
 10
239.505716
 20
185.889434
 30
0.0
 11
245.505716
 21
185.889434
 31
0.0
  0
LINE
  5
F6
102
{ACAD_REACTORS
330
231
102
}
330
1F
100
AcDbEntity
  8
2
100
AcDbLine
 10
251.255716
 20
192.897833
 30
0.0
 11
228.792884
 21
192.897833
 31
0.0
  0
LINE
  5
F7
102
{ACAD_REACTORS
330
231
102
}
330
1F
100
AcDbEntity
  8
2
100
AcDbLine
 10
237.542884
 20
186.889434
 30
0.0
 11
237.542884
 21
194.897833
 31
0.0
  0
LINE
  5
F8
102
{ACAD_REACTORS
330
231
102
}
330
1F
100
AcDbEntity
  8
2
100
AcDbLine
 10
242.505716
 20
186.889434
 30
0.0
 11
242.505716
 21
194.897833
 31
0.0
  0
LINE
  5
F9
330
1F
100
AcDbEntity
  8
2
 60
     1
100
AcDbLine
 10
237.542884
 20
192.897833
 30
0.0
 11
235.042886
 21
192.457016
 31
0.0
  0
LINE
  5
FA
330
1F
100
AcDbEntity
  8
2
 60
     1
100
AcDbLine
 10
235.042886
 20
192.457016
 30
0.0
 11
235.042883
 21
193.33865
 31
0.0
  0
LINE
  5
FB
330
1F
100
AcDbEntity
  8
2
 60
     1
100
AcDbLine
 10
235.042883
 20
193.33865
 30
0.0
 11
237.542884
 21
192.897833
 31
0.0
  0
LINE
  5
FC
330
1F
100
AcDbEntity
  8
2
 60
     1
100
AcDbLine
 10
242.505716
 20
192.897833
 30
0.0
 11
245.005714
 21
193.33865
 31
0.0
  0
LINE
  5
FD
330
1F
100
AcDbEntity
  8
2
 60
     1
100
AcDbLine
 10
245.005714
 20
193.33865
 30
0.0
 11
245.005717
 21
192.457016
 31
0.0
  0
LINE
  5
FE
330
1F
100
AcDbEntity
  8
2
 60
     1
100
AcDbLine
 10
245.005717
 20
192.457016
 30
0.0
 11
242.505716
 21
192.897833
 31
0.0
  0
LINE
  5
100
102
{ACAD_REACTORS
330
232
102
}
330
1F
100
AcDbEntity
  8
2
100
AcDbLine
 10
210.505714
 20
201.736196
 30
0.0
 11
242.505716
 21
201.736196
 31
0.0
  0
LINE
  5
101
102
{ACAD_REACTORS
330
232
102
}
330
1F
100
AcDbEntity
  8
2
100
AcDbLine
 10
242.505716
 20
186.889434
 30
0.0
 11
242.505716
 21
203.736196
 31
0.0
  0
LINE
  5
102
102
{ACAD_REACTORS
330
232
102
}
330
1F
100
AcDbEntity
  8
2
100
AcDbLine
 10
210.505714
 20
184.214538
 30
0.0
 11
210.505714
 21
203.736196
 31
0.0
  0
LINE
  5
103
330
1F
100
AcDbEntity
  8
2
 60
     1
100
AcDbLine
 10
242.505716
 20
201.736196
 30
0.0
 11
240.005717
 21
201.295378
 31
0.0
  0
LINE
  5
104
330
1F
100
AcDbEntity
  8
2
 60
     1
100
AcDbLine
 10
240.005717
 20
201.295378
 30
0.0
 11
240.005714
 21
202.177013
 31
0.0
  0
LINE
  5
105
330
1F
100
AcDbEntity
  8
2
 60
     1
100
AcDbLine
 10
240.005714
 20
202.177013
 30
0.0
 11
242.505716
 21
201.736196
 31
0.0
  0
LINE
  5
106
330
1F
100
AcDbEntity
  8
2
 60
     1
100
AcDbLine
 10
210.505714
 20
201.736196
 30
0.0
 11
213.005713
 21
202.177013
 31
0.0
  0
LINE
  5
107
330
1F
100
AcDbEntity
  8
2
 60
     1
100
AcDbLine
 10
213.005713
 20
202.177013
 30
0.0
 11
213.005716
 21
201.295378
 31
0.0
  0
LINE
  5
108
330
1F
100
AcDbEntity
  8
2
 60
     1
100
AcDbLine
 10
213.005716
 20
201.295378
 30
0.0
 11
210.505714
 21
201.736196
 31
0.0
  0
LINE
  5
109
102
{ACAD_REACTORS
330
233
102
}
330
1F
100
AcDbEntity
  8
2
100
AcDbLine
 10
254.75471
 20
185.889434
 30
0.0
 11
254.75471
 21
161.389223
 31
0.0
  0
LINE
  5
10A
102
{ACAD_REACTORS
330
233
102
}
330
1F
100
AcDbEntity
  8
2
100
AcDbLine
 10
238.51123
 20
185.889434
 30
0.0
 11
256.75471
 21
185.889434
 31
0.0
  0
LINE
  5
10B
330
1F
100
AcDbEntity
  8
2
 60
     1
100
AcDbLine
 10
254.75471
 20
185.889434
 30
0.0
 11
255.195528
 21
183.389436
 31
0.0
  0
LINE
  5
10C
330
1F
100
AcDbEntity
  8
2
 60
     1
100
AcDbLine
 10
255.195528
 20
183.389436
 30
0.0
 11
254.313893
 21
183.389432
 31
0.0
  0
LINE
  5
10D
330
1F
100
AcDbEntity
  8
2
 60
     1
100
AcDbLine
 10
254.313893
 20
183.389432
 30
0.0
 11
254.75471
 21
185.889434
 31
0.0
  0
ARC
  5
10E
330
1F
100
AcDbEntity
  8
SK1
100
AcDbCircle
 10
-209.352125
 20
166.764538
 30
0.0
 40
0.4000000000000001
210
0.0
220
0.0
230
-1.0
100
AcDbArc
 50
30.0
 51
90.0
  0
ARC
  5
10F
330
1F
100
AcDbEntity
  8
SK1
100
AcDbCircle
 10
-209.352125
 20
179.664538
 30
0.0
 40
0.4000000000000001
210
0.0
220
0.0
230
-1.0
100
AcDbArc
 50
270.0
 51
330.0
  0
ARC
  5
110
330
1F
100
AcDbEntity
  8
SK1
100
AcDbCircle
 10
-210.305714
 20
166.764538
 30
0.0
 40
0.3999999999999995
210
0.0
220
0.0
230
-1.0
100
AcDbArc
 50
90.0
 51
120.00093
  0
ARC
  5
111
330
1F
100
AcDbEntity
  8
SK1
100
AcDbCircle
 10
-210.305714
 20
179.664538
 30
0.0
 40
0.3999999999999995
210
0.0
220
0.0
230
-1.0
100
AcDbArc
 50
239.99907
 51
270.0
  0
ARC
  5
112
330
1F
100
AcDbEntity
  8
1
100
AcDbCircle
 10
233.386401
 20
179.183312
 30
0.0
 40
0.5
100
AcDbArc
 50
200.355382
 51
204.316008
  0
ARC
  5
113
330
1F
100
AcDbEntity
  8
1
100
AcDbCircle
 10
240.807652
 20
173.195717
 30
0.0
 40
0.5
100
AcDbArc
 50
19.947569
 51
23.268031
  0
ARC
  5
114
330
1F
100
AcDbEntity
  8
1
100
AcDbCircle
 10
240.807652
 20
165.62546
 30
0.0
 40
0.5
100
AcDbArc
 50
335.126953
 51
339.485506
  0
ARC
  5
115
330
1F
100
AcDbEntity
  8
1
100
AcDbCircle
 10
233.386401
 20
179.183312
 30
0.0
 40
0.5
100
AcDbArc
 50
200.355382
 51
204.316008
  0
ARC
  5
116
330
1F
100
AcDbEntity
  8
NOCUT
100
AcDbCircle
 10
236.47283
 20
163.283239
 30
0.0
 40
2.0
100
AcDbArc
 50
240.0
 51
270.0
  0
ARC
  5
117
330
1F
100
AcDbEntity
  8
NOCUT
100
AcDbCircle
 10
232.921951
 20
160.7145379999999
 30
0.0
 40
2.0
100
AcDbArc
 50
60.0
 51
90.0
  0
ARC
  5
118
330
1F
100
AcDbEntity
  8
NOCUT
100
AcDbCircle
 10
-210.305714
 20
166.764538
 30
0.0
 40
0.3999999999999995
210
0.0
220
0.0
230
-1.0
100
AcDbArc
 50
90.0
 51
195.0
  0
ARC
  5
119
330
1F
100
AcDbEntity
  8
NOCUT
100
AcDbCircle
 10
-209.352125
 20
166.764538
 30
0.0
 40
0.4000000000000001
210
0.0
220
0.0
230
-1.0
100
AcDbArc
 50
30.0
 51
90.0
  0
ARC
  5
11A
330
1F
100
AcDbEntity
  8
NOCUT
100
AcDbCircle
 10
-209.352125
 20
179.664538
 30
0.0
 40
0.4000000000000001
210
0.0
220
0.0
230
-1.0
100
AcDbArc
 50
270.0
 51
330.0
  0
ARC
  5
11B
330
1F
100
AcDbEntity
  8
NOCUT
100
AcDbCircle
 10
-210.305714
 20
179.664538
 30
0.0
 40
0.3999999999999995
210
0.0
220
0.0
230
-1.0
100
AcDbArc
 50
165.0
 51
270.0
  0
ARC
  5
11C
330
1F
100
AcDbEntity
  8
NOCUT
100
AcDbCircle
 10
232.921951
 20
185.714538
 30
0.0
 40
2.0
100
AcDbArc
 50
270.0
 51
300.0
  0
ARC
  5
11D
330
1F
100
AcDbEntity
  8
NOCUT
100
AcDbCircle
 10
236.47283
 20
183.145838
 30
0.0
 40
2.0
100
AcDbArc
 50
90.0
 51
120.0
  0
ARC
  5
11E
330
1F
100
AcDbEntity
  8
NOCUT
100
AcDbCircle
 10
237.636932
 20
181.623341
 30
0.0
 40
3.522496766380439
100
AcDbArc
 50
322.26935
 51
90.0
  0
ARC
  5
11F
330
1F
100
AcDbEntity
  8
NOCUT
100
AcDbCircle
 10
239.505714
 20
175.6678179999999
 30
0.0
 40
1.6
100
AcDbArc
 50
142.26935
 51
180.0
  0
ARC
  5
120
330
1F
100
AcDbEntity
  8
NOCUT
100
AcDbCircle
 10
239.505714
 20
170.761259
 30
0.0
 40
1.6
100
AcDbArc
 50
180.0
 51
217.73065
  0
ARC
  5
121
330
1F
100
AcDbEntity
  8
NOCUT
100
AcDbCircle
 10
237.636932
 20
164.805736
 30
0.0
 40
3.522496766380439
100
AcDbArc
 50
270.0
 51
37.73065
  0
ELLIPSE
  5
122
330
1F
100
AcDbEntity
  8
1
100
AcDbEllipse
 10
236.260865
 20
162.182802
 30
0.0
 11
-2.001088668376665
 21
-0.3385381513946913
 31
0.0
210
0.0
220
0.0
230
0.9999999999999998
 40
0.8336249999999999
 41
2.95714770906441
 42
5.474781001934813
  0
ELLIPSE
  5
123
330
1F
100
AcDbEntity
  8
1
100
AcDbEllipse
 10
229.014265
 20
182.862834
 30
0.0
 11
-12.11861088999826
 21
15.09289416393803
 31
0.0
210
0.0
220
0.0
230
1.0
 40
0.607728
 41
2.567675678888905
 42
2.763667097983658
  0
ELLIPSE
  5
124
330
1F
100
AcDbEntity
  8
1
100
AcDbEllipse
 10
237.124542
 20
182.089891
 30
0.0
 11
0.033454912599283
 21
-0.0783804772830214
 31
0.0
210
0.0
220
0.0
230
1.0
 40
0.9912059999999998
 41
0.7671165317904082
 42
1.425979667775283
  0
ELLIPSE
  5
125
330
1F
100
AcDbEntity
  8
1
100
AcDbEllipse
 10
237.542884
 20
180.896185
 30
0.0
 11
-1.962817595750256
 21
4.59862447758166
 31
0.0
210
0.0
220
0.0
230
1.0
 40
0.9912059999999998
 41
1.170558477862766
 42
1.821260849747459
  0
ELLIPSE
  5
126
330
1F
100
AcDbEntity
  8
1
100
AcDbEllipse
 10
237.542884
 20
180.896185
 30
0.0
 11
-1.962817595750256
 21
4.59862447758166
 31
0.0
210
0.0
220
0.0
230
1.0
 40
0.9912059999999998
 41
3.551492925156103
 42
6.283185307179585
  0
ELLIPSE
  5
127
330
1F
100
AcDbEntity
  8
1
100
AcDbEllipse
 10
237.542884
 20
180.896185
 30
0.0
 11
-1.962817595750256
 21
4.59862447758166
 31
0.0
210
0.0
220
0.0
230
1.0
 40
0.9912059999999998
 41
0.0
 42
1.170558434491687
  0
ELLIPSE
  5
128
330
1F
100
AcDbEntity
  8
1
100
AcDbEllipse
 10
240.700091
 20
167.04827
 30
0.0
 11
-0.5081707340783121
 21
0.0649142451469637
 31
0.0
210
0.0
220
0.0
230
0.9999999999999998
 40
0.530778
 41
3.209291131467334
 42
3.973502846207937
  0
ELLIPSE
  5
129
330
1F
100
AcDbEntity
  8
1
100
AcDbEllipse
 10
236.704069
 20
179.944244
 30
0.0
 11
0.033454912599283
 21
-0.0783804772830214
 31
0.0
210
0.0
220
0.0
230
1.0
 40
0.9912059999999998
 41
2.861511634183591
 42
3.520374770168443
  0
ELLIPSE
  5
12A
330
1F
100
AcDbEntity
  8
1
100
AcDbEllipse
 10
236.754682
 20
182.248307
 30
0.0
 11
0.1920765204949316
 21
-0.4500101235230087
 31
0.0
210
0.0
220
0.0
230
1.0
 40
0.9912059999999998
 41
5.750034232948197
 42
7.050301838969968
  0
ELLIPSE
  5
12B
330
1F
100
AcDbEntity
  8
1
100
AcDbEllipse
 10
237.507724
 20
180.881177
 30
0.0
 11
-0.9421524459601227
 21
2.207339749239195
 31
0.0
210
0.0
220
0.0
230
1.0
 40
0.9912059999999998
 41
0.0
 42
6.283185307179585
  0
ELLIPSE
  5
12C
330
1F
100
AcDbEntity
  8
1
100
AcDbEllipse
 10
239.082777
 20
180.88103
 30
0.0
 11
0.1920765204949316
 21
-0.4500101235230087
 31
0.0
210
0.0
220
0.0
230
1.0
 40
0.9912059999999998
 41
3.655639130555004
 42
4.955906736576769
  0
ELLIPSE
  5
12D
330
1F
100
AcDbEntity
  8
1
100
AcDbEllipse
 10
238.321889
 20
181.345488
 30
0.0
 11
0.1920765204949317
 21
-0.4500101235230087
 31
0.0
210
0.0
220
0.0
230
0.9999999999999998
 40
0.9912059999999998
 41
1.037645252563502
 42
2.337912858585276
  0
ELLIPSE
  5
12E
330
1F
100
AcDbEntity
  8
1
100
AcDbEllipse
 10
236.297897
 20
180.654658
 30
0.0
 11
0.0334549125992829
 21
-0.0783804772830212
 31
0.0
210
0.0
220
0.0
230
1.0
 40
0.9912059999999998
 41
6.138368648159976
 42
6.79723178414482
  0
ELLIPSE
  5
12F
330
1F
100
AcDbEntity
  8
1
100
AcDbEllipse
 10
237.530714
 20
179.971839
 30
0.0
 11
0.1920765204949317
 21
-0.4500101235230087
 31
0.0
210
0.0
220
0.0
230
0.9999999999999998
 40
0.9912059999999998
 41
5.226435457349896
 42
6.526703063371677
  0
ELLIPSE
  5
130
330
1F
100
AcDbEntity
  8
1
100
AcDbEllipse
 10
238.306746
 20
182.238347
 30
0.0
 11
0.1920765204949316
 21
-0.4500101235230087
 31
0.0
210
0.0
220
0.0
230
1.0
 40
0.9912059999999998
 41
4.702836681751598
 42
6.003104287773367
  0
ELLIPSE
  5
131
330
1F
100
AcDbEntity
  8
1
100
AcDbEllipse
 10
236.43537
 20
162.324821
 30
0.0
 11
-1.33579889302535
 21
0.1952980219875524
 31
0.0
210
0.0
220
0.0
230
1.0
 40
0.54059
 41
0.0
 42
6.283185307179585
  0
ELLIPSE
  5
132
330
1F
100
AcDbEntity
  8
1
100
AcDbEllipse
 10
236.297897
 20
181.143144
 30
0.0
 11
0.033454912599283
 21
-0.0783804772830214
 31
0.0
210
0.0
220
0.0
230
1.0
 40
0.9912059999999998
 41
1.814314082986975
 42
2.473177218971828
  0
ELLIPSE
  5
133
330
1F
100
AcDbEntity
  8
1
100
AcDbEllipse
 10
237.530714
 20
180.89099
 30
0.0
 11
-0.7066143344700927
 21
1.655504811929398
 31
0.0
210
0.0
220
0.0
230
0.9999999999999998
 40
0.9912059999999998
 41
0.0
 42
6.283185307179585
  0
ELLIPSE
  5
134
330
1F
100
AcDbEntity
  8
1
100
AcDbEllipse
 10
237.124542
 20
179.697302
 30
0.0
 11
0.0334549125992829
 21
-0.0783804772830212
 31
0.0
210
0.0
220
0.0
230
1.0
 40
0.9912059999999998
 41
0.9023808921769463
 42
1.561244028161824
  0
ELLIPSE
  5
135
330
1F
100
AcDbEntity
  8
1
100
AcDbEllipse
 10
238.357359
 20
181.837736
 30
0.0
 11
0.033454912599283
 21
-0.0783804772830214
 31
0.0
210
0.0
220
0.0
230
1.0
 40
0.9912059999999998
 41
6.003104287773425
 42
6.66196742375826
  0
ELLIPSE
  5
136
330
1F
100
AcDbEntity
  8
1
100
AcDbEllipse
 10
236.754682
 20
179.543633
 30
0.0
 11
0.1920765204949316
 21
-0.4500101235230087
 31
0.0
210
0.0
220
0.0
230
1.0
 40
0.9912059999999998
 41
1.561244028161804
 42
2.861511634183568
  0
ELLIPSE
  5
137
330
1F
100
AcDbEntity
  8
1
100
AcDbEllipse
 10
238.357359
 20
179.933634
 30
0.0
 11
0.0334549125992829
 21
-0.0783804772830212
 31
0.0
210
0.0
220
0.0
230
1.0
 40
0.9912059999999998
 41
1.949578443373504
 42
2.608441579358383
  0
ELLIPSE
  5
138
330
1F
100
AcDbEntity
  8
1
100
AcDbEllipse
 10
236.739539
 20
180.436492
 30
0.0
 11
0.1920765204949317
 21
-0.4500101235230087
 31
0.0
210
0.0
220
0.0
230
0.9999999999999998
 40
0.9912059999999998
 41
4.179237906153298
 42
5.479505512175066
  0
ELLIPSE
  5
139
330
1F
100
AcDbEntity
  8
1
100
AcDbEllipse
 10
238.476984
 20
181.716612
 30
0.0
 11
0.033454912599283
 21
-0.0783804772830216
 31
0.0
210
0.0
220
0.0
230
1.0
 40
0.9912059999999998
 41
2.337912858585281
 42
3.520374770168396
  0
ELLIPSE
  5
13A
330
1F
100
AcDbEntity
  8
1
100
AcDbEllipse
 10
236.341683
 20
181.307273
 30
0.0
 11
0.033454912599283
 21
-0.0783804772830216
 31
0.0
210
0.0
220
0.0
230
1.0
 40
0.9912059999999998
 41
4.432307960978469
 42
5.614769872561588
  0
ELLIPSE
  5
13B
330
1F
100
AcDbEntity
  8
1
100
AcDbEllipse
 10
238.476984
 20
180.053223
 30
0.0
 11
0.0334549125992829
 21
-0.0783804772830213
 31
0.0
210
0.0
220
0.0
230
1.0
 40
0.9912059999999998
 41
5.091171096963355
 42
6.273633008546536
  0
ELLIPSE
  5
13C
330
1F
100
AcDbEntity
  8
1
100
AcDbEllipse
 10
238.321889
 20
180.426337
 30
0.0
 11
0.1920765204949317
 21
-0.4500101235230087
 31
0.0
210
0.0
220
0.0
230
0.9999999999999998
 40
0.9912059999999998
 41
6.273633008546495
 42
7.573900614568268
  0
ELLIPSE
  5
13D
330
1F
100
AcDbEntity
  8
1
100
AcDbEllipse
 10
236.739539
 20
181.355643
 30
0.0
 11
0.1920765204949317
 21
-0.4500101235230087
 31
0.0
210
0.0
220
0.0
230
0.9999999999999998
 40
0.9912059999999998
 41
3.132040354956709
 42
4.432307960978476
  0
ELLIPSE
  5
13E
330
1F
100
AcDbEntity
  8
1
100
AcDbEllipse
 10
235.97865
 20
180.90095
 30
0.0
 11
0.1920765204949316
 21
-0.4500101235230087
 31
0.0
210
0.0
220
0.0
230
1.0
 40
0.9912059999999998
 41
0.5140464769652079
 42
1.81431408298698
  0
ELLIPSE
  5
13F
330
1F
100
AcDbEntity
  8
1
100
AcDbEllipse
 10
237.542884
 20
169.89999
 30
0.0
 11
-4.947403307501295
 21
0.7233260073613052
 31
0.0
210
0.0
220
0.0
230
1.0
 40
0.54059
 41
3.062561954312142
 42
3.141592712313952
  0
ELLIPSE
  5
140
330
1F
100
AcDbEntity
  8
1
100
AcDbEllipse
 10
237.542884
 20
169.89999
 30
0.0
 11
-4.947403307501295
 21
0.7233260073613052
 31
0.0
210
0.0
220
0.0
230
1.0
 40
0.54059
 41
3.141592712313951
 42
3.469987360640833
  0
ELLIPSE
  5
141
330
1F
100
AcDbEntity
  8
1
100
AcDbEllipse
 10
237.469861
 20
180.865017
 30
0.0
 11
-1.07954967766264
 21
2.52924346266991
 31
0.0
210
0.0
220
0.0
230
1.0
 40
0.9912059999999998
 41
2.75156512968974
 42
6.283185307179585
  0
ELLIPSE
  5
142
330
1F
100
AcDbEntity
  8
1
100
AcDbEllipse
 10
237.469861
 20
180.865017
 30
0.0
 11
-1.07954967766264
 21
2.52924346266991
 31
0.0
210
0.0
220
0.0
230
1.0
 40
0.9912059999999998
 41
0.0
 42
0.3899709749661991
  0
ELLIPSE
  5
143
330
1F
100
AcDbEntity
  8
1
100
AcDbEllipse
 10
236.484052
 20
162.657796
 30
0.0
 11
-1.731591157625453
 21
0.2531641025764568
 31
0.0
210
0.0
220
0.0
230
0.9999999999999998
 40
0.54059
 41
2.44366796751481
 42
3.141591866677586
  0
ELLIPSE
  5
144
330
1F
100
AcDbEntity
  8
1
100
AcDbEllipse
 10
236.484052
 20
162.657796
 30
0.0
 11
-1.731591157625453
 21
0.2531641025764568
 31
0.0
210
0.0
220
0.0
230
0.9999999999999998
 40
0.54059
 41
3.141592923723015
 42
6.283185307179585
  0
ELLIPSE
  5
145
330
1F
100
AcDbEntity
  8
1
100
AcDbEllipse
 10
236.484052
 20
162.657796
 30
0.0
 11
-1.731591157625453
 21
0.2531641025764568
 31
0.0
210
0.0
220
0.0
230
0.9999999999999998
 40
0.54059
 41
0.0
 42
0.6978262156353679
  0
ELLIPSE
  5
146
330
1F
100
AcDbEntity
  8
1
100
AcDbEllipse
 10
236.341683
 20
180.489967
 30
0.0
 11
0.0334549125992829
 21
-0.0783804772830213
 31
0.0
210
0.0
220
0.0
230
1.0
 40
0.9912059999999998
 41
2.996775994570142
 42
4.179237906153272
  0
ELLIPSE
  5
147
330
1F
100
AcDbEntity
  8
1
100
AcDbEllipse
 10
237.530714
 20
181.810141
 30
0.0
 11
0.1920765204949317
 21
-0.4500101235230087
 31
0.0
210
0.0
220
0.0
230
0.9999999999999998
 40
0.9912059999999998
 41
2.084842803760099
 42
3.38511040978187
  0
ELLIPSE
  5
148
330
1F
100
AcDbEntity
  8
1
100
AcDbEllipse
 10
238.306746
 20
179.533673
 30
0.0
 11
0.1920765204949316
 21
-0.4500101235230087
 31
0.0
210
0.0
220
0.0
230
1.0
 40
0.9912059999999998
 41
2.608441579358406
 42
3.908709185380171
  0
ELLIPSE
  5
149
330
1F
100
AcDbEntity
  8
1
100
AcDbEllipse
 10
236.584443
 20
181.728757
 30
0.0
 11
0.0334549125992829
 21
-0.0783804772830213
 31
0.0
210
0.0
220
0.0
230
1.0
 40
0.9912059999999998
 41
1.949578443373581
 42
3.132040354956701
  0
ELLIPSE
  5
14A
330
1F
100
AcDbEntity
  8
1
100
AcDbEllipse
 10
237.542884
 20
180.896185
 30
0.0
 11
1.091893707022355
 21
-2.558163906265115
 31
0.0
210
0.0
220
0.0
230
1.0
 40
0.991206
 41
0.0
 42
6.283185307179585
  0
ELLIPSE
  5
14B
330
1F
100
AcDbEntity
  8
1
100
AcDbEllipse
 10
237.287953
 20
182.132896
 30
0.0
 11
0.033454912599283
 21
-0.0783804772830216
 31
0.0
210
0.0
220
0.0
230
1.0
 40
0.9912059999999998
 41
3.38511040978183
 42
4.567572321365048
  0
ELLIPSE
  5
14C
330
1F
100
AcDbEntity
  8
1
100
AcDbEllipse
 10
237.44552
 20
180.854627
 30
0.0
 11
-0.9421524459601226
 21
2.207339749239194
 31
0.0
210
0.0
220
0.0
230
1.0
 40
0.9912059999999998
 41
1.17055834435185
 42
3.141515143628801
  0
ELLIPSE
  5
14D
330
1F
100
AcDbEntity
  8
1
100
AcDbEllipse
 10
237.44552
 20
180.854627
 30
0.0
 11
-0.9421524459601226
 21
2.207339749239194
 31
0.0
210
0.0
220
0.0
230
1.0
 40
0.9912059999999998
 41
0.0000206919437008
 42
1.170558344351852
  0
ELLIPSE
  5
14E
330
1F
100
AcDbEntity
  8
1
100
AcDbEllipse
 10
238.719745
 20
181.292013
 30
0.0
 11
0.0334549125992829
 21
-0.0783804772830213
 31
0.0
210
0.0
220
0.0
230
1.0
 40
0.9912059999999998
 41
6.138368648159932
 42
7.320830559743086
  0
ELLIPSE
  5
14F
330
1F
100
AcDbEntity
  8
1
100
AcDbEllipse
 10
237.287953
 20
179.6522
 30
0.0
 11
0.0334549125992829
 21
-0.0783804772830213
 31
0.0
210
0.0
220
0.0
230
1.0
 40
0.9912059999999998
 41
4.043973545766748
 42
5.226435457349923
  0
ELLIPSE
  5
150
330
1F
100
AcDbEntity
  8
1
100
AcDbEllipse
 10
238.763531
 20
180.638836
 30
0.0
 11
0.033454912599283
 21
-0.0783804772830214
 31
0.0
210
0.0
220
0.0
230
1.0
 40
0.9912059999999998
 41
4.955906736576758
 42
5.614769872561621
  0
ELLIPSE
  5
151
330
1F
100
AcDbEntity
  8
1
100
AcDbEllipse
 10
238.719745
 20
180.474707
 30
0.0
 11
0.033454912599283
 21
-0.0783804772830216
 31
0.0
210
0.0
220
0.0
230
1.0
 40
0.9912059999999998
 41
1.290715307388696
 42
2.473177218971828
  0
ELLIPSE
  5
152
330
1F
100
AcDbEntity
  8
1
100
AcDbEllipse
 10
237.936886
 20
182.084678
 30
0.0
 11
0.0334549125992829
 21
-0.0783804772830212
 31
0.0
210
0.0
220
0.0
230
1.0
 40
0.9912059999999998
 41
4.043973545766773
 42
4.702836681751597
  0
ELLIPSE
  5
153
330
1F
100
AcDbEntity
  8
1
100
AcDbEllipse
 10
238.763531
 20
181.127322
 30
0.0
 11
0.0334549125992829
 21
-0.0783804772830212
 31
0.0
210
0.0
220
0.0
230
1.0
 40
0.9912059999999998
 41
2.996775994570183
 42
3.655639130555027
  0
ELLIPSE
  5
154
330
1F
100
AcDbEntity
  8
1
100
AcDbEllipse
 10
237.773474
 20
182.12978
 30
0.0
 11
0.0334549125992829
 21
-0.0783804772830213
 31
0.0
210
0.0
220
0.0
230
1.0
 40
0.9912059999999998
 41
0.9023808921769379
 42
2.0848428037601
  0
ELLIPSE
  5
155
330
1F
100
AcDbEntity
  8
1
100
AcDbEllipse
 10
236.704069
 20
181.848346
 30
0.0
 11
0.0334549125992829
 21
-0.0783804772830212
 31
0.0
210
0.0
220
0.0
230
1.0
 40
0.9912059999999998
 41
5.091171096963339
 42
5.750034232948159
  0
ELLIPSE
  5
156
330
1F
100
AcDbEntity
  8
1
100
AcDbEllipse
 10
236.584443
 20
180.065368
 30
0.0
 11
0.033454912599283
 21
-0.0783804772830216
 31
0.0
210
0.0
220
0.0
230
1.0
 40
0.9912059999999998
 41
5.479505512175081
 42
6.66196742375819
  0
ELLIPSE
  5
157
330
1F
100
AcDbEntity
  8
1
100
AcDbEllipse
 10
240.700091
 20
165.393454
 30
0.0
 11
-0.507545122339911
 21
0.0809549549228497
 31
0.0
210
0.0
220
0.0
230
0.9999999999999998
 40
0.527353
 41
2.993355050230924
 42
3.225509493618105
  0
ELLIPSE
  5
158
330
1F
100
AcDbEntity
  8
1
100
AcDbEllipse
 10
237.936886
 20
179.6920889999999
 30
0.0
 11
0.033454912599283
 21
-0.0783804772830214
 31
0.0
210
0.0
220
0.0
230
1.0
 40
0.9912059999999998
 41
3.908709185380178
 42
4.567572321365034
  0
ELLIPSE
  5
159
330
1F
100
AcDbEntity
  8
1
100
AcDbEllipse
 10
237.773474
 20
179.649084
 30
0.0
 11
0.033454912599283
 21
-0.0783804772830216
 31
0.0
210
0.0
220
0.0
230
1.0
 40
0.9912059999999998
 41
0.2435177561921044
 42
1.42597966777522
  0
ELLIPSE
  5
15A
330
1F
100
AcDbEntity
  8
1
100
AcDbEllipse
 10
237.569117
 20
180.359479
 30
0.0
 11
-6.073228915082101
 21
-2.099012904434971
 31
0.0
210
0.0
220
0.0
230
0.9999999999999998
 40
0.110656
 41
5.574799159837567
 42
5.628131634311983
  0
ELLIPSE
  5
15B
330
1F
100
AcDbEntity
  8
1
100
AcDbEllipse
 10
233.266437
 20
178.722809
 30
0.0
 11
-0.7073553982527799
 21
-0.2387290032871843
 31
0.0
210
0.0
220
0.0
230
1.0
 40
0.010392
 41
5.688897441896307
 42
7.599208505621824
  0
ELLIPSE
  5
15C
330
1F
100
AcDbEntity
  8
1
100
AcDbEllipse
 10
237.569117
 20
180.359479
 30
0.0
 11
-5.881479216846642
 21
-2.566281735003757
 31
0.0
210
0.0
220
0.0
230
1.0
 40
0.109435
 41
0.6589653094049882
 42
0.712879192189996
  0
ELLIPSE
  5
15D
330
1F
100
AcDbEntity
  8
CUT
100
AcDbEllipse
 10
237.542884
 20
180.896185
 30
0.0
 11
1.962817595750255
 21
-4.59862447758166
 31
0.0
210
0.0
220
0.0
230
0.9999999999999998
 40
0.9912059999999998
 41
0.0
 42
6.283185307179585
  0
ELLIPSE
  5
15E
330
1F
100
AcDbEntity
  8
1
100
AcDbEllipse
 10
237.542884
 20
168.84744
 30
0.0
 11
4.953316976764178
 21
0.6816530845670604
 31
0.0
210
0.0
220
0.0
230
0.9999999999999998
 40
0.450616
 41
3.203148229557788
 42
6.283185307179585
  0
ELLIPSE
  5
15F
330
1F
100
AcDbEntity
  8
1
100
AcDbEllipse
 10
237.542884
 20
168.84744
 30
0.0
 11
4.953316976764178
 21
0.6816530845670604
 31
0.0
210
0.0
220
0.0
230
0.9999999999999998
 40
0.450616
 41
0.0
 42
0.0619484336425682
  0
ELLIPSE
  5
160
330
1F
100
AcDbEntity
  8
1
100
AcDbEllipse
 10
235.362408
 20
172.482875
 30
0.0
 11
-1.271792985688539
 21
11.59339466951565
 31
0.0
210
0.0
220
0.0
230
0.9999999999999998
 40
0.054925
 41
1.169177985401451
 42
1.267026169711992
  0
ELLIPSE
  5
161
330
1F
100
AcDbEntity
  8
1
100
AcDbEllipse
 10
175.354623
 20
173.214541
 30
0.0
 11
-97.30416359222594
 21
-10.66332054011002
 31
0.0
210
0.0
220
0.0
230
0.9999999999999998
 40
0.055008
 41
2.243881903032578
 42
2.259353578361534
  0
ELLIPSE
  5
162
330
1F
100
AcDbEntity
  8
1
100
AcDbEllipse
 10
236.359504
 20
176.475472
 30
0.0
 11
1.981326790705671
 21
0.2726612338268242
 31
0.0
210
0.0
220
0.0
230
1.0
 40
0.450616
 41
2.023888589422905
 42
3.079660264753348
  0
ELLIPSE
  5
163
330
1F
100
AcDbEntity
  8
1
100
AcDbEllipse
 10
236.359504
 20
176.475472
 30
0.0
 11
1.981326790705671
 21
0.2726612338268242
 31
0.0
210
0.0
220
0.0
230
1.0
 40
0.450616
 41
0.1612680762392724
 42
0.8153572889239342
  0
ELLIPSE
  5
164
330
1F
100
AcDbEntity
  8
1
100
AcDbEllipse
 10
236.260865
 20
177.192243
 30
0.0
 11
-2.020889787340951
 21
0.0173910881247406
 31
0.0
210
0.0
220
0.0
230
1.0
 40
0.127701
 41
3.098352765538766
 42
4.056469775836468
  0
ELLIPSE
  5
165
330
1F
100
AcDbEntity
  8
1
100
AcDbEllipse
 10
236.260865
 20
177.192243
 30
0.0
 11
-2.020889787340951
 21
0.0173910881247406
 31
0.0
210
0.0
220
0.0
230
1.0
 40
0.127701
 41
4.795788121109027
 42
5.615986058409117
  0
ELLIPSE
  5
166
330
1F
100
AcDbEntity
  8
1
100
AcDbEllipse
 10
240.700091
 20
173.445855
 30
0.0
 11
-0.5082619992422238
 21
-0.0752085715138984
 31
0.0
210
0.0
220
0.0
230
1.0
 40
0.439863
 41
3.076596864581189
 42
3.523397595783943
  0
ELLIPSE
  5
167
330
1F
100
AcDbEntity
  8
1
100
AcDbEllipse
 10
237.542884
 20
180.896185
 30
0.0
 11
1.091893707022355
 21
-2.558163906265115
 31
0.0
210
0.0
220
0.0
230
1.0
 40
0.991206
 41
0.0
 42
6.283185307179585
  0
ELLIPSE
  5
168
330
1F
100
AcDbEntity
  8
1
100
AcDbEllipse
 10
237.469861
 20
180.865017
 30
0.0
 11
-1.07954967766264
 21
2.52924346266991
 31
0.0
210
0.0
220
0.0
230
1.0
 40
0.9912059999999998
 41
2.75162521779763
 42
6.283185307179585
  0
ELLIPSE
  5
169
330
1F
100
AcDbEntity
  8
1
100
AcDbEllipse
 10
237.469861
 20
180.865017
 30
0.0
 11
-1.07954967766264
 21
2.52924346266991
 31
0.0
210
0.0
220
0.0
230
1.0
 40
0.9912059999999998
 41
0.0
 42
0.3900310630727568
  0
ELLIPSE
  5
16A
330
1F
100
AcDbEntity
  8
1
100
AcDbEllipse
 10
237.542884
 20
180.896185
 30
0.0
 11
-1.962817595750256
 21
4.59862447758166
 31
0.0
210
0.0
220
0.0
230
1.0
 40
0.9912059999999998
 41
1.170558477862766
 42
1.82132108215983
  0
ELLIPSE
  5
16B
330
1F
100
AcDbEntity
  8
1
100
AcDbEllipse
 10
237.542884
 20
180.896185
 30
0.0
 11
-1.962817595750256
 21
4.59862447758166
 31
0.0
210
0.0
220
0.0
230
1.0
 40
0.9912059999999998
 41
3.551455045138203
 42
6.283185307179585
  0
ELLIPSE
  5
16C
330
1F
100
AcDbEntity
  8
1
100
AcDbEllipse
 10
237.542884
 20
180.896185
 30
0.0
 11
-1.962817595750256
 21
4.59862447758166
 31
0.0
210
0.0
220
0.0
230
1.0
 40
0.9912059999999998
 41
0.0
 42
1.170558434491687
  0
ELLIPSE
  5
16D
330
1F
100
AcDbEntity
  8
1
100
AcDbEllipse
 10
235.551823
 20
170.528628
 30
0.0
 11
-0.4973420736428264
 21
-0.0754972938676509
 31
0.0
210
0.0
220
0.0
230
1.0
 40
0.458876
 41
0.7156231991513213
 42
1.479834913890213
  0
ELLIPSE
  5
16E
330
1F
100
AcDbEntity
  8
1
100
AcDbEllipse
 10
233.351059
 20
178.722812
 30
0.0
 11
-0.1031121543735982
 21
0.745907401574654
 31
0.0
210
0.0
220
0.0
230
1.0
 40
0.9222319999999999
 41
0.7518496328311077
 42
0.9488863864927072
  0
ELLIPSE
  5
16F
330
1F
100
AcDbEntity
  8
1
100
AcDbEllipse
 10
229.014265
 20
180.450545
 30
0.0
 11
-15.19697646549385
 21
1.429994612404519
 31
0.0
210
0.0
220
0.0
230
1.0
 40
0.14844
 41
1.933750778456594
 42
2.12974219754182
  0
ELLIPSE
  5
170
330
1F
100
AcDbEntity
  8
1
100
AcDbEllipse
 10
240.700091
 20
172.066463
 30
0.0
 11
-0.5085706252270864
 21
-0.063191846307652
 31
0.0
210
0.0
220
0.0
230
1.0
 40
0.442123
 41
2.322500622244712
 42
3.086712336986564
  0
ELLIPSE
  5
171
330
1F
100
AcDbEntity
  8
1
100
AcDbEllipse
 10
238.567609
 20
170.858108
 30
0.0
 11
-0.4977000034075937
 21
-0.0629671828160166
 31
0.0
210
0.0
220
0.0
230
0.9999999999999998
 40
0.46139
 41
1.533904897667698
 42
2.298116612402594
  0
ELLIPSE
  5
172
330
1F
100
AcDbEntity
  8
1
100
AcDbEllipse
 10
236.43537
 20
176.895326
 30
0.0
 11
1.337395583726327
 21
0.1840463328331064
 31
0.0
210
0.0
220
0.0
230
1.0
 40
0.450616
 41
0.0
 42
6.283185307179585
  0
ELLIPSE
  5
173
330
1F
100
AcDbEntity
  8
1
100
AcDbEllipse
 10
236.484052
 20
176.541573
 30
0.0
 11
1.733660941867461
 21
0.2385785795984712
 31
0.0
210
0.0
220
0.0
230
1.0
 40
0.450616
 41
2.612430576509991
 42
3.141592900274819
  0
ELLIPSE
  5
174
330
1F
100
AcDbEntity
  8
1
100
AcDbEllipse
 10
236.484052
 20
176.541573
 30
0.0
 11
1.733660941867461
 21
0.2385785795984712
 31
0.0
210
0.0
220
0.0
230
1.0
 40
0.450616
 41
3.141592900274863
 42
6.283185307179585
  0
ELLIPSE
  5
175
330
1F
100
AcDbEntity
  8
1
100
AcDbEllipse
 10
236.484052
 20
176.541573
 30
0.0
 11
1.733660941867461
 21
0.2385785795984712
 31
0.0
210
0.0
220
0.0
230
1.0
 40
0.450616
 41
0.0
 42
0.5290636159444709
  0
SPLINE
  5
176
330
1F
100
AcDbEntity
  8
1
100
AcDbSpline
210
0.0
220
0.0
230
1.0
 70
     8
 71
     3
 72
     8
 73
     4
 74
     0
 42
0.000000001
 43
0.0000000001
 40
0.0
 40
0.0
 40
0.0
 40
0.0
 40
1.0
 40
1.0
 40
1.0
 40
1.0
 10
238.2517374429307
 20
176.996515671567
 30
0.0
 10
238.2813833310636
 20
176.6725367578234
 30
0.0
 10
238.3123410033425
 20
176.3439240602644
 30
0.0
 10
238.3446365923542
 20
176.0105852673936
 30
0.0
  0
SPLINE
  5
177
330
1F
100
AcDbEntity
  8
1
100
AcDbSpline
210
0.0
220
0.0
230
1.0
 70
     8
 71
     3
 72
    12
 73
     8
 74
     0
 42
0.000000001
 43
0.0000000001
 40
0.0
 40
0.0
 40
0.0
 40
0.0
 40
0.4999999999999999
 40
0.4999999999999999
 40
0.75
 40
0.75
 40
1.0
 40
1.0
 40
1.0
 40
1.0
 10
232.9219507035224
 20
171.0013979889995
 30
0.0
 10
232.7049269447026
 20
170.8972608383207
 30
0.0
 10
232.5497779793729
 20
170.6905156570042
 30
0.0
 10
232.4847306070873
 20
170.3497361212398
 30
0.0
 10
232.490457040487
 20
170.2316805877028
 30
0.0
 10
232.5569378806136
 20
170.0114569294068
 30
0.0
 10
232.6172894983914
 20
169.9100707411899
 30
0.0
 10
232.699602925759
 20
169.8271756231761
 30
0.0
  0
SPLINE
  5
178
330
1F
100
AcDbEntity
  8
1
100
AcDbSpline
210
0.0
220
0.0
230
1.0
 70
     8
 71
     3
 72
     8
 73
     4
 74
     0
 42
0.000000001
 43
0.0000000001
 40
0.0
 40
0.0
 40
0.0
 40
0.0
 40
1.0
 40
1.0
 40
1.0
 40
1.0
 10
238.3446365923547
 20
176.0105852673927
 30
0.0
 10
238.1157583215834
 20
175.9465625937502
 30
0.0
 10
237.8800535171781
 20
175.8950906414552
 30
0.0
 10
237.6369319722561
 20
175.8572545179023
 30
0.0
  0
SPLINE
  5
179
330
1F
100
AcDbEntity
  8
1
100
AcDbSpline
210
0.0
220
0.0
230
1.0
 70
     8
 71
     3
 72
    10
 73
     6
 74
     0
 42
0.000000001
 43
0.0000000001
 40
0.0
 40
0.0
 40
0.0
 40
0.0
 40
0.5
 40
0.5
 40
1.0
 40
1.0
 40
1.0
 40
1.0
 10
234.2835284148961
 20
162.4291839130611
 30
0.0
 10
234.3162896116541
 20
162.5599428737007
 30
0.0
 10
234.3661423330219
 20
162.6877469531276
 30
0.0
 10
234.4966233806406
 20
162.930814881876
 30
0.0
 10
234.5787183006794
 20
163.0482893724462
 30
0.0
 10
234.6747136020582
 20
163.155376887587
 30
0.0
  0
SPLINE
  5
17A
330
1F
100
AcDbEntity
  8
1
100
AcDbSpline
210
0.0
220
0.0
230
1.0
 70
     8
 71
     3
 72
    18
 73
    14
 74
     0
 42
0.000000001
 43
0.0000000001
 40
0.0
 40
0.0
 40
0.0
 40
0.0
 40
0.2500000000000001
 40
0.2500000000000001
 40
0.5
 40
0.5
 40
0.625
 40
0.625
 40
0.75
 40
0.75
 40
0.8750000000000001
 40
0.8750000000000001
 40
1.0
 40
1.0
 40
1.0
 40
1.0
 10
226.1303216032667
 20
164.6139782136227
 30
0.0
 10
226.5423811185006
 20
164.9423850669049
 30
0.0
 10
227.0400341580768
 20
165.2257264522108
 30
0.0
 10
228.2093184180785
 20
165.7140541043061
 30
0.0
 10
228.8571756516702
 20
165.9087500679979
 30
0.0
 10
229.9153153618929
 20
166.1249491026647
 30
0.0
 10
230.2853823506109
 20
166.1843800145629
 30
0.0
 10
231.0377973061471
 20
166.2724945771969
 30
0.0
 10
231.4209338880893
 20
166.301572904177
 30
0.0
 10
232.2000613468859
 20
166.3279988198569
 30
0.0
 10
232.5960578519028
 20
166.3253478064446
 30
0.0
 10
233.4002528321097
 20
166.2846422782534
 30
0.0
 10
233.8069790066629
 20
166.246453380347
 30
0.0
 10
234.2113258574676
 20
166.189562673769
 30
0.0
  0
SPLINE
  5
17B
330
1F
100
AcDbEntity
  8
1
100
AcDbSpline
210
0.0
220
0.0
230
1.0
 70
     8
 71
     3
 72
    14
 73
    10
 74
     0
 42
0.000000001
 43
0.0000000001
 40
0.0
 40
0.0
 40
0.0
 40
0.0
 40
0.2764527118368676
 40
0.2764527118368676
 40
0.5540765605364263
 40
0.5540765605364263
 40
0.8433732362105825
 40
0.8433732362105825
 40
1.0
 40
1.0
 40
1.0
 40
1.0
 10
238.6546539345596
 20
180.4213098184685
 30
0.0
 10
238.6532870660078
 20
180.4306700076317
 30
0.0
 10
238.6502359628801
 20
180.4398567803481
 30
0.0
 10
238.6414131688479
 20
180.4564361026289
 30
0.0
 10
238.635517074475
 20
180.464046198576
 30
0.0
 10
238.6215241797084
 20
180.4770660893064
 30
0.0
 10
238.6131632192943
 20
180.4825471616138
 30
0.0
 10
238.5993727029111
 20
180.4886573736529
 30
0.0
 10
238.5942851511588
 20
180.4903902531733
 30
0.0
 10
238.5890948512686
 20
180.4916616920671
 30
0.0
  0
SPLINE
  5
17C
330
1F
100
AcDbEntity
  8
1
100
AcDbSpline
210
0.0
220
0.0
230
1.0
 70
     8
 71
     3
 72
     8
 73
     4
 74
     0
 42
0.000000001
 43
0.0000000001
 40
0.0
 40
0.0
 40
0.0
 40
0.0
 40
1.0
 40
1.0
 40
1.0
 40
1.0
 10
236.5385456458424
 20
181.6978966058964
 30
0.0
 10
236.6200789005129
 20
181.6852701582058
 30
0.0
 10
236.7057786745659
 20
181.6956725219272
 30
0.0
 10
236.7855294329596
 20
181.7295128418934
 30
0.0
  0
SPLINE
  5
17D
330
1F
100
AcDbEntity
  8
1
100
AcDbSpline
210
0.0
220
0.0
230
1.0
 70
     8
 71
     3
 72
    18
 73
    14
 74
     0
 42
0.000000001
 43
0.0000000001
 40
0.0
 40
0.0
 40
0.0
 40
0.0
 40
0.0584137220008794
 40
0.0584137220008794
 40
0.121186140534154
 40
0.121186140534154
 40
0.2467309776007033
 40
0.2467309776007033
 40
0.4978206517338021
 40
0.4978206517338021
 40
0.7489103258669009
 40
0.7489103258669009
 40
1.0
 40
1.0
 40
1.0
 40
1.0
 10
232.5802522976714
 20
180.8591555885078
 30
0.0
 10
232.5805824152154
 20
180.7897664786375
 30
0.0
 10
232.5824270722276
 20
180.7193918229058
 30
0.0
 10
232.5886459617543
 20
180.5821691478886
 30
0.0
 10
232.5931871024073
 20
180.5146448844819
 30
0.0
 10
232.6087466506473
 20
180.3284178874657
 30
0.0
 10
232.6219179413265
 20
180.2207665383699
 30
0.0
 10
232.6632802594785
 20
179.9344625595092
 30
0.0
 10
232.6943373002352
 20
179.7829266701865
 30
0.0
 10
232.757788054657
 20
179.5125413413296
 30
0.0
 10
232.7903393293314
 20
179.3955465249649
 30
0.0
 10
232.8564214008762
 20
179.1809722468283
 30
0.0
 10
232.8899696490149
 20
179.083821831553
 30
0.0
 10
232.9238968130509
 20
178.9934121657811
 30
0.0
  0
SPLINE
  5
17E
330
1F
100
AcDbEntity
  8
1
100
AcDbSpline
210
0.0
220
0.0
230
1.0
 70
     8
 71
     3
 72
    10
 73
     6
 74
     0
 42
0.000000001
 43
0.0000000001
 40
0.0
 40
0.0
 40
0.0
 40
0.0
 40
0.5
 40
0.5
 40
1.0
 40
1.0
 40
1.0
 40
1.0
 10
238.5413501327488
 20
181.1131739780775
 30
0.0
 10
238.4750154708406
 20
181.0290483107035
 30
0.0
 10
238.4362936615809
 20
180.9241108066418
 30
0.0
 10
238.4361633280762
 20
180.7073859150552
 30
0.0
 10
238.4749880464805
 20
180.6035399833131
 30
0.0
 10
238.5413501327488
 20
180.5216609196759
 30
0.0
  0
SPLINE
  5
17F
330
1F
100
AcDbEntity
  8
1
100
AcDbSpline
210
0.0
220
0.0
230
1.0
 70
     8
 71
     3
 72
    10
 73
     6
 74
     0
 42
0.000000001
 43
0.0000000001
 40
0.0
 40
0.0
 40
0.0
 40
0.0
 40
0.5
 40
0.5
 40
1.0
 40
1.0
 40
1.0
 40
1.0
 10
238.6546539345596
 20
181.2171360059953
 30
0.0
 10
238.669909413585
 20
181.323099485961
 30
0.0
 10
238.6496938348634
 20
181.4315326182083
 30
0.0
 10
238.5433073906584
 20
181.6177386926897
 30
0.0
 10
238.4598651004475
 20
181.6904799425461
 30
0.0
 10
238.3606930954205
 20
181.731287758712
 30
0.0
  0
SPLINE
  5
180
330
1F
100
AcDbEntity
  8
1
100
AcDbSpline
210
0.0
220
0.0
230
1.0
 70
     8
 71
     3
 72
     8
 73
     4
 74
     0
 42
0.000000001
 43
0.0000000001
 40
0.0
 40
0.0
 40
0.0
 40
0.0
 40
1.0
 40
1.0
 40
1.0
 40
1.0
 10
238.3606930954205
 20
181.731287758712
 30
0.0
 10
238.3533356031201
 20
181.7343152581879
 30
0.0
 10
238.3454716774057
 20
181.7363050511682
 30
0.0
 10
238.3375703915433
 20
181.7372012497264
 30
0.0
  0
SPLINE
  5
181
330
1F
100
AcDbEntity
  8
1
100
AcDbSpline
210
0.0
220
0.0
230
1.0
 70
     8
 71
     3
 72
    10
 73
     6
 74
     0
 42
0.000000001
 43
0.0000000001
 40
0.0
 40
0.0
 40
0.0
 40
0.0
 40
0.5
 40
0.5
 40
1.0
 40
1.0
 40
1.0
 40
1.0
 10
237.7040302675052
 20
181.9861739397105
 30
0.0
 10
237.7404873183648
 20
181.8882310986204
 30
0.0
 10
237.809542752464
 20
181.8030499067827
 30
0.0
 10
237.9960230068361
 20
181.6933808831239
 30
0.0
 10
238.1067354302845
 20
181.6731046786657
 30
0.0
 10
238.2131853763297
 20
181.6871500396064
 30
0.0
  0
SPLINE
  5
182
330
1F
100
AcDbEntity
  8
1
100
AcDbSpline
210
0.0
220
0.0
230
1.0
 70
     8
 71
     3
 72
    10
 73
     6
 74
     0
 42
0.000000001
 43
0.0000000001
 40
0.0
 40
0.0
 40
0.0
 40
0.0
 40
0.7163205516365649
 40
0.7163205516365649
 40
1.0
 40
1.0
 40
1.0
 40
1.0
 10
236.4917129578465
 20
181.7234421513203
 30
0.0
 10
236.4851831114742
 20
181.7306869485152
 30
0.0
 10
236.4773155849315
 20
181.736783406315
 30
0.0
 10
236.4653257252268
 20
181.7429646672373
 30
0.0
 10
236.4617742811721
 20
181.7444744959019
 30
0.0
 10
236.4581206966272
 20
181.7457207942738
 30
0.0
  0
SPLINE
  5
183
330
1F
100
AcDbEntity
  8
1
100
AcDbSpline
210
0.0
220
0.0
230
1.0
 70
     8
 71
     3
 72
    10
 73
     6
 74
     0
 42
0.000000001
 43
0.0000000001
 40
0.0
 40
0.0
 40
0.0
 40
0.0
 40
0.7352208946821533
 40
0.7352208946821533
 40
1.0
 40
1.0
 40
1.0
 40
1.0
 10
237.675671922413
 20
182.1335967982492
 30
0.0
 10
237.5937103708917
 20
182.1991670805529
 30
0.0
 10
237.4912551146468
 20
182.2357058367685
 30
0.0
 10
237.3464766215296
 20
182.2366783589846
 30
0.0
 10
237.308362131534
 20
182.2322685362472
 30
0.0
 10
237.271270253283
 20
182.2235072514096
 30
0.0
  0
SPLINE
  5
184
330
1F
100
AcDbEntity
  8
1
100
AcDbSpline
210
0.0
220
0.0
230
1.0
 70
     8
 71
     3
 72
    16
 73
    12
 74
     0
 42
0.000000001
 43
0.0000000001
 40
0.0
 40
0.0
 40
0.0
 40
0.0
 40
0.3136385766195316
 40
0.3136385766195316
 40
0.6272771532390632
 40
0.6272771532390632
 40
0.7840964415488291
 40
0.7840964415488291
 40
0.9409157298585945
 40
0.9409157298585945
 40
1.0
 40
1.0
 40
1.0
 40
1.0
 10
232.9238968130509
 20
178.9934121657811
 30
0.0
 10
232.9630991057927
 20
178.9057633806049
 30
0.0
 10
233.0074417971424
 20
178.8133530856034
 30
0.0
 10
233.1114444614098
 20
178.6144273323037
 30
0.0
 10
233.1706380719843
 20
178.5085199783939
 30
0.0
 10
233.2791379699076
 20
178.3318130823765
 30
0.0
 10
233.3186341771237
 20
178.2698956348204
 30
0.0
 10
233.4080576806154
 20
178.136577907897
 30
0.0
 10
233.458146903094
 20
178.0649011724456
 30
0.0
 10
233.5379737421864
 20
177.9573222455928
 30
0.0
 10
233.5610611409132
 20
177.9267746345281
 30
0.0
 10
233.5856852360739
 20
177.894978940846
 30
0.0
  0
SPLINE
  5
185
330
1F
100
AcDbEntity
  8
1
100
AcDbSpline
210
0.0
220
0.0
230
1.0
 70
     8
 71
     3
 72
     8
 73
     4
 74
     0
 42
0.000000001
 43
0.0000000001
 40
0.0
 40
0.0
 40
0.0
 40
0.0
 40
1.0
 40
1.0
 40
1.0
 40
1.0
 10
238.2131853763297
 20
181.6871500396064
 30
0.0
 10
238.2213181608973
 20
181.6882231063288
 30
0.0
 10
238.2293521437179
 20
181.6904505595155
 30
0.0
 10
238.2368783104099
 20
181.693655909342
 30
0.0
  0
SPLINE
  5
186
330
1F
100
AcDbEntity
  8
1
100
AcDbSpline
210
0.0
220
0.0
230
1.0
 70
     8
 71
     3
 72
    10
 73
     6
 74
     0
 42
0.000000001
 43
0.0000000001
 40
0.0
 40
0.0
 40
0.0
 40
0.0
 40
0.1510100553977025
 40
0.1510100553977025
 40
1.0
 40
1.0
 40
1.0
 40
1.0
 10
237.9545391438952
 20
179.9153026306538
 30
0.0
 10
237.9369893785527
 20
179.9078544698349
 30
0.0
 10
237.9198577483389
 20
179.8993686831038
 30
0.0
 10
237.8099510382084
 20
179.8363161043835
 30
0.0
 10
237.7405020374864
 20
179.753788701581
 30
0.0
 10
237.7040302675052
 20
179.6594075243331
 30
0.0
  0
SPLINE
  5
187
330
1F
100
AcDbEntity
  8
1
100
AcDbSpline
210
0.0
220
0.0
230
1.0
 70
     8
 71
     3
 72
    10
 73
     6
 74
     0
 42
0.000000001
 43
0.0000000001
 40
0.0
 40
0.0
 40
0.0
 40
0.0
 40
0.3894941956928695
 40
0.3894941956928695
 40
1.0
 40
1.0
 40
1.0
 40
1.0
 10
238.4614665075658
 20
179.9674064573824
 30
0.0
 10
238.5162026872284
 20
180.0071500656042
 30
0.0
 10
238.5623838246073
 20
180.0579258329818
 30
0.0
 10
238.6496065898336
 20
180.2092571858789
 30
0.0
 10
238.6699098093266
 20
180.3168390019601
 30
0.0
 10
238.6546539345596
 20
180.4213098184685
 30
0.0
  0
SPLINE
  5
188
330
1F
100
AcDbEntity
  8
1
100
AcDbSpline
210
0.0
220
0.0
230
1.0
 70
     8
 71
     3
 72
    14
 73
    10
 74
     0
 42
0.000000001
 43
0.0000000001
 40
0.0
 40
0.0
 40
0.0
 40
0.0
 40
0.024774775794408
 40
0.024774775794408
 40
0.4545441739832798
 40
0.4545441739832798
 40
0.8712682772678114
 40
0.8712682772678114
 40
1.0
 40
1.0
 40
1.0
 40
1.0
 10
238.6157864171772
 20
181.15660573236
 30
0.0
 10
238.6162906637292
 20
181.1569389211609
 30
0.0
 10
238.6167912866383
 20
181.1572770247998
 30
0.0
 10
238.6259000904414
 20
181.1635645251539
 30
0.0
 10
238.6336190020019
 20
181.1711447008003
 30
0.0
 10
238.6455863364427
 20
181.1881067321434
 30
0.0
 10
238.650101773851
 20
181.197682063825
 30
0.0
 10
238.6535468629461
 20
181.2107587301549
 30
0.0
 10
238.6541931277581
 20
181.2139352744941
 30
0.0
 10
238.6546539345596
 20
181.2171360059953
 30
0.0
  0
SPLINE
  5
189
330
1F
100
AcDbEntity
  8
1
100
AcDbSpline
210
0.0
220
0.0
230
1.0
 70
     8
 71
     3
 72
    10
 73
     6
 74
     0
 42
0.000000001
 43
0.0000000001
 40
0.0
 40
0.0
 40
0.0
 40
0.0
 40
0.5275641435890669
 40
0.5275641435890669
 40
1.0
 40
1.0
 40
1.0
 40
1.0
 10
238.5413501327488
 20
180.5216609196759
 30
0.0
 10
238.5476838533653
 20
180.5138462299551
 30
0.0
 10
238.555496719657
 20
180.50711350785
 30
0.0
 10
238.5718013839888
 20
180.4973060883033
 30
0.0
 10
238.5803182502004
 20
180.4938116472121
 30
0.0
 10
238.5890948512686
 20
180.4916616920671
 30
0.0
  0
SPLINE
  5
18A
330
1F
100
AcDbEntity
  8
1
100
AcDbSpline
210
0.0
220
0.0
230
1.0
 70
     8
 71
     3
 72
    10
 73
     6
 74
     0
 42
0.000000001
 43
0.0000000001
 40
0.0
 40
0.0
 40
0.0
 40
0.0
 40
0.5386513471140897
 40
0.5386513471140897
 40
1.0
 40
1.0
 40
1.0
 40
1.0
 10
237.7026369586072
 20
182.0421195032374
 30
0.0
 10
237.6996418323882
 20
182.0323556431812
 30
0.0
 10
237.6983146602651
 20
182.0219862233632
 30
0.0
 10
237.6992164111607
 20
182.0031258411315
 30
0.0
 10
237.7009761952109
 20
181.9943787865191
 30
0.0
 10
237.7040302675052
 20
181.9861739397105
 30
0.0
  0
SPLINE
  5
18B
330
1F
100
AcDbEntity
  8
1
100
AcDbSpline
210
0.0
220
0.0
230
1.0
 70
     8
 71
     3
 72
    10
 73
     6
 74
     0
 42
0.000000001
 43
0.0000000001
 40
0.0
 40
0.0
 40
0.0
 40
0.0
 40
0.5373397090275561
 40
0.5373397090275561
 40
1.0
 40
1.0
 40
1.0
 40
1.0
 10
236.4917129578465
 20
181.7234421513203
 30
0.0
 10
236.4982360509572
 20
181.7162048467995
 30
0.0
 10
236.5060929160234
 20
181.7101134315149
 30
0.0
 10
236.5220910606587
 20
181.701860793754
 30
0.0
 10
236.5302139192692
 20
181.6991868783157
 30
0.0
 10
236.5385456458424
 20
181.6978966058964
 30
0.0
  0
SPLINE
  5
18C
330
1F
100
AcDbEntity
  8
1
100
AcDbSpline
210
0.0
220
0.0
230
1.0
 70
     8
 71
     3
 72
    14
 73
    10
 74
     0
 42
0.000000001
 43
0.0000000001
 40
0.0
 40
0.0
 40
0.0
 40
0.0
 40
0.3040655795356315
 40
0.3040655795356315
 40
0.6107538131668998
 40
0.6107538131668998
 40
0.908132810757684
 40
0.908132810757684
 40
1.0
 40
1.0
 40
1.0
 40
1.0
 10
237.7026369586072
 20
182.0421195032374
 30
0.0
 10
237.7056351996569
 20
182.0518935173802
 30
0.0
 10
237.7069613275773
 20
182.0622750150613
 30
0.0
 10
237.7059824356302
 20
182.0826584825724
 30
0.0
 10
237.7036258419653
 20
182.0929505678116
 30
0.0
 10
237.6955432955571
 20
182.1114990205072
 30
0.0
 10
237.6897943580626
 20
182.1200771435948
 30
0.0
 10
237.680505012571
 20
182.1294906052633
 30
0.0
 10
237.6781477194624
 20
182.1316161291617
 30
0.0
 10
237.675671922413
 20
182.1335967982492
 30
0.0
  0
SPLINE
  5
18D
330
1F
100
AcDbEntity
  8
1
100
AcDbSpline
210
0.0
220
0.0
230
1.0
 70
     8
 71
     3
 72
    10
 73
     6
 74
     0
 42
0.000000001
 43
0.0000000001
 40
0.0
 40
0.0
 40
0.0
 40
0.0
 40
0.5281910294147043
 40
0.5281910294147043
 40
1.0
 40
1.0
 40
1.0
 40
1.0
 10
237.7040302675052
 20
179.6594075243331
 30
0.0
 10
237.7005452510177
 20
179.6503890434919
 30
0.0
 10
237.6987499419849
 20
179.6406716637675
 30
0.0
 10
237.6986576783709
 20
179.6224667895617
 30
0.0
 10
237.7000049908253
 20
179.6137557595835
 30
0.0
 10
237.7026369586072
 20
179.6054773937655
 30
0.0
  0
SPLINE
  5
18E
330
1F
100
AcDbEntity
  8
1
100
AcDbSpline
210
0.0
220
0.0
230
1.0
 70
     8
 71
     3
 72
    10
 73
     6
 74
     0
 42
0.000000001
 43
0.0000000001
 40
0.0
 40
0.0
 40
0.0
 40
0.0
 40
0.4077594890580058
 40
0.4077594890580058
 40
1.0
 40
1.0
 40
1.0
 40
1.0
 10
238.5770343203236
 20
181.1403720557249
 30
0.0
 10
238.5713863698716
 20
181.1379624190853
 30
0.0
 10
238.5659632002613
 20
181.134987325791
 30
0.0
 10
238.5535901798014
 20
181.1264522027969
 30
0.0
 10
238.5469071398323
 20
181.1202213785777
 30
0.0
 10
238.5413501327488
 20
181.1131739780775
 30
0.0
  0
SPLINE
  5
18F
330
1F
100
AcDbEntity
  8
1
100
AcDbSpline
210
0.0
220
0.0
230
1.0
 70
     8
 71
     3
 72
    14
 73
    10
 74
     0
 42
0.000000001
 43
0.0000000001
 40
0.0
 40
0.0
 40
0.0
 40
0.0
 40
0.2759548436939029
 40
0.2759548436939029
 40
0.5535523911871846
 40
0.5535523911871846
 40
0.842818882912906
 40
0.842818882912906
 40
1.0
 40
1.0
 40
1.0
 40
1.0
 10
237.675671922413
 20
179.5174137527031
 30
0.0
 10
237.6830024665073
 20
179.523032943274
 30
0.0
 10
237.6893278707666
 20
179.5299603085056
 30
0.0
 10
237.6990680548999
 20
179.5452151908645
 30
0.0
 10
237.7026010184853
 20
179.5537522893975
 30
0.0
 10
237.7066530814352
 20
179.5715881164133
 30
0.0
 10
237.7070987053575
 20
179.5811395098343
 30
0.0
 10
237.7053127962596
 20
179.5954999794367
 30
0.0
 10
237.7042009736556
 20
179.600558074918
 30
0.0
 10
237.7026369586072
 20
179.6054773937655
 30
0.0
  0
SPLINE
  5
190
330
1F
100
AcDbEntity
  8
1
100
AcDbSpline
210
0.0
220
0.0
230
1.0
 70
    24
 71
     1
 72
     4
 73
     2
 74
     0
 42
0.000000001
 43
0.0000000001
 40
0.0
 40
0.0
 40
1.0
 40
1.0
 10
233.9891544497002
 20
177.3201858431339
 30
0.0
 10
233.9219507035223
 20
177.2441116776093
 30
0.0
  0
SPLINE
  5
191
330
1F
100
AcDbEntity
  8
1
100
AcDbSpline
210
0.0
220
0.0
230
1.0
 70
     8
 71
     3
 72
     8
 73
     4
 74
     0
 42
0.000000001
 43
0.0000000001
 40
0.0
 40
0.0
 40
0.0
 40
0.0
 40
1.0
 40
1.0
 40
1.0
 40
1.0
 10
232.9219507035223
 20
183.2100910757215
 30
0.0
 10
232.8786069016165
 20
183.2166064860117
 30
0.0
 10
232.8377311454605
 20
183.2243265871846
 30
0.0
 10
232.7997210294641
 20
183.2329896667784
 30
0.0
  0
SPLINE
  5
192
330
1F
100
AcDbEntity
  8
1
100
AcDbSpline
210
0.0
220
0.0
230
1.0
 70
     8
 71
     3
 72
    10
 73
     6
 74
     0
 42
0.000000001
 43
0.0000000001
 40
0.0
 40
0.0
 40
0.0
 40
0.0
 40
0.5
 40
0.5
 40
1.0
 40
1.0
 40
1.0
 40
1.0
 10
232.6598620964476
 20
178.8154985266124
 30
0.0
 10
232.6642106043534
 20
178.862806680305
 30
0.0
 10
232.6725833263004
 20
178.9088387748807
 30
0.0
 10
232.6967352349316
 20
178.9972281795927
 30
0.0
 10
232.7127218467928
 20
179.0400773719355
 30
0.0
 10
232.7318848109278
 20
179.080080236904
 30
0.0
  0
SPLINE
  5
193
330
1F
100
AcDbEntity
  8
1
100
AcDbSpline
210
0.0
220
0.0
230
1.0
 70
     8
 71
     3
 72
     8
 73
     4
 74
     0
 42
0.000000001
 43
0.0000000001
 40
0.0
 40
0.0
 40
0.0
 40
0.0
 40
1.0
 40
1.0
 40
1.0
 40
1.0
 10
232.6899335632272
 20
178.5330096061438
 30
0.0
 10
232.6616550586531
 20
178.6231210348215
 30
0.0
 10
232.6510048359513
 20
178.7191388901677
 30
0.0
 10
232.6598620964481
 20
178.8154985266123
 30
0.0
  0
SPLINE
  5
194
330
1F
100
AcDbEntity
  8
1
100
AcDbSpline
210
0.0
220
0.0
230
1.0
 70
     8
 71
     3
 72
    11
 73
     7
 74
     0
 42
0.000000001
 43
0.0000000001
 40
0.0
 40
0.0
 40
0.0
 40
0.0
 40
0.2413638977673694
 40
0.4989512088945368
 40
0.9909197077008307
 40
1.0
 40
1.0
 40
1.0
 40
1.0
 10
225.0277341884207
 20
183.6740804621224
 30
0.0
 10
225.6286000120724
 20
183.6802038882034
 30
0.0
 10
226.8707192016764
 20
183.692862329975
 30
0.0
 10
229.3377088878712
 20
183.709369053716
 30
0.0
 10
231.2264704989497
 20
183.7146200605325
 30
0.0
 10
232.4739746743061
 20
183.7145366376079
 30
0.0
 10
232.4965826573165
 20
183.71453512577
 30
0.0
  0
SPLINE
  5
195
330
1F
100
AcDbEntity
  8
1
100
AcDbSpline
210
0.0
220
0.0
230
1.0
 70
     8
 71
     3
 72
     8
 73
     4
 74
     0
 42
0.000000001
 43
0.0000000001
 40
0.0
 40
0.0
 40
0.0
 40
0.0
 40
1.0
 40
1.0
 40
1.0
 40
1.0
 10
235.047112913368
 20
162.3034420867117
 30
0.0
 10
234.8224371345258
 20
162.4060646723935
 30
0.0
 10
234.5981684245272
 20
162.5089919414765
 30
0.0
 10
234.374371228222
 20
162.6122651975837
 30
0.0
  0
SPLINE
  5
196
330
1F
100
AcDbEntity
  8
1
100
AcDbSpline
210
0.0
220
0.0
230
1.0
 70
     8
 71
     3
 72
     9
 73
     5
 74
     0
 42
0.000000001
 43
0.0000000001
 40
0.0
 40
0.0
 40
0.0
 40
0.0
 40
0.5020466281096752
 40
1.0
 40
1.0
 40
1.0
 40
1.0
 10
234.2679698111948
 20
177.1902457572301
 30
0.0
 10
234.209821546566
 20
177.1986370682917
 30
0.0
 10
234.0939991082245
 20
177.2153512748845
 30
0.0
 10
233.9791434605583
 20
177.2345510732657
 30
0.0
 10
233.9219507035223
 20
177.2441116776093
 30
0.0
  0
SPLINE
  5
197
330
1F
100
AcDbEntity
  8
1
100
AcDbSpline
210
0.0
220
0.0
230
1.0
 70
     8
 71
     3
 72
     8
 73
     4
 74
     0
 42
0.000000001
 43
0.0000000001
 40
0.0
 40
0.0
 40
0.0
 40
0.0
 40
1.0
 40
1.0
 40
1.0
 40
1.0
 10
232.9219507035223
 20
183.2100910757215
 30
0.0
 10
233.000236826799
 20
183.1983231598776
 30
0.0
 10
233.0849934638608
 20
183.1961175689263
 30
0.0
 10
233.1702048775786
 20
183.2042656485043
 30
0.0
  0
SPLINE
  5
198
330
1F
100
AcDbEntity
  8
1
100
AcDbSpline
210
0.0
220
0.0
230
1.0
 70
     8
 71
     3
 72
    10
 73
     6
 74
     0
 42
0.000000001
 43
0.0000000001
 40
0.0
 40
0.0
 40
0.0
 40
0.0
 40
0.5
 40
0.5
 40
1.0
 40
1.0
 40
1.0
 40
1.0
 10
236.4728303571178
 20
175.6769333877365
 30
0.0
 10
236.297218667895
 20
175.6498565512705
 30
0.0
 10
236.1237244308172
 20
175.6363964033851
 30
0.0
 10
235.7810805451221
 20
175.6374148302069
 30
0.0
 10
235.6213660349395
 20
175.6518979951884
 30
0.0
 10
235.4728303571178
 20
175.6791658929384
 30
0.0
  0
SPLINE
  5
199
330
1F
100
AcDbEntity
  8
1
100
AcDbSpline
210
0.0
220
0.0
230
1.0
 70
     8
 71
     3
 72
     8
 73
     4
 74
     0
 42
0.000000001
 43
0.0000000001
 40
0.0
 40
0.0
 40
0.0
 40
0.0
 40
1.0
 40
1.0
 40
1.0
 40
1.0
 10
234.2835172296475
 20
177.2744551354453
 30
0.0
 10
234.2767500177039
 20
177.246317395921
 30
0.0
 10
234.271562638092
 20
177.2182302260109
 30
0.0
 10
234.267969812458
 20
177.1902457471765
 30
0.0
  0
SPLINE
  5
19A
330
1F
100
AcDbEntity
  8
1
100
AcDbSpline
210
0.0
220
0.0
230
1.0
 70
     8
 71
     3
 72
     8
 73
     4
 74
     0
 42
0.000000001
 43
0.0000000001
 40
0.0
 40
0.0
 40
0.0
 40
0.0
 40
1.0
 40
1.0
 40
1.0
 40
1.0
 10
234.2791491484866
 20
176.9505352105206
 30
0.0
 10
234.2723321152906
 20
177.0296628298656
 30
0.0
 10
234.2686006334336
 20
177.1096368357897
 30
0.0
 10
234.2679698086993
 20
177.190245756646
 30
0.0
  0
SPLINE
  5
19B
330
1F
100
AcDbEntity
  8
1
100
AcDbSpline
210
0.0
220
0.0
230
1.0
 70
     8
 71
     3
 72
     8
 73
     4
 74
     0
 42
0.000000001
 43
0.0000000001
 40
0.0
 40
0.0
 40
0.0
 40
0.0
 40
1.0
 40
1.0
 40
1.0
 40
1.0
 10
234.6747136020584
 20
177.3655943874818
 30
0.0
 10
234.4830443128158
 20
177.3362119173813
 30
0.0
 10
234.3486262228204
 20
177.3075848160136
 30
0.0
 10
234.2835284147164
 20
177.2744608318275
 30
0.0
  0
SPLINE
  5
19C
330
1F
100
AcDbEntity
  8
1
100
AcDbSpline
210
0.0
220
0.0
230
1.0
 70
     8
 71
     3
 72
     8
 73
     4
 74
     0
 42
0.000000001
 43
0.0000000001
 40
0.0
 40
0.0
 40
0.0
 40
0.0
 40
1.0
 40
1.0
 40
1.0
 40
1.0
 10
235.4728303571179
 20
175.6791658929384
 30
0.0
 10
235.1056095303409
 20
175.746579595175
 30
0.0
 10
234.7393633008042
 20
175.8148010691323
 30
0.0
 10
234.374371228222
 20
175.884034173357
 30
0.0
  0
SPLINE
  5
19D
330
1F
100
AcDbEntity
  8
1
100
AcDbSpline
210
0.0
220
0.0
230
1.0
 70
     8
 71
     3
 72
    10
 73
     6
 74
     0
 42
0.000000001
 43
0.0000000001
 40
0.0
 40
0.0
 40
0.0
 40
0.0
 40
0.5
 40
0.5
 40
1.0
 40
1.0
 40
1.0
 40
1.0
 10
232.9219507035224
 20
171.0013979889995
 30
0.0
 10
233.035770112976
 20
171.0560133410554
 30
0.0
 10
233.1632668688844
 20
171.0755554958196
 30
0.0
 10
233.4086396236256
 20
171.0400729255894
 30
0.0
 10
233.525205998592
 20
170.985917406905
 30
0.0
 10
233.6232331926506
 20
170.9106740712256
 30
0.0
  0
SPLINE
  5
19E
330
1F
100
AcDbEntity
  8
1
100
AcDbSpline
210
0.0
220
0.0
230
1.0
 70
     8
 71
     3
 72
     8
 73
     4
 74
     0
 42
0.000000001
 43
0.0000000001
 40
0.0
 40
0.0
 40
0.0
 40
0.0
 40
1.0
 40
1.0
 40
1.0
 40
1.0
 10
232.9238968130509
 20
170.8968705263362
 30
0.0
 10
232.9237001432598
 20
170.9166891503044
 30
0.0
 10
232.9236267151126
 20
170.9365306256962
 30
0.0
 10
232.9236739103994
 20
170.9563927337976
 30
0.0
  0
SPLINE
  5
19F
330
1F
100
AcDbEntity
  8
1
100
AcDbSpline
210
0.0
220
0.0
230
1.0
 70
     8
 71
     3
 72
    16
 73
    12
 74
     0
 42
0.000000001
 43
0.0000000001
 40
0.0
 40
0.0
 40
0.0
 40
0.0
 40
0.3136508652618433
 40
0.3136508652618433
 40
0.6273017305236867
 40
0.6273017305236867
 40
0.7841271631546091
 40
0.7841271631546091
 40
0.9409525957855315
 40
0.9409525957855315
 40
1.0
 40
1.0
 40
1.0
 40
1.0
 10
232.9238968130509
 20
178.9934121657811
 30
0.0
 10
232.9630991057927
 20
178.9057633806049
 30
0.0
 10
233.0074417971424
 20
178.8133530856034
 30
0.0
 10
233.1114444614098
 20
178.6144273323037
 30
0.0
 10
233.1706380719843
 20
178.5085199783939
 30
0.0
 10
233.2791379699076
 20
178.3318130823765
 30
0.0
 10
233.3186341771237
 20
178.2698956348204
 30
0.0
 10
233.4080576806154
 20
178.136577907897
 30
0.0
 10
233.458146903094
 20
178.0649011724456
 30
0.0
 10
233.5379592562509
 20
177.9573417676158
 30
0.0
 10
233.5610305224921
 20
177.9268151468902
 30
0.0
 10
233.5856362526541
 20
177.8950421913212
 30
0.0
  0
SPLINE
  5
1A0
330
1F
100
AcDbEntity
  8
1
100
AcDbSpline
210
0.0
220
0.0
230
1.0
 70
     8
 71
     3
 72
    18
 73
    14
 74
     0
 42
0.000000001
 43
0.0000000001
 40
0.0
 40
0.0
 40
0.0
 40
0.0
 40
0.0584137219963311
 40
0.0584137219963311
 40
0.1211861405299091
 40
0.1211861405299091
 40
0.2467309775970649
 40
0.2467309775970649
 40
0.4978206517313766
 40
0.4978206517313766
 40
0.7489103258656885
 40
0.7489103258656885
 40
1.0
 40
1.0
 40
1.0
 40
1.0
 10
232.5802522976715
 20
180.8591555884906
 30
0.0
 10
232.5805824152156
 20
180.7897664786259
 30
0.0
 10
232.5824270722279
 20
180.7193918229003
 30
0.0
 10
232.5886459617543
 20
180.5821691478886
 30
0.0
 10
232.5931871024073
 20
180.5146448844819
 30
0.0
 10
232.6087466506474
 20
180.3284178874657
 30
0.0
 10
232.6219179413265
 20
180.2207665383699
 30
0.0
 10
232.6632802594785
 20
179.9344625595092
 30
0.0
 10
232.6943373002352
 20
179.7829266701865
 30
0.0
 10
232.757788054657
 20
179.5125413413296
 30
0.0
 10
232.7903393293314
 20
179.3955465249649
 30
0.0
 10
232.8564214008763
 20
179.1809722468283
 30
0.0
 10
232.8899696490149
 20
179.083821831553
 30
0.0
 10
232.9238968130509
 20
178.9934121657811
 30
0.0
  0
SPLINE
  5
1A1
330
1F
100
AcDbEntity
  8
1
100
AcDbSpline
210
0.0
220
0.0
230
1.0
 70
     8
 71
     3
 72
    14
 73
    10
 74
     0
 42
0.000000001
 43
0.0000000001
 40
0.0
 40
0.0
 40
0.0
 40
0.0
 40
0.25
 40
0.25
 40
0.5
 40
0.5
 40
0.75
 40
0.75
 40
1.0
 40
1.0
 40
1.0
 40
1.0
 10
214.00571438055
 20
179.4473147623151
 30
0.0
 10
213.9106344560515
 20
179.4473147623151
 30
0.0
 10
213.822356322788
 20
179.4088260288123
 30
0.0
 10
213.6890569853636
 20
179.3020832958459
 30
0.0
 10
213.6404891536865
 20
179.2346959662163
 30
0.0
 10
213.568318213935
 20
179.0934776466969
 30
0.0
 10
213.5439473897625
 20
179.0175559719147
 30
0.0
 10
213.5127405437592
 20
178.8635883356853
 30
0.0
 10
213.50571438055
 20
178.7850963081816
 30
0.0
 10
213.50571438055
 20
178.7052124061512
 30
0.0
  0
SPLINE
  5
1A2
330
1F
100
AcDbEntity
  8
1
100
AcDbSpline
210
0.0
220
0.0
230
1.0
 70
     8
 71
     3
 72
    14
 73
    10
 74
     0
 42
0.000000001
 43
0.0000000001
 40
0.0
 40
0.0
 40
0.0
 40
0.0
 40
0.25
 40
0.25
 40
0.5
 40
0.5
 40
0.75
 40
0.75
 40
1.0
 40
1.0
 40
1.0
 40
1.0
 10
213.50571438055
 20
167.7238645835932
 30
0.0
 10
213.50571438055
 20
167.643951530515
 30
0.0
 10
213.5127550581435
 20
167.5656840969276
 30
0.0
 10
213.5436540548237
 20
167.4127036088895
 30
0.0
 10
213.567612849412
 20
167.3372100298359
 30
0.0
 10
213.6403369421682
 20
167.194451072199
 30
0.0
 10
213.6888404340042
 20
167.1271961799038
 30
0.0
 10
213.8223764256419
 20
167.0202058286555
 30
0.0
 10
213.9105400325666
 20
166.9817622274292
 30
0.0
 10
214.00571438055
 20
166.9817622274292
 30
0.0
  0
SPLINE
  5
1A3
330
1F
100
AcDbEntity
  8
1
100
AcDbSpline
210
0.0
220
0.0
230
1.0
 70
     8
 71
     2
 72
     9
 73
     6
 74
     0
 42
0.000000001
 43
0.0000000001
 40
0.0
 40
0.0
 40
0.0
 40
0.3203200314580663
 40
0.660160015729033
 40
0.660160015729033
 40
1.0
 40
1.0
 40
1.0
 10
232.6581606827395
 20
178.0346785468774
 30
0.0
 10
232.5096529747664
 20
178.1657626357048
 30
0.0
 10
232.35436514135
 20
178.5432705066053
 30
0.0
 10
232.3743301388635
 20
178.7548719713792
 30
0.0
 10
232.3940927210228
 20
178.9643281122958
 30
0.0
 10
232.5105069764845
 20
179.1442556265582
 30
0.0
  0
SPLINE
  5
1A4
330
1F
100
AcDbEntity
  8
1
100
AcDbSpline
210
0.0
220
0.0
230
1.0
 70
     8
 71
     3
 72
    18
 73
    14
 74
     0
 42
0.000000001
 43
0.0000000001
 40
0.0
 40
0.0
 40
0.0
 40
0.0
 40
0.0559823190599977
 40
0.1102456398971402
 40
0.1628078642473961
 40
0.2136887032207114
 40
0.2629099018312871
 40
0.3104954942878283
 40
0.4820809998301459
 40
0.6526840655541958
 40
0.7607684031795199
 40
0.8764590754137744
 40
1.0
 40
1.0
 40
1.0
 40
1.0
 10
232.6114566429917
 20
179.1043360125897
 30
0.0
 10
232.5959342439141
 20
179.0810914663235
 30
0.0
 10
232.5653660779686
 20
179.0353161229605
 30
0.0
 10
232.5297805255213
 20
178.9618910649771
 30
0.0
 10
232.5024612890902
 20
178.8877436374566
 30
0.0
 10
232.4836578379761
 20
178.8134550330586
 30
0.0
 10
232.4727399275775
 20
178.7400394586078
 30
0.0
 10
232.4660005378055
 20
178.605285534034
 30
0.0
 10
232.5006667881131
 20
178.4074992087151
 30
0.0
 10
232.6177346696113
 20
178.2072620941715
 30
0.0
 10
232.7631240512371
 20
178.0710000778608
 30
0.0
 10
232.9142975191446
 20
177.9798880829997
 30
0.0
 10
233.0308406966198
 20
177.9512143517014
 30
0.0
 10
233.0910244352684
 20
177.9364070297465
 30
0.0
  0
SPLINE
  5
1A5
330
1F
100
AcDbEntity
  8
1
100
AcDbSpline
210
0.0
220
0.0
230
1.0
 70
    24
 71
     1
 72
     4
 73
     2
 74
     0
 42
0.000000001
 43
0.0000000001
 40
0.0
 40
0.0
 40
1.0
 40
1.0
 10
232.6102896748469
 20
179.1238067492725
 30
0.0
 10
232.6114571958896
 20
179.104348389402
 30
0.0
  0
SPLINE
  5
1A6
330
1F
100
AcDbEntity
  8
1
100
AcDbSpline
210
0.0
220
0.0
230
1.0
 70
    24
 71
     3
 72
     8
 73
     4
 74
     0
 42
0.000000001
 43
0.0000000001
 40
0.0
 40
0.0
 40
0.0
 40
0.0
 40
1.0
 40
1.0
 40
1.0
 40
1.0
 10
232.6102896748469
 20
179.1238067492725
 30
0.0
 10
232.577025872003
 20
179.1306146539452
 30
0.0
 10
232.5437620691591
 20
179.1374225586178
 30
0.0
 10
232.5104982663152
 20
179.1442304632905
 30
0.0
  0
SPLINE
  5
1A7
330
1F
100
AcDbEntity
  8
1
100
AcDbSpline
210
0.0
220
0.0
230
1.0
 70
     8
 71
     3
 72
    14
 73
    10
 74
     0
 42
0.000000001
 43
0.0000000001
 40
0.0
 40
0.0
 40
0.0
 40
0.0
 40
0.25
 40
0.25
 40
0.5
 40
0.5
 40
0.75
 40
0.75
 40
1.0
 40
1.0
 40
1.0
 40
1.0
 10
223.50571438055
 20
178.7052124061512
 30
0.0
 10
223.50571438055
 20
178.7851254592293
 30
0.0
 10
223.4986737029566
 20
178.8633928928166
 30
0.0
 10
223.4677747062764
 20
179.0163733808546
 30
0.0
 10
223.4438159116881
 20
179.0918669599085
 30
0.0
 10
223.3710918189319
 20
179.2346259175453
 30
0.0
 10
223.3225883270959
 20
179.3018808098406
 30
0.0
 10
223.1890523354583
 20
179.4088711610888
 30
0.0
 10
223.1008887285335
 20
179.4473147623151
 30
0.0
 10
223.00571438055
 20
179.4473147623151
 30
0.0
  0
SPLINE
  5
1A8
330
1F
100
AcDbEntity
  8
1
100
AcDbSpline
210
0.0
220
0.0
230
1.0
 70
     8
 71
     3
 72
    14
 73
    10
 74
     0
 42
0.000000001
 43
0.0000000001
 40
0.0
 40
0.0
 40
0.0
 40
0.0
 40
0.25
 40
0.25
 40
0.5
 40
0.5
 40
0.75
 40
0.75
 40
1.0
 40
1.0
 40
1.0
 40
1.0
 10
223.00571438055
 20
166.9817622274292
 30
0.0
 10
223.1007943050486
 20
166.9817622274292
 30
0.0
 10
223.1890724383121
 20
167.0202509609321
 30
0.0
 10
223.3223717757365
 20
167.1269936938983
 30
0.0
 10
223.3709396074136
 20
167.1943810235279
 30
0.0
 10
223.443110547165
 20
167.3355993430474
 30
0.0
 10
223.4674813713376
 20
167.4115210178296
 30
0.0
 10
223.4986882173409
 20
167.565488654059
 30
0.0
 10
223.50571438055
 20
167.6439806815626
 30
0.0
 10
223.50571438055
 20
167.7238645835932
 30
0.0
  0
SPLINE
  5
1A9
330
1F
100
AcDbEntity
  8
1
100
AcDbSpline
210
0.0
220
0.0
230
1.0
 70
     8
 71
     3
 72
    17
 73
    13
 74
     0
 42
0.000000001
 43
0.0000000001
 40
0.0
 40
0.0
 40
0.0
 40
0.0
 40
0.063925884400228
 40
0.1249026082552416
 40
0.1829489541281492
 40
0.2380867332589117
 40
0.2903414333990469
 40
0.3397430395143647
 40
0.5131685147002464
 40
0.6754834131504737
 40
0.8403676800331268
 40
1.0
 40
1.0
 40
1.0
 40
1.0
 10
225.0416430962624
 20
183.5661735741453
 30
0.0
 10
225.0091720029724
 20
183.5668489598463
 30
0.0
 10
224.9457278397375
 20
183.5681685729641
 30
0.0
 10
224.8547113833687
 20
183.5689300666488
 30
0.0
 10
224.7701515506111
 20
183.5688979500442
 30
0.0
 10
224.6923660664598
 20
183.5680623066329
 30
0.0
 10
224.6214168284137
 20
183.5664712221086
 30
0.0
 10
224.5025018842746
 20
183.5620792765845
 30
0.0
 10
224.3548161329193
 20
183.5498131761566
 30
0.0
 10
224.2198563039434
 20
183.5215642450645
 30
0.0
 10
224.1555976474659
 20
183.479951914087
 30
0.0
 10
224.1593966632082
 20
183.4450782614723
 30
0.0
 10
224.171687938942
 20
183.4266890899142
 30
0.0
  0
SPLINE
  5
1AA
330
1F
100
AcDbEntity
  8
1
100
AcDbSpline
210
0.0
220
0.0
230
1.0
 70
     8
 71
     3
 72
    20
 73
    16
 74
     0
 42
0.000000001
 43
0.0000000001
 40
0.0
 40
0.0
 40
0.0
 40
0.0
 40
0.125
 40
0.125
 40
0.2500000000000001
 40
0.2500000000000001
 40
0.4999999999999994
 40
0.4999999999999994
 40
0.6249999999999996
 40
0.6249999999999996
 40
0.7499999999999997
 40
0.7499999999999997
 40
0.8749999999999998
 40
0.8749999999999998
 40
1.0
 40
1.0
 40
1.0
 40
1.0
 10
226.1303216032674
 20
182.5756675423316
 30
0.0
 10
226.3359970004122
 20
182.2228332190618
 30
0.0
 10
226.563516473462
 20
181.885346438586
 30
0.0
 10
227.0618680702374
 20
181.2406649218871
 30
0.0
 10
227.3339675324413
 20
180.9322269272256
 30
0.0
 10
228.2094043361989
 20
180.0623476754746
 30
0.0
 10
228.8559061850716
 20
179.5691093409326
 30
0.0
 10
229.9159574270741
 20
178.9543782174414
 30
0.0
 10
230.2861926412921
 20
178.7702323601788
 30
0.0
 10
231.0370867395087
 20
178.4538039369706
 30
0.0
 10
231.4198824181409
 20
178.320053301415
 30
0.0
 10
232.1992412360798
 20
178.0997967193322
 30
0.0
 10
232.595809764681
 20
178.0133035061615
 30
0.0
 10
233.4021579910281
 20
177.8875533820106
 30
0.0
 10
233.8073142758831
 20
177.8491258179464
 30
0.0
 10
234.2113258574676
 20
177.8339658008324
 30
0.0
  0
SPLINE
  5
1AB
330
1F
100
AcDbEntity
  8
1
100
AcDbSpline
210
0.0
220
0.0
230
1.0
 70
     8
 71
     3
 72
     8
 73
     4
 74
     0
 42
0.000000001
 43
0.0000000001
 40
0.0
 40
0.0
 40
0.0
 40
0.0
 40
1.0
 40
1.0
 40
1.0
 40
1.0
 10
224.4608529513345
 20
183.3163557848709
 30
0.0
 10
224.4047500156471
 20
183.3370417147811
 30
0.0
 10
224.3486470799596
 20
183.3569372027652
 30
0.0
 10
224.2925441442722
 20
183.3760375790185
 30
0.0
  0
SPLINE
  5
1AC
330
1F
100
AcDbEntity
  8
1
100
AcDbSpline
210
0.0
220
0.0
230
1.0
 70
     8
 71
     3
 72
    21
 73
    17
 74
     0
 42
0.000000001
 43
0.0000000001
 40
0.0
 40
0.0
 40
0.0
 40
0.0
 40
0.0514746337531841
 40
0.101805592284932
 40
0.151447016195023
 40
0.2008720569035209
 40
0.2505600475614275
 40
0.3131525287706646
 40
0.3757843081989235
 40
0.5007467040732116
 40
0.6255813979867964
 40
0.688131682120678
 40
0.7506646316138527
 40
0.8333135924448836
 40
0.9156550306867368
 40
1.0
 40
1.0
 40
1.0
 40
1.0
 10
224.2925441442722
 20
183.3760375790185
 30
0.0
 10
224.2696790210512
 20
183.3841600024018
 30
0.0
 10
224.2244567971624
 20
183.4002243833024
 30
0.0
 10
224.1687229013217
 20
183.4247631102297
 30
0.0
 10
224.1232344146149
 20
183.4490572377366
 30
0.0
 10
224.0888074961169
 20
183.4730617570499
 30
0.0
 10
224.0630829148541
 20
183.4985491371022
 30
0.0
 10
224.0507001545109
 20
183.5250293446461
 30
0.0
 10
224.0598676492349
 20
183.5603563877222
 30
0.0
 10
224.1206615337062
 20
183.598705911452
 30
0.0
 10
224.2476504743332
 20
183.6270937691297
 30
0.0
 10
224.3791567973839
 20
183.6441772954383
 30
0.0
 10
224.5038252491574
 20
183.6554749160178
 30
0.0
 10
224.6556847886423
 20
183.6645829313811
 30
0.0
 10
224.8361022996391
 20
183.6712155984534
 30
0.0
 10
224.9633470776643
 20
183.6731178838513
 30
0.0
 10
225.027734192698
 20
183.6740804590598
 30
0.0
  0
SPLINE
  5
1AD
330
1F
100
AcDbEntity
  8
1
100
AcDbSpline
210
0.0
220
0.0
230
1.0
 70
     8
 71
     3
 72
    25
 73
    21
 74
     0
 42
0.000000001
 43
0.0000000001
 40
0.0
 40
0.0
 40
0.0
 40
0.0
 40
0.0280519266260185
 40
0.0560047345621656
 40
0.083889146119134
 40
0.1117363820381915
 40
0.1395780411951687
 40
0.1674459749130613
 40
0.1953721579672427
 40
0.2233885584882971
 40
0.2515270089989501
 40
0.3746542730252933
 40
0.5015424916330124
 40
0.6218233648475894
 40
0.7506382953724327
 40
0.7976141052275013
 40
0.8460021458144208
 40
0.8958403837948957
 40
0.9471628693332098
 40
1.0
 40
1.0
 40
1.0
 40
1.0
 10
226.1195210769974
 20
182.5883390678523
 30
0.0
 10
226.1404315189669
 20
182.5454667996028
 30
0.0
 10
226.182178517941
 20
182.4598737479952
 30
0.0
 10
226.2529885075592
 20
182.3236831895227
 30
0.0
 10
226.3300351784334
 20
182.18234523423
 30
0.0
 10
226.4142167971476
 20
182.0354745409997
 30
0.0
 10
226.5057154046096
 20
181.8834562217812
 30
0.0
 10
226.6049136127257
 20
181.7265016464766
 30
0.0
 10
226.7121405937498
 20
181.5649095206078
 30
0.0
 10
226.8277653748434
 20
181.398970016615
 30
0.0
 10
227.0916616539069
 20
181.0383214094887
 30
0.0
 10
227.5766671719892
 20
180.4533448282868
 30
0.0
 10
228.3880144804311
 20
179.6755975028669
 30
0.0
 10
229.3638249971951
 20
178.9423170650381
 30
0.0
 10
230.2339534565696
 20
178.4443762542907
 30
0.0
 10
230.9328598991992
 20
178.124632011817
 30
0.0
 10
231.3984132513806
 20
177.938414487514
 30
0.0
 10
231.8897920682091
 20
177.7707721378635
 30
0.0
 10
232.4058910365678
 20
177.6222011706007
 30
0.0
 10
232.7622533716963
 20
177.5457760626442
 30
0.0
 10
232.9430255745126
 20
177.5070078378519
 30
0.0
  0
SPLINE
  5
1AE
330
1F
100
AcDbEntity
  8
1
100
AcDbSpline
210
0.0
220
0.0
230
1.0
 70
     8
 71
     3
 72
     8
 73
     4
 74
     0
 42
0.000000001
 43
0.0000000001
 40
0.0
 40
0.0
 40
0.0
 40
0.0
 40
1.0
 40
1.0
 40
1.0
 40
1.0
 10
226.1303213810631
 20
182.5756675783089
 30
0.0
 10
226.126718717883
 20
182.5798848741596
 30
0.0
 10
226.1231170067238
 20
182.5841115187115
 30
0.0
 10
226.1195162715912
 20
182.5883475136349
 30
0.0
  0
SPLINE
  5
1AF
330
1F
100
AcDbEntity
  8
1
100
AcDbSpline
210
0.0
220
0.0
230
1.0
 70
     8
 71
     3
 72
    14
 73
    10
 74
     0
 42
0.000000001
 43
0.0000000001
 40
0.0
 40
0.0
 40
0.0
 40
0.0
 40
0.1388143914074808
 40
0.2789120544819358
 40
0.4203326737259224
 40
0.5631148298960779
 40
0.7072960101093324
 40
0.8529126203334994
 40
1.0
 40
1.0
 40
1.0
 40
1.0
 10
226.013436205731
 20
182.648999163679
 30
0.0
 10
225.9370193645094
 20
182.6847608273913
 30
0.0
 10
225.7834792454626
 20
182.7566147540379
 30
0.0
 10
225.5575435922904
 20
182.8600783296365
 30
0.0
 10
225.3334881297268
 20
182.9604051585602
 30
0.0
 10
225.1116836881563
 20
183.0568292428655
 30
0.0
 10
224.8921238692978
 20
183.1487774960274
 30
0.0
 10
224.674452369053
 20
183.2363065898078
 30
0.0
 10
224.5322908667309
 20
183.2895834851823
 30
0.0
 10
224.4608529513345
 20
183.3163557848709
 30
0.0
  0
SPLINE
  5
1B0
330
1F
100
AcDbEntity
  8
1
100
AcDbSpline
210
0.0
220
0.0
230
1.0
 70
     8
 71
     3
 72
     8
 73
     4
 74
     0
 42
0.000000001
 43
0.0000000001
 40
0.0
 40
0.0
 40
0.0
 40
0.0
 40
1.0
 40
1.0
 40
1.0
 40
1.0
 10
226.1195263656282
 20
182.5883421480943
 30
0.0
 10
226.0841869811233
 20
182.6084589814166
 30
0.0
 10
226.0488288297243
 20
182.6286753138519
 30
0.0
 10
226.0134523052828
 20
182.6489900901448
 30
0.0
  0
SPLINE
  5
1B1
330
1F
100
AcDbEntity
  8
1
100
AcDbSpline
210
0.0
220
0.0
230
1.0
 70
    24
 71
     1
 72
     4
 73
     2
 74
     0
 42
0.000000001
 43
0.0000000001
 40
0.0
 40
0.0
 40
1.0
 40
1.0
 10
225.0416430962565
 20
183.5661735741455
 30
0.0
 10
225.0277341926915
 20
183.6740804590596
 30
0.0
  0
SPLINE
  5
1B2
330
1F
100
AcDbEntity
  8
1
100
AcDbSpline
210
0.0
220
0.0
230
1.0
 70
     8
 71
     3
 72
    25
 73
    21
 74
     0
 42
0.000000001
 43
0.0000000001
 40
0.0
 40
0.0
 40
0.0
 40
0.0
 40
0.0280381379137307
 40
0.055912480773536
 40
0.0836526534317127
 40
0.1112887120498331
 40
0.1388510532041575
 40
0.1663703175382389
 40
0.1938772894208694
 40
0.2214027942178265
 40
0.24897759487741
 40
0.3739604700219864
 40
0.4980916725293518
 40
0.6219292608564919
 40
0.7483952612973301
 40
0.7964740673838459
 40
0.8455550560630861
 40
0.8957611537154079
 40
0.9472072160279884
 40
1.0
 40
1.0
 40
1.0
 40
1.0
 10
232.9219478077506
 20
177.4413060693571
 30
0.0
 10
232.8242551045178
 20
177.4616867198598
 30
0.0
 10
232.6294404057663
 20
177.5023289598291
 30
0.0
 10
232.340887746957
 20
177.5737544951072
 30
0.0
 10
232.0562700640515
 20
177.6525021653218
 30
0.0
 10
231.7757724952342
 20
177.7392316603213
 30
0.0
 10
231.4993473969647
 20
177.833628407126
 30
0.0
 10
231.2270078877745
 20
177.9356202344653
 30
0.0
 10
230.9587553863951
 20
178.0450466514677
 30
0.0
 10
230.6945774564032
 20
178.1617660348575
 30
0.0
 10
230.1286849332207
 20
178.4311318353591
 30
0.0
 10
229.3023244609209
 20
178.9067103750689
 30
0.0
 10
228.3208584914062
 20
179.6527865201328
 30
0.0
 10
227.4895062081227
 20
180.4577461371055
 30
0.0
 10
226.9627930974472
 20
181.1005516409735
 30
0.0
 10
226.6390601700259
 20
181.5578674093974
 30
0.0
 10
226.4504821828876
 20
181.8479607745425
 30
0.0
 10
226.2828929513568
 20
182.1292975884693
 30
0.0
 10
226.1342710528121
 20
182.4008910980438
 30
0.0
 10
226.0540683862492
 20
182.5655879798395
 30
0.0
 10
226.0134489607591
 20
182.6490003276486
 30
0.0
  0
SPLINE
  5
1B3
330
1F
100
AcDbEntity
  8
1
100
AcDbSpline
210
0.0
220
0.0
230
1.0
 70
     8
 71
     3
 72
    13
 73
     9
 74
     0
 42
0.000000001
 43
0.0000000001
 40
0.0
 40
0.0
 40
0.0
 40
0.0
 40
0.1247759554125462
 40
0.2494391655123904
 40
0.3745827202498632
 40
0.5007910137947774
 40
0.749417552598798
 40
1.0
 40
1.0
 40
1.0
 40
1.0
 10
232.9430256416992
 20
177.50700789365
 30
0.0
 10
232.98944924061
 20
177.4979115307214
 30
0.0
 10
233.0822544909013
 20
177.4797270241745
 30
0.0
 10
233.220156065793
 20
177.4538269877731
 30
0.0
 10
233.3567389030237
 20
177.4288701057693
 30
0.0
 10
233.5347842819403
 20
177.3972314100318
 30
0.0
 10
233.7513622741402
 20
177.3601370765394
 30
0.0
 10
233.9096836226756
 20
177.3335376599122
 30
0.0
 10
233.9891544497002
 20
177.3201858431339
 30
0.0
  0
SPLINE
  5
1B4
330
1F
100
AcDbEntity
  8
1
100
AcDbSpline
210
0.0
220
0.0
230
1.0
 70
    24
 71
     1
 72
     4
 73
     2
 74
     0
 42
0.000000001
 43
0.0000000001
 40
0.0
 40
0.0
 40
1.0
 40
1.0
 10
232.9430281637844
 20
177.5070157177915
 30
0.0
 10
232.9219527286884
 20
177.4412932880048
 30
0.0
  0
SPLINE
  5
1B5
330
1F
100
AcDbEntity
  8
1
100
AcDbSpline
210
0.0
220
0.0
230
1.0
 70
     8
 71
     2
 72
     6
 73
     3
 74
     0
 42
0.000000001
 43
0.0000000001
 40
0.0
 40
0.0
 40
0.0
 40
1.0
 40
1.0
 40
1.0
 10
232.5104915608808
 20
183.6061879248089
 30
0.0
 10
228.7602661280636
 20
183.6065600951127
 30
0.0
 10
225.041643091985
 20
183.5661738247729
 30
0.0
  0
SPLINE
  5
1B6
330
1F
100
AcDbEntity
  8
1
100
AcDbSpline
210
0.0
220
0.0
230
1.0
 70
     8
 71
     3
 72
     8
 73
     4
 74
     0
 42
0.000000001
 43
0.0000000001
 40
0.0
 40
0.0
 40
0.0
 40
0.0
 40
1.0
 40
1.0
 40
1.0
 40
1.0
 10
233.9891544497002
 20
177.3201858431339
 30
0.0
 10
234.0868434251506
 20
177.3037803476084
 30
0.0
 10
234.1849744868171
 20
177.2885313298951
 30
0.0
 10
234.283517242421
 20
177.2744551387678
 30
0.0
  0
SPLINE
  5
1B7
330
1F
100
AcDbEntity
  8
1
100
AcDbSpline
210
0.0
220
0.0
230
1.0
 70
     8
 71
     3
 72
    10
 73
     6
 74
     0
 42
0.000000001
 43
0.0000000001
 40
0.0
 40
0.0
 40
0.0
 40
0.0
 40
0.5
 40
0.5
 40
1.0
 40
1.0
 40
1.0
 40
1.0
 10
233.3035589573958
 20
177.9971812488482
 30
0.0
 10
233.2258372436371
 20
178.0084206724485
 30
0.0
 10
233.151203679725
 20
178.0321122883086
 30
0.0
 10
233.0061405146393
 20
178.1058494591089
 30
0.0
 10
232.9364300440556
 20
178.1565499732861
 30
0.0
 10
232.8765116834576
 20
178.216221768283
 30
0.0
  0
SPLINE
  5
1B8
330
1F
100
AcDbEntity
  8
1
100
AcDbSpline
210
0.0
220
0.0
230
1.0
 70
     8
 71
     3
 72
     8
 73
     4
 74
     0
 42
0.000000001
 43
0.0000000001
 40
0.0
 40
0.0
 40
0.0
 40
0.0
 40
1.0
 40
1.0
 40
1.0
 40
1.0
 10
232.6899335632276
 20
178.5330096061438
 30
0.0
 10
232.7239068482208
 20
178.4133423474892
 30
0.0
 10
232.7890592848991
 20
178.3033142979632
 30
0.0
 10
232.8765116834576
 20
178.216221768283
 30
0.0
  0
SPLINE
  5
1B9
330
1F
100
AcDbEntity
  8
1
100
AcDbSpline
210
0.0
220
0.0
230
1.0
 70
     8
 71
     3
 72
     8
 73
     4
 74
     0
 42
0.000000001
 43
0.0000000001
 40
0.0
 40
0.0
 40
0.0
 40
0.0
 40
1.0
 40
1.0
 40
1.0
 40
1.0
 10
238.2607320826446
 20
161.827679035026
 30
0.0
 10
238.0582528358582
 20
161.810821345017
 30
0.0
 10
237.8504527359187
 20
161.8069439814468
 30
0.0
 10
237.6369319722561
 20
161.8170222901034
 30
0.0
  0
SPLINE
  5
1BA
330
1F
100
AcDbEntity
  8
1
100
AcDbSpline
210
0.0
220
0.0
230
1.0
 70
     8
 71
     3
 72
    17
 73
    13
 74
     0
 42
0.000000001
 43
0.0000000001
 40
0.0
 40
0.0
 40
0.0
 40
0.0
 40
0.1165574237864489
 40
0.2922296918364797
 40
0.4675393436775411
 40
0.6454086999076533
 40
0.7040011594868178
 40
0.7626997239689612
 40
0.8215680698767489
 40
0.8806819599849252
 40
0.9401277049959043
 40
1.0
 40
1.0
 40
1.0
 40
1.0
 10
241.1591448431699
 20
177.3951558210553
 30
0.0
 10
241.1612170147694
 20
177.3729742416723
 30
0.0
 10
241.1357732242091
 20
177.317444500712
 30
0.0
 10
240.9601068464272
 20
177.2303461967789
 30
0.0
 10
240.5622247678209
 20
177.1404044934419
 30
0.0
 10
240.0935321042247
 20
177.0823172884622
 30
0.0
 10
239.6924115894649
 20
177.0491900219193
 30
0.0
 10
239.4348733830992
 20
177.0321173297891
 30
0.0
 10
239.160286421486
 20
177.01805233428
 30
0.0
 10
238.8701589846799
 20
177.0073030825441
 30
0.0
 10
238.5669669878181
 20
176.9997232837619
 30
0.0
 10
238.357083922411
 20
176.9975899301117
 30
0.0
 10
238.2517672342821
 20
176.9965194400241
 30
0.0
  0
SPLINE
  5
1BB
330
1F
100
AcDbEntity
  8
1
100
AcDbSpline
210
0.0
220
0.0
230
1.0
 70
     8
 71
     3
 72
    14
 73
    10
 74
     0
 42
0.000000001
 43
0.0000000001
 40
0.0
 40
0.0
 40
0.0
 40
0.0
 40
0.1880746945921308
 40
0.3942237081657641
 40
0.6184788333972671
 40
0.7152851594303911
 40
0.8325889419035263
 40
0.9854073619585847
 40
1.0
 40
1.0
 40
1.0
 40
1.0
 10
241.1593403973153
 20
166.0953985860249
 30
0.0
 10
241.1592636691122
 20
166.1799277331732
 30
0.0
 10
241.1419615280916
 20
166.3588424861811
 30
0.0
 10
241.0591860653105
 20
166.6410608006163
 30
0.0
 10
240.9379716483845
 20
166.8813626180263
 30
0.0
 10
240.8070002360227
 20
167.0776832861538
 30
0.0
 10
240.6804302371789
 20
167.2397487741367
 30
0.0
 10
240.5667792473766
 20
167.3630261714723
 30
0.0
 10
240.4934046482732
 20
167.4336125501144
 30
0.0
 10
240.4869707139257
 20
167.4397542550768
 30
0.0
  0
SPLINE
  5
1BC
330
1F
100
AcDbEntity
  8
1
100
AcDbSpline
210
0.0
220
0.0
230
1.0
 70
     8
 71
     2
 72
    16
 73
    13
 74
     0
 42
0.000000001
 43
0.0000000001
 40
0.0
 40
0.0
 40
0.0
 40
0.125
 40
0.125
 40
0.25
 40
0.25
 40
0.375
 40
0.375
 40
0.5
 40
0.5
 40
0.75
 40
0.75
 40
1.0
 40
1.0
 40
1.0
 10
238.2485837091337
 20
177.0742088019869
 30
0.0
 10
238.706637448095
 20
177.0782921716958
 30
0.0
 10
239.1214796392478
 20
177.098878792612
 30
0.0
 10
239.5298208156194
 20
177.1191427994601
 30
0.0
 10
239.8705358968148
 20
177.1541091654805
 30
0.0
 10
240.2009422108299
 20
177.1880175797215
 30
0.0
 10
240.4468566103797
 20
177.2338081170332
 30
0.0
 10
240.6841148902561
 20
177.2779868399429
 30
0.0
 10
240.8299341309007
 20
177.3310852881134
 30
0.0
 10
241.1020281896347
 20
177.4301653012263
 30
0.0
 10
241.0330465531763
 20
177.5500621858878
 30
0.0
 10
240.9715526236612
 20
177.6569446977125
 30
0.0
 10
240.634974008281
 20
177.7750551507945
 30
0.0
  0
SPLINE
  5
1BD
330
1F
100
AcDbEntity
  8
1
100
AcDbSpline
210
0.0
220
0.0
230
1.0
 70
     8
 71
     3
 72
     8
 73
     4
 74
     0
 42
0.000000001
 43
0.0000000001
 40
0.0
 40
0.0
 40
0.0
 40
0.0
 40
1.0
 40
1.0
 40
1.0
 40
1.0
 10
242.1375673077202
 20
170.8375425378355
 30
0.0
 10
242.151427814395
 20
170.7907740380797
 30
0.0
 10
242.1649837256759
 20
170.7440868691072
 30
0.0
 10
242.1779971602633
 20
170.6979318034288
 30
0.0
  0
SPLINE
  5
1BE
330
1F
100
AcDbEntity
  8
1
100
AcDbSpline
210
0.0
220
0.0
230
1.0
 70
     8
 71
     3
 72
     8
 73
     4
 74
     0
 42
0.000000001
 43
0.0000000001
 40
0.0
 40
0.0
 40
0.0
 40
0.0
 40
1.0
 40
1.0
 40
1.0
 40
1.0
 10
226.0134454646461
 20
164.5059757188015
 30
0.0
 10
226.0488283524091
 20
164.5199579723559
 30
0.0
 10
226.0841888468534
 20
164.5340579563046
 30
0.0
 10
226.1195263656282
 20
164.5482734484836
 30
0.0
  0
SPLINE
  5
1BF
330
1F
100
AcDbEntity
  8
1
100
AcDbSpline
210
0.0
220
0.0
230
1.0
 70
     8
 71
     3
 72
    15
 73
    11
 74
     0
 42
0.000000001
 43
0.0000000001
 40
0.0
 40
0.0
 40
0.0
 40
0.0
 40
0.1373465934581574
 40
0.2710573901060249
 40
0.4011901001301784
 40
0.527799007606875
 40
0.6509356094229659
 40
0.7706493211914144
 40
0.8869882455170927
 40
1.0
 40
1.0
 40
1.0
 40
1.0
 10
233.9219507035223
 20
177.2441116776093
 30
0.0
 10
233.8807511877244
 20
177.2520136086819
 30
0.0
 10
233.7994427770487
 20
177.2676082933364
 30
0.0
 10
233.6726934261698
 20
177.2916654049303
 30
0.0
 10
233.5455648533299
 20
177.3159309148121
 30
0.0
 10
233.4183553445899
 20
177.3404979871869
 30
0.0
 10
233.2919158934356
 20
177.3653395189412
 30
0.0
 10
233.1668520215966
 20
177.390430845921
 30
0.0
 10
233.0438125973065
 20
177.4156256169284
 30
0.0
 10
232.9621765726072
 20
177.4328163416442
 30
0.0
 10
232.9219507035223
 20
177.4412870118469
 30
0.0
  0
SPLINE
  5
1C0
330
1F
100
AcDbEntity
  8
1
100
AcDbSpline
210
0.0
220
0.0
230
1.0
 70
     8
 71
     3
 72
     8
 73
     4
 74
     0
 42
0.000000001
 43
0.0000000001
 40
0.0
 40
0.0
 40
0.0
 40
0.0
 40
1.0
 40
1.0
 40
1.0
 40
1.0
 10
233.9891544497002
 20
162.582322010617
 30
0.0
 10
234.0868434251505
 20
162.5317433910828
 30
0.0
 10
234.1849744868168
 20
162.4806860301244
 30
0.0
 10
234.2835172424205
 20
162.4291392636187
 30
0.0
  0
SPLINE
  5
1C1
330
1F
100
AcDbEntity
  8
1
100
AcDbSpline
210
0.0
220
0.0
230
1.0
 70
     8
 71
     3
 72
     9
 73
     5
 74
     0
 42
0.000000001
 43
0.0000000001
 40
0.0
 40
0.0
 40
0.0
 40
0.0
 40
0.4984943086913069
 40
1.0
 40
1.0
 40
1.0
 40
1.0
 10
233.6232331926494
 20
170.9106740712362
 30
0.0
 10
233.6743194728035
 20
170.9075307574257
 30
0.0
 10
233.7768006431266
 20
170.9012251411818
 30
0.0
 10
233.8734703077234
 20
170.8881537890829
 30
0.0
 10
233.9219506946956
 20
170.8815984316123
 30
0.0
  0
SPLINE
  5
1C2
330
1F
100
AcDbEntity
  8
1
100
AcDbSpline
210
0.0
220
0.0
230
1.0
 70
    24
 71
     1
 72
     4
 73
     2
 74
     0
 42
0.000000001
 43
0.0000000001
 40
0.0
 40
0.0
 40
1.0
 40
1.0
 10
232.7318848109278
 20
169.8127833184349
 30
0.0
 10
232.8059136601333
 20
169.7838248454321
 30
0.0
  0
SPLINE
  5
1C3
330
1F
100
AcDbEntity
  8
1
100
AcDbSpline
210
0.0
220
0.0
230
1.0
 70
    24
 71
     1
 72
     4
 73
     2
 74
     0
 42
0.000000001
 43
0.0000000001
 40
0.0
 40
0.0
 40
1.0
 40
1.0
 10
240.326596702445
 20
167.0160869618927
 30
0.0
 10
240.4228615991794
 20
167.088904581254
 30
0.0
  0
SPLINE
  5
1C4
330
1F
100
AcDbEntity
  8
1
100
AcDbSpline
210
0.0
220
0.0
230
1.0
 70
     8
 71
     3
 72
    15
 73
    11
 74
     0
 42
0.000000001
 43
0.0000000001
 40
0.0
 40
0.0
 40
0.0
 40
0.0
 40
0.1373465934581148
 40
0.2710573901059502
 40
0.4011901001300871
 40
0.5277990076067752
 40
0.6509356094228688
 40
0.7706493211913378
 40
0.8869882455170506
 40
1.0
 40
1.0
 40
1.0
 40
1.0
 10
233.9219507035223
 20
162.5520092887048
 30
0.0
 10
233.8807511877245
 20
162.5720304685352
 30
0.0
 10
233.7994427770487
 20
162.6115428336768
 30
0.0
 10
233.6726934261699
 20
162.6603850783907
 30
0.0
 10
233.5455648533301
 20
162.700727105337
 30
0.0
 10
233.4183553445901
 20
162.7321914519605
 30
0.0
 10
233.2919158934357
 20
162.7553368533704
 30
0.0
 10
233.1668520215967
 20
162.7703225441902
 30
0.0
 10
233.0438125973066
 20
162.7782558455096
 30
0.0
 10
232.9621765726072
 20
162.7775458272081
 30
0.0
 10
232.9219507035223
 20
162.7771959681434
 30
0.0
  0
SPLINE
  5
1C5
330
1F
100
AcDbEntity
  8
1
100
AcDbSpline
210
0.0
220
0.0
230
1.0
 70
     8
 71
     3
 72
    13
 73
     9
 74
     0
 42
0.000000001
 43
0.0000000001
 40
0.0
 40
0.0
 40
0.0
 40
0.0
 40
0.1247759554068354
 40
0.2494391655047886
 40
0.3745827202441416
 40
0.5007910137946287
 40
0.7494175525909616
 40
1.0
 40
1.0
 40
1.0
 40
1.0
 10
232.9430256416992
 20
162.8249080335779
 30
0.0
 10
232.9894492406079
 20
162.8250533127263
 30
0.0
 10
233.0822544908963
 20
162.8253437397514
 30
0.0
 10
233.2201560657858
 20
162.8146920697251
 30
0.0
 10
233.3567389030184
 20
162.7960213916294
 30
0.0
 10
233.5347842819359
 20
162.7595996660836
 30
0.0
 10
233.7513622741383
 20
162.6958043266641
 30
0.0
 10
233.9096836226733
 20
162.6202481260911
 30
0.0
 10
233.9891544497002
 20
162.582322010617
 30
0.0
  0
SPLINE
  5
1C6
330
1F
100
AcDbEntity
  8
1
100
AcDbSpline
210
0.0
220
0.0
230
1.0
 70
     8
 71
     3
 72
     8
 73
     4
 74
     0
 42
0.000000001
 43
0.0000000001
 40
0.0
 40
0.0
 40
0.0
 40
0.0
 40
1.0
 40
1.0
 40
1.0
 40
1.0
 10
226.1303213810631
 20
164.6139746908456
 30
0.0
 10
226.126718717883
 20
164.5920782676309
 30
0.0
 10
226.1231170067238
 20
164.5701776956028
 30
0.0
 10
226.1195162715912
 20
164.5482729765548
 30
0.0
  0
SPLINE
  5
1C7
330
1F
100
AcDbEntity
  8
1
100
AcDbSpline
210
0.0
220
0.0
230
1.0
 70
     8
 71
     3
 72
     8
 73
     4
 74
     0
 42
0.000000001
 43
0.0000000001
 40
0.0
 40
0.0
 40
0.0
 40
0.0
 40
1.0
 40
1.0
 40
1.0
 40
1.0
 10
240.4228615991794
 20
167.088904581254
 30
0.0
 10
240.5446973559752
 20
166.9283846925239
 30
0.0
 10
240.6531496569077
 20
166.7574758060727
 30
0.0
 10
240.7466661202565
 20
166.5785106918723
 30
0.0
  0
SPLINE
  5
1C8
330
1F
100
AcDbEntity
  8
1
100
AcDbSpline
210
0.0
220
0.0
230
1.0
 70
     8
 71
     3
 72
    20
 73
    16
 74
     0
 42
0.000000001
 43
0.0000000001
 40
0.0
 40
0.0
 40
0.0
 40
0.0
 40
0.0473477275319314
 40
0.0925111121925172
 40
0.1355040655871871
 40
0.1763427425592627
 40
0.2150460210190845
 40
0.2516361098106029
 40
0.380086458566876
 40
0.5003075811934613
 40
0.6224317475694105
 40
0.7483949665920058
 40
0.8251823789742221
 40
0.9089612350862942
 40
1.0
 40
1.0
 40
1.0
 40
1.0
 10
225.0416430962624
 20
167.1518109564613
 30
0.0
 10
225.0091720029741
 20
167.1473430269174
 30
0.0
 10
224.9457278397421
 20
167.1386132915563
 30
0.0
 10
224.8547113833764
 20
167.117695266991
 30
0.0
 10
224.7701515506195
 20
167.0924388683898
 30
0.0
 10
224.692366066467
 20
167.0631975276365
 30
0.0
 10
224.6214168284178
 20
167.0309865446733
 30
0.0
 10
224.5025018842838
 20
166.9673158952763
 30
0.0
 10
224.3548161329267
 20
166.856339669293
 30
0.0
 10
224.2198563039508
 20
166.6792883831274
 30
0.0
 10
224.1542202686784
 20
166.4868780517491
 30
0.0
 10
224.161381938005
 20
166.3171719895547
 30
0.0
 10
224.2107771928612
 20
166.1785825661491
 30
0.0
 10
224.2788720522082
 20
166.0646818376466
 30
0.0
 10
224.3475220194188
 20
165.9964436292924
 30
0.0
 10
224.3832724671686
 20
165.960907610829
 30
0.0
  0
SPLINE
  5
1C9
330
1F
100
AcDbEntity
  8
1
100
AcDbSpline
210
0.0
220
0.0
230
1.0
 70
     8
 71
     2
 72
    12
 73
     9
 74
     0
 42
0.000000001
 43
0.0000000001
 40
0.0
 40
0.0
 40
0.0
 40
0.2191819740064431
 40
0.2191819740064431
 40
0.4794546493376287
 40
0.4794546493376287
 40
0.7397273246688144
 40
0.7397273246688144
 40
1.0
 40
1.0
 40
1.0
 10
240.6900428522781
 20
171.9923629153351
 30
0.0
 10
240.5092609099812
 20
171.7959261111674
 30
0.0
 10
240.2477367764156
 20
171.6147318735362
 30
0.0
 10
239.9327863792506
 20
171.3965218126601
 30
0.0
 10
239.5249042139453
 20
171.2172412933958
 30
0.0
 10
239.1113659244833
 20
171.035474681426
 30
0.0
 10
238.635536565546
 20
170.9079785260967
 30
0.0
 10
238.1560144900092
 20
170.77949292537
 30
0.0
 10
237.65084087582
 20
170.7164458741137
 30
0.0
  0
SPLINE
  5
1CA
330
1F
100
AcDbEntity
  8
1
100
AcDbSpline
210
0.0
220
0.0
230
1.0
 70
     8
 71
     2
 72
     6
 73
     3
 74
     0
 42
0.000000001
 43
0.0000000001
 40
0.0
 40
0.0
 40
0.0
 40
1.0
 40
1.0
 40
1.0
 10
233.9930006886028
 20
170.8019703533591
 30
0.0
 10
233.8921094740721
 20
170.816805490899
 30
0.0
 10
233.7856970336666
 20
170.8255497433075
 30
0.0
  0
SPLINE
  5
1CB
330
1F
100
AcDbEntity
  8
1
100
AcDbSpline
210
0.0
220
0.0
230
1.0
 70
    24
 71
     1
 72
     4
 73
     2
 74
     0
 42
0.000000001
 43
0.0000000001
 40
0.0
 40
0.0
 40
1.0
 40
1.0
 10
224.2925441442722
 20
165.8434937158984
 30
0.0
 10
224.3832724671686
 20
165.960907610829
 30
0.0
  0
SPLINE
  5
1CC
330
1F
100
AcDbEntity
  8
1
100
AcDbSpline
210
0.0
220
0.0
230
1.0
 70
     8
 71
     2
 72
     6
 73
     3
 74
     0
 42
0.000000001
 43
0.0000000001
 40
0.0
 40
0.0
 40
0.0
 40
1.0
 40
1.0
 40
1.0
 10
232.5104915608808
 20
167.9278165237289
 30
0.0
 10
228.7602661280644
 20
167.5288688002717
 30
0.0
 10
225.041643091985
 20
167.1518108420678
 30
0.0
  0
SPLINE
  5
1CD
330
1F
100
AcDbEntity
  8
1
100
AcDbSpline
210
0.0
220
0.0
230
1.0
 70
     8
 71
     3
 72
    17
 73
    13
 74
     0
 42
0.000000001
 43
0.0000000001
 40
0.0
 40
0.0
 40
0.0
 40
0.0
 40
0.0542025669935246
 40
0.2885837843825047
 40
0.4666619663628512
 40
0.5199251204107851
 40
0.5707442145057052
 40
0.6227780361395683
 40
0.6747963208030037
 40
0.7698114959210472
 40
0.8807864732007891
 40
1.0
 40
1.0
 40
1.0
 40
1.0
 10
232.8038838790625
 20
169.6954789055172
 30
0.0
 10
232.826488110665
 20
169.6730116038059
 30
0.0
 10
232.9452533252789
 20
169.5517734247292
 30
0.0
 10
233.1219452106048
 20
169.3406769563321
 30
0.0
 10
233.24603882191
 20
169.0884844527741
 30
0.0
 10
233.2674900961023
 20
168.92253045397
 30
0.0
 10
233.2588525505767
 20
168.8303064350177
 30
0.0
 10
233.2299026515498
 20
168.7429985986356
 30
0.0
 10
233.1650368854871
 20
168.6446099436436
 30
0.0
 10
233.0467494127475
 20
168.5469321280047
 30
0.0
 10
232.8734762535709
 20
168.4675315064272
 30
0.0
 10
232.7439029783095
 20
168.4330885519622
 30
0.0
 10
232.6759722936228
 20
168.4194733121707
 30
0.0
  0
SPLINE
  5
1CE
330
1F
100
AcDbEntity
  8
1
100
AcDbSpline
210
0.0
220
0.0
230
1.0
 70
     8
 71
     3
 72
    21
 73
    17
 74
     0
 42
0.000000001
 43
0.0000000001
 40
0.0
 40
0.0
 40
0.0
 40
0.0
 40
0.0514746337525174
 40
0.1018055922839383
 40
0.1514470161940336
 40
0.2008720569028453
 40
0.2505600475613578
 40
0.3131525287697239
 40
0.3757843081988774
 40
0.5007467040731683
 40
0.6255813979867595
 40
0.6881316821190194
 40
0.750664631613846
 40
0.8333135924448827
 40
0.9156550306867371
 40
1.0
 40
1.0
 40
1.0
 40
1.0
 10
224.2925441442722
 20
165.8434937158984
 30
0.0
 10
224.2696790210515
 20
165.866749877198
 30
0.0
 10
224.2244567971631
 20
165.9127454890705
 30
0.0
 10
224.168722901323
 20
165.9872635312605
 30
0.0
 10
224.1232344146161
 20
166.0646908358738
 30
0.0
 10
224.0888074961179
 20
166.1455313042232
 30
0.0
 10
224.0630829148541
 20
166.2364997934617
 30
0.0
 10
224.0507001545105
 20
166.3379253996609
 30
0.0
 10
224.0598676492349
 20
166.4850634913471
 30
0.0
 10
224.120661533706
 20
166.668667914865
 30
0.0
 10
224.2476504743329
 20
166.8340561858387
 30
0.0
 10
224.3791567973823
 20
166.9476046118133
 30
0.0
 10
224.5038252491564
 20
167.0296685703042
 30
0.0
 10
224.6556847886422
 20
167.1025517018687
 30
0.0
 10
224.8361022996391
 20
167.1606171645346
 30
0.0
 10
224.9633470776643
 20
167.1783214162932
 30
0.0
 10
225.027734192698
 20
167.1872799426253
 30
0.0
  0
SPLINE
  5
1CF
330
1F
100
AcDbEntity
  8
1
100
AcDbSpline
210
0.0
220
0.0
230
1.0
 70
     8
 71
     3
 72
     8
 73
     4
 74
     0
 42
0.000000001
 43
0.0000000001
 40
0.0
 40
0.0
 40
0.0
 40
0.0
 40
1.0
 40
1.0
 40
1.0
 40
1.0
 10
224.4608529513345
 20
165.6832134373299
 30
0.0
 10
224.404750015647
 20
165.7360550701416
 30
0.0
 10
224.3486470799596
 20
165.7894860100434
 30
0.0
 10
224.2925441442722
 20
165.8434937158984
 30
0.0
  0
SPLINE
  5
1D0
330
1F
100
AcDbEntity
  8
1
100
AcDbSpline
210
0.0
220
0.0
230
1.0
 70
     8
 71
     3
 72
     8
 73
     4
 74
     0
 42
0.000000001
 43
0.0000000001
 40
0.0
 40
0.0
 40
0.0
 40
0.0
 40
1.0
 40
1.0
 40
1.0
 40
1.0
 10
240.267134005202
 20
167.2947648847575
 30
0.0
 10
240.3190388146425
 20
167.2261414740873
 30
0.0
 10
240.3709502069109
 20
167.1575230276707
 30
0.0
 10
240.4228615991794
 20
167.088904581254
 30
0.0
  0
SPLINE
  5
1D1
330
1F
100
AcDbEntity
  8
1
100
AcDbSpline
210
0.0
220
0.0
230
1.0
 70
    24
 71
     1
 72
     4
 73
     2
 74
     0
 42
0.000000001
 43
0.0000000001
 40
0.0
 40
0.0
 40
1.0
 40
1.0
 10
237.65084087582
 20
170.7164458741137
 30
0.0
 10
236.4867392606829
 20
170.5719765558194
 30
0.0
  0
SPLINE
  5
1D2
330
1F
100
AcDbEntity
  8
1
100
AcDbSpline
210
0.0
220
0.0
230
1.0
 70
     8
 71
     3
 72
    14
 73
    10
 74
     0
 42
0.000000001
 43
0.0000000001
 40
0.0
 40
0.0
 40
0.0
 40
0.0
 40
0.1395971261003812
 40
0.2801668107803268
 40
0.4217790869694835
 40
0.5645024521386097
 40
0.7084038164072362
 40
0.8535484600390425
 40
1.0
 40
1.0
 40
1.0
 40
1.0
 10
224.5515812742309
 20
165.8023718523459
 30
0.0
 10
224.620445602722
 20
165.7389866503825
 30
0.0
 10
224.7586540302796
 20
165.611774648382
 30
0.0
 10
224.9719086278653
 20
165.4296306536963
 30
0.0
 10
225.1907219045539
 20
165.2531785335352
 30
0.0
 10
225.4157133747655
 20
165.0831528795505
 30
0.0
 10
225.6471812616394
 20
164.919675676485
 30
0.0
 10
225.8849969777008
 20
164.7621878579351
 30
0.0
 10
226.0482994445453
 20
164.6635273425477
 30
0.0
 10
226.1303166282208
 20
164.613975993028
 30
0.0
  0
SPLINE
  5
1D3
330
1F
100
AcDbEntity
  8
1
100
AcDbSpline
210
0.0
220
0.0
230
1.0
 70
     8
 71
     3
 72
    14
 73
    10
 74
     0
 42
0.000000001
 43
0.0000000001
 40
0.0
 40
0.0
 40
0.0
 40
0.0
 40
0.138814391407468
 40
0.2789120544819197
 40
0.4203326737259008
 40
0.5631148298960547
 40
0.707296010109313
 40
0.8529126203334852
 40
1.0
 40
1.0
 40
1.0
 40
1.0
 10
226.013436205731
 20
164.5059783173521
 30
0.0
 10
225.9370193645094
 20
164.5525976268719
 30
0.0
 10
225.7834792454626
 20
164.6462672187984
 30
0.0
 10
225.5575435922904
 20
164.7965278136092
 30
0.0
 10
225.3334881297268
 20
164.9550596274049
 30
0.0
 10
225.1116836881564
 20
165.1227352803592
 30
0.0
 10
224.8921238692979
 20
165.299821237057
 30
0.0
 10
224.6744523690531
 20
165.4859109228649
 30
0.0
 10
224.5322908667309
 20
165.6172259899557
 30
0.0
 10
224.4608529513345
 20
165.6832134373299
 30
0.0
  0
SPLINE
  5
1D4
330
1F
100
AcDbEntity
  8
1
100
AcDbSpline
210
0.0
220
0.0
230
1.0
 70
    24
 71
     1
 72
     4
 73
     2
 74
     0
 42
0.000000001
 43
0.0000000001
 40
0.0
 40
0.0
 40
1.0
 40
1.0
 10
233.9219507035224
 20
162.5520092887048
 30
0.0
 10
233.9891544497002
 20
162.582322010617
 30
0.0
  0
SPLINE
  5
1D5
330
1F
100
AcDbEntity
  8
1
100
AcDbSpline
210
0.0
220
0.0
230
1.0
 70
    24
 71
     1
 72
     4
 73
     2
 74
     0
 42
0.000000001
 43
0.0000000001
 40
0.0
 40
0.0
 40
1.0
 40
1.0
 10
232.6102896404551
 20
168.0186652526827
 30
0.0
 10
232.4965835161779
 20
167.971828993851
 30
0.0
  0
SPLINE
  5
1D6
330
1F
100
AcDbEntity
  8
1
100
AcDbSpline
210
0.0
220
0.0
230
1.0
 70
     8
 71
     2
 72
    16
 73
    13
 74
     0
 42
0.000000001
 43
0.0000000001
 40
0.0
 40
0.0
 40
0.0
 40
0.125
 40
0.125
 40
0.25
 40
0.25
 40
0.375
 40
0.375
 40
0.5
 40
0.5
 40
0.75
 40
0.75
 40
1.0
 40
1.0
 40
1.0
 10
238.2485837091337
 20
161.6171051235763
 30
0.0
 10
238.7066374480973
 20
161.6926943740266
 30
0.0
 10
239.1214796392478
 20
161.8723356684185
 30
0.0
 10
239.5298208156227
 20
162.0491617942134
 30
0.0
 10
239.8705358968148
 20
162.315587924691
 30
0.0
 10
240.2009422108296
 20
162.5739529944741
 30
0.0
 10
240.4468566103797
 20
162.9015580063554
 30
0.0
 10
240.6841148902504
 20
163.2176314113215
 30
0.0
 10
240.8299341309007
 20
163.5827034933253
 30
0.0
 10
241.102028189633
 20
164.2639163708528
 30
0.0
 10
241.0330465531763
 20
165.0459061792537
 30
0.0
 10
240.9715526236646
 20
165.743013824516
 30
0.0
 10
240.634974008281
 20
166.4847880979398
 30
0.0
  0
SPLINE
  5
1D7
330
1F
100
AcDbEntity
  8
1
100
AcDbSpline
210
0.0
220
0.0
230
1.0
 70
    24
 71
     1
 72
     4
 73
     2
 74
     0
 42
0.000000001
 43
0.0000000001
 40
0.0
 40
0.0
 40
1.0
 40
1.0
 10
238.2517473657979
 20
161.5730758197202
 30
0.0
 10
238.2485838163083
 20
161.6171036313039
 30
0.0
  0
SPLINE
  5
1D8
330
1F
100
AcDbEntity
  8
1
100
AcDbSpline
210
0.0
220
0.0
230
1.0
 70
    24
 71
     1
 72
     4
 73
     2
 74
     0
 42
0.000000001
 43
0.0000000001
 40
0.0
 40
0.0
 40
1.0
 40
1.0
 10
240.6349735945984
 20
166.4847881223721
 30
0.0
 10
240.6392007442026
 20
166.5227757610649
 30
0.0
  0
SPLINE
  5
1D9
330
1F
100
AcDbEntity
  8
1
100
AcDbSpline
210
0.0
220
0.0
230
1.0
 70
     8
 71
     3
 72
    25
 73
    21
 74
     0
 42
0.000000001
 43
0.0000000001
 40
0.0
 40
0.0
 40
0.0
 40
0.0
 40
0.0280381379137301
 40
0.055912480773535
 40
0.083652653431711
 40
0.1112887120498305
 40
0.1388510532041549
 40
0.166370317538236
 40
0.1938772894208662
 40
0.2214027942178235
 40
0.2489775948774069
 40
0.3739604700167021
 40
0.4980916725292161
 40
0.6219292608579885
 40
0.7483952612974731
 40
0.7964740673890299
 40
0.8455550560708132
 40
0.8957611537231347
 40
0.9472072160331432
 40
1.0
 40
1.0
 40
1.0
 40
1.0
 10
232.9219478077506
 20
162.7771936971815
 30
0.0
 10
232.8242551045178
 20
162.7748005205432
 30
0.0
 10
232.6294404057663
 20
162.7700281478847
 30
0.0
 10
232.340887746957
 20
162.7622604290494
 30
0.0
 10
232.0562700640515
 20
162.7543219214689
 30
0.0
 10
231.7757724952342
 20
162.7463783644717
 30
0.0
 10
231.4993473969647
 20
162.7386913638505
 30
0.0
 10
231.2270078877745
 20
162.731526406697
 30
0.0
 10
230.9587553863951
 20
162.7251782947766
 30
0.0
 10
230.6945774564032
 20
162.7199607805833
 30
0.0
 10
230.1286849332369
 20
162.7118257374509
 30
0.0
 10
229.3023244609439
 20
162.716082824181
 30
0.0
 10
228.3208584914173
 20
162.7954158953777
 30
0.0
 10
227.4895062080941
 20
162.9858399530299
 30
0.0
 10
226.9627930974299
 20
163.2516230190334
 30
0.0
 10
226.6390601700195
 20
163.516871144493
 30
0.0
 10
226.4504821828742
 20
163.71614020283
 30
0.0
 10
226.282892951343
 20
163.9461636864863
 30
0.0
 10
226.1342710528031
 20
164.2066887860505
 30
0.0
 10
226.0540683862455
 20
164.4053605429931
 30
0.0
 10
226.0134489607591
 20
164.505979798858
 30
0.0
  0
SPLINE
  5
1DA
330
1F
100
AcDbEntity
  8
1
100
AcDbSpline
210
0.0
220
0.0
230
1.0
 70
     8
 71
     2
 72
     6
 73
     3
 74
     0
 42
0.000000001
 43
0.0000000001
 40
0.0
 40
0.0
 40
0.0
 40
1.0
 40
1.0
 40
1.0
 10
240.326596702445
 20
167.0160869618927
 30
0.0
 10
240.2252402309279
 20
167.1499703797767
 30
0.0
 10
240.1302947770552
 20
167.2755218514131
 30
0.0
  0
SPLINE
  5
1DB
330
1F
100
AcDbEntity
  8
1
100
AcDbSpline
210
0.0
220
0.0
230
1.0
 70
     8
 71
     3
 72
    15
 73
    11
 74
     0
 42
0.000000001
 43
0.0000000001
 40
0.0
 40
0.0
 40
0.0
 40
0.0
 40
0.1223710990618856
 40
0.2454174221796391
 40
0.3691770625547077
 40
0.4936882698797569
 40
0.6189891116873386
 40
0.7451171230563137
 40
0.8721089509793442
 40
1.0
 40
1.0
 40
1.0
 40
1.0
 10
235.4728303571178
 20
170.6532215892519
 30
0.0
 10
235.5102984115303
 20
170.6481546953267
 30
0.0
 10
235.5854412630572
 20
170.63799294917
 30
0.0
 10
235.7032866353078
 20
170.6275746810971
 30
0.0
 10
235.8247112010725
 20
170.620761692355
 30
0.0
 10
235.9496341710712
 20
170.6179979374856
 30
0.0
 10
236.0774619962532
 20
170.6192401533901
 30
0.0
 10
236.207697717002
 20
170.6246695120299
 30
0.0
 10
236.3398133600382
 20
170.6339597130238
 30
0.0
 10
236.4283871959201
 20
170.643620698926
 30
0.0
 10
236.4728303571185
 20
170.6484682337484
 30
0.0
  0
SPLINE
  5
1DC
330
1F
100
AcDbEntity
  8
1
100
AcDbSpline
210
0.0
220
0.0
230
1.0
 70
     8
 71
     3
 72
     8
 73
     4
 74
     0
 42
0.000000001
 43
0.0000000001
 40
0.0
 40
0.0
 40
0.0
 40
0.0
 40
1.0
 40
1.0
 40
1.0
 40
1.0
 10
236.4728303571185
 20
170.6484682337484
 30
0.0
 10
236.8608642288309
 20
170.6970248243584
 30
0.0
 10
237.2488981005433
 20
170.745648257686
 30
0.0
 10
237.6369319722556
 20
170.7943347341411
 30
0.0
  0
SPLINE
  5
1DD
330
1F
100
AcDbEntity
  8
1
100
AcDbSpline
210
0.0
220
0.0
230
1.0
 70
     8
 71
     3
 72
     9
 73
     5
 74
     0
 42
0.000000001
 43
0.0000000001
 40
0.0
 40
0.0
 40
0.0
 40
0.0
 40
0.5020466281088347
 40
1.0
 40
1.0
 40
1.0
 40
1.0
 10
234.2679698111959
 20
162.3743670009344
 30
0.0
 10
234.209821546567
 20
162.404222419273
 30
0.0
 10
234.0939991082251
 20
162.4636898405583
 30
0.0
 10
233.9791434605586
 20
162.5226499188917
 30
0.0
 10
233.9219507035223
 20
162.5520092887048
 30
0.0
  0
SPLINE
  5
1DE
330
1F
100
AcDbEntity
  8
1
100
AcDbSpline
210
0.0
220
0.0
230
1.0
 70
    24
 71
     1
 72
     4
 73
     2
 74
     0
 42
0.000000001
 43
0.0000000001
 40
0.0
 40
0.0
 40
1.0
 40
1.0
 10
236.4728303571185
 20
170.6484682337484
 30
0.0
 10
236.4867392606829
 20
170.5719765558194
 30
0.0
  0
SPLINE
  5
1DF
330
1F
100
AcDbEntity
  8
1
100
AcDbSpline
210
0.0
220
0.0
230
1.0
 70
     8
 71
     3
 72
    22
 73
    18
 74
     0
 42
0.000000001
 43
0.0000000001
 40
0.0
 40
0.0
 40
0.0
 40
0.0
 40
0.0327894209453822
 40
0.0655349386230693
 40
0.0982420332812731
 40
0.1309158183632104
 40
0.1635609905597944
 40
0.1961817856250525
 40
0.2287819404766727
 40
0.2613646619749823
 40
0.2939326026432088
 40
0.3264878434636791
 40
0.3590318837618488
 40
0.5395111113661009
 40
0.7167437337620451
 40
0.8941093492186574
 40
1.0
 40
1.0
 40
1.0
 40
1.0
 10
237.6369319722556
 20
170.7943347341411
 30
0.0
 10
237.7001299881212
 20
170.8024840388161
 30
0.0
 10
237.8264414011148
 20
170.8187717366865
 30
0.0
 10
238.0147948809442
 20
170.8490252222144
 30
0.0
 10
238.2014744646441
 20
170.883395087584
 30
0.0
 10
238.385930069632
 20
170.9221854046213
 30
0.0
 10
238.5676644141458
 20
170.9651473226194
 30
0.0
 10
238.7461863865243
 20
171.0121609880388
 30
0.0
 10
238.921024540624
 20
171.063053905438
 30
0.0
 10
239.0917265283427
 20
171.1176526538204
 30
0.0
 10
239.2578542194202
 20
171.1757638588719
 30
0.0
 10
239.419009557358
 20
171.2372053768885
 30
0.0
 10
239.8107250518531
 20
171.3994493780904
 30
0.0
 10
240.3608827400494
 20
171.6977851098814
 30
0.0
 10
240.8866970006819
 20
172.1594468729682
 30
0.0
 10
241.1240079716938
 20
172.5736899622794
 30
0.0
 10
241.160596719275
 20
172.8222692854335
 30
0.0
 10
241.1592521913862
 20
172.913378492922
 30
0.0
  0
SPLINE
  5
1E0
330
1F
100
AcDbEntity
  8
1
100
AcDbSpline
210
0.0
220
0.0
230
1.0
 70
    24
 71
     1
 72
     4
 73
     2
 74
     0
 42
0.000000001
 43
0.0000000001
 40
0.0
 40
0.0
 40
1.0
 40
1.0
 10
238.2517473657979
 20
176.9964812740745
 30
0.0
 10
238.2485838163083
 20
177.0742061682194
 30
0.0
  0
SPLINE
  5
1E1
330
1F
100
AcDbEntity
  8
1
100
AcDbSpline
210
0.0
220
0.0
230
1.0
 70
     8
 71
     2
 72
     7
 73
     4
 74
     0
 42
0.000000001
 43
0.0000000001
 40
0.0
 40
0.0
 40
0.0
 40
0.5
 40
1.0
 40
1.0
 40
1.0
 10
236.4867392606829
 20
170.5719765558194
 30
0.0
 10
236.2393885480254
 20
170.5413397412752
 30
0.0
 10
235.7579913609485
 20
170.542232201207
 30
0.0
 10
235.5438812280536
 20
170.5738856192461
 30
0.0
  0
SPLINE
  5
1E2
330
1F
100
AcDbEntity
  8
1
100
AcDbSpline
210
0.0
220
0.0
230
1.0
 70
    24
 71
     1
 72
     4
 73
     2
 74
     0
 42
0.000000001
 43
0.0000000001
 40
0.0
 40
0.0
 40
1.0
 40
1.0
 10
232.9219548621729
 20
162.7771822290182
 30
0.0
 10
232.9430297641558
 20
162.8248945456514
 30
0.0
  0
SPLINE
  5
1E3
330
1F
100
AcDbEntity
  8
1
100
AcDbSpline
210
0.0
220
0.0
230
1.0
 70
     8
 71
     3
 72
     8
 73
     4
 74
     0
 42
0.000000001
 43
0.0000000001
 40
0.0
 40
0.0
 40
0.0
 40
0.0
 40
1.0
 40
1.0
 40
1.0
 40
1.0
 10
232.6996024213224
 20
169.8271729056953
 30
0.0
 10
232.7100366781884
 20
169.8220887075094
 30
0.0
 10
232.7208040642949
 20
169.8172863589103
 30
0.0
 10
232.7318848109278
 20
169.8127833184349
 30
0.0
  0
SPLINE
  5
1E4
330
1F
100
AcDbEntity
  8
1
100
AcDbSpline
210
0.0
220
0.0
230
1.0
 70
     8
 71
     3
 72
     9
 73
     5
 74
     0
 42
0.000000001
 43
0.0000000001
 40
0.0
 40
0.0
 40
0.0
 40
0.0
 40
0.4990230652972444
 40
1.0
 40
1.0
 40
1.0
 40
1.0
 10
233.7550641984628
 20
170.8441883860298
 30
0.0
 10
233.734817678085
 20
170.8559728719704
 30
0.0
 10
233.6942453643269
 20
170.8795879846977
 30
0.0
 10
233.6469347294779
 20
170.900298553803
 30
0.0
 10
233.6232331926524
 20
170.9106740712293
 30
0.0
  0
SPLINE
  5
1E5
330
1F
100
AcDbEntity
  8
1
100
AcDbSpline
210
0.0
220
0.0
230
1.0
 70
     8
 71
     3
 72
     8
 73
     4
 74
     0
 42
0.000000001
 43
0.0000000001
 40
0.0
 40
0.0
 40
0.0
 40
0.0
 40
1.0
 40
1.0
 40
1.0
 40
1.0
 10
234.2835172296475
 20
162.4291392685908
 30
0.0
 10
234.2767500177039
 20
162.4111710168106
 30
0.0
 10
234.2715626380919
 20
162.392893907583
 30
0.0
 10
234.2679698124579
 20
162.3743670260829
 30
0.0
  0
SPLINE
  5
1E6
330
1F
100
AcDbEntity
  8
1
100
AcDbSpline
210
0.0
220
0.0
230
1.0
 70
     8
 71
     2
 72
     6
 73
     3
 74
     0
 42
0.000000001
 43
0.0000000001
 40
0.0
 40
0.0
 40
0.0
 40
1.0
 40
1.0
 40
1.0
 10
232.8059140938084
 20
169.783825907793
 30
0.0
 10
232.7084772850706
 20
168.8632177261271
 30
0.0
 10
232.6102896404551
 20
168.0186652526827
 30
0.0
  0
SPLINE
  5
1E7
330
1F
100
AcDbEntity
  8
1
100
AcDbSpline
210
0.0
220
0.0
230
1.0
 70
     8
 71
     3
 72
    10
 73
     6
 74
     0
 42
0.000000001
 43
0.0000000001
 40
0.0
 40
0.0
 40
0.0
 40
0.0
 40
0.2982854845457233
 40
0.6316188086873859
 40
1.0
 40
1.0
 40
1.0
 40
1.0
 10
225.0277341884207
 20
167.1872799712203
 30
0.0
 10
225.7703080735086
 20
167.2637396250747
 30
0.0
 10
227.3427065205062
 20
167.42564276144
 30
0.0
 10
229.832333347543
 20
167.6867125543622
 30
0.0
 10
231.5794129794253
 20
167.8736746055195
 30
0.0
 10
232.4965826573165
 20
167.9718246389286
 30
0.0
  0
SPLINE
  5
1E8
330
1F
100
AcDbEntity
  8
1
100
AcDbSpline
210
0.0
220
0.0
230
1.0
 70
    24
 71
     1
 72
     4
 73
     2
 74
     0
 42
0.000000001
 43
0.0000000001
 40
0.0
 40
0.0
 40
1.0
 40
1.0
 10
232.4965830668417
 20
183.7145418732368
 30
0.0
 10
232.6102900843721
 20
183.6008581289869
 30
0.0
  0
SPLINE
  5
1E9
330
1F
100
AcDbEntity
  8
1
100
AcDbSpline
210
0.0
220
0.0
230
1.0
 70
     8
 71
     3
 72
     8
 73
     4
 74
     0
 42
0.000000001
 43
0.0000000001
 40
0.0
 40
0.0
 40
0.0
 40
0.0
 40
1.0
 40
1.0
 40
1.0
 40
1.0
 10
232.4965826229172
 20
167.9718246416227
 30
0.0
 10
232.5642560060433
 20
168.5610869215012
 30
0.0
 10
232.6319293891694
 20
169.1834317750882
 30
0.0
 10
232.6996027722956
 20
169.8271758647487
 30
0.0
  0
SPLINE
  5
1EA
330
1F
100
AcDbEntity
  8
1
100
AcDbSpline
210
0.0
220
0.0
230
1.0
 70
     8
 71
     2
 72
     6
 73
     3
 74
     0
 42
0.000000001
 43
0.0000000001
 40
0.0
 40
0.0
 40
0.0
 40
1.0
 40
1.0
 40
1.0
 10
232.8059140938084
 20
183.417890252129
 30
0.0
 10
232.7084772850706
 20
183.6001231435153
 30
0.0
 10
232.6102896404551
 20
183.6008581323108
 30
0.0
  0
SPLINE
  5
1EB
330
1F
100
AcDbEntity
  8
1
100
AcDbSpline
210
0.0
220
0.0
230
1.0
 70
    24
 71
     1
 72
     4
 73
     2
 74
     0
 42
0.000000001
 43
0.0000000001
 40
0.0
 40
0.0
 40
1.0
 40
1.0
 10
225.0277341884207
 20
167.187279826973
 30
0.0
 10
225.041643091985
 20
167.1518108420678
 30
0.0
  0
SPLINE
  5
1EC
330
1F
100
AcDbEntity
  8
1
100
AcDbSpline
210
0.0
220
0.0
230
1.0
 70
     8
 71
     2
 72
     6
 73
     3
 74
     0
 42
0.000000001
 43
0.0000000001
 40
0.0
 40
0.0
 40
0.0
 40
1.0
 40
1.0
 40
1.0
 10
240.6392007441966
 20
166.5227757610765
 30
0.0
 10
240.5035605343746
 20
166.782555626242
 30
0.0
 10
240.326596702445
 20
167.0160869618927
 30
0.0
  0
SPLINE
  5
1ED
330
1F
100
AcDbEntity
  8
1
100
AcDbSpline
210
0.0
220
0.0
230
1.0
 70
    24
 71
     1
 72
     4
 73
     2
 74
     0
 42
0.000000001
 43
0.0000000001
 40
0.0
 40
0.0
 40
1.0
 40
1.0
 10
240.6395430102523
 20
166.5221200809649
 30
0.0
 10
240.7463015988969
 20
166.5791901736143
 30
0.0
  0
SPLINE
  5
1EE
330
1F
100
AcDbEntity
  8
1
100
AcDbSpline
210
0.0
220
0.0
230
1.0
 70
    24
 71
     1
 72
     4
 73
     2
 74
     0
 42
0.000000001
 43
0.0000000001
 40
0.0
 40
0.0
 40
1.0
 40
1.0
 10
224.3832724671686
 20
165.960907610829
 30
0.0
 10
224.5515812742309
 20
165.8023718523459
 30
0.0
  0
SPLINE
  5
1EF
330
1F
100
AcDbEntity
  8
1
100
AcDbSpline
210
0.0
220
0.0
230
1.0
 70
     8
 71
     3
 72
     8
 73
     4
 74
     0
 42
0.000000001
 43
0.0000000001
 40
0.0
 40
0.0
 40
0.0
 40
0.0
 40
1.0
 40
1.0
 40
1.0
 40
1.0
 10
233.9219507035223
 20
170.8815989142948
 30
0.0
 10
234.4389105880542
 20
170.8063494536478
 30
0.0
 10
234.955870472586
 20
170.730223364838
 30
0.0
 10
235.4728303571178
 20
170.6532215892519
 30
0.0
  0
SPLINE
  5
1F0
330
1F
100
AcDbEntity
  8
1
100
AcDbSpline
210
0.0
220
0.0
230
1.0
 70
    24
 71
     1
 72
     4
 73
     2
 74
     0
 42
0.000000001
 43
0.0000000001
 40
0.0
 40
0.0
 40
1.0
 40
1.0
 10
232.4965826573165
 20
183.71453512577
 30
0.0
 10
232.5104915608808
 20
183.6061879248089
 30
0.0
  0
SPLINE
  5
1F1
330
1F
100
AcDbEntity
  8
1
100
AcDbSpline
210
0.0
220
0.0
230
1.0
 70
    24
 71
     1
 72
     4
 73
     2
 74
     0
 42
0.000000001
 43
0.0000000001
 40
0.0
 40
0.0
 40
1.0
 40
1.0
 10
232.4965826573165
 20
167.9718246389286
 30
0.0
 10
232.5104915608808
 20
167.9278165237289
 30
0.0
  0
SPLINE
  5
1F2
330
1F
100
AcDbEntity
  8
1
100
AcDbSpline
210
0.0
220
0.0
230
1.0
 70
    24
 71
     1
 72
     4
 73
     2
 74
     0
 42
0.000000001
 43
0.0000000001
 40
0.0
 40
0.0
 40
1.0
 40
1.0
 10
233.7856969593078
 20
170.8255497307157
 30
0.0
 10
233.7550641984628
 20
170.8441883860298
 30
0.0
  0
SPLINE
  5
1F3
330
1F
100
AcDbEntity
  8
1
100
AcDbSpline
210
0.0
220
0.0
230
1.0
 70
     8
 71
     3
 72
    25
 73
    21
 74
     0
 42
0.000000001
 43
0.0000000001
 40
0.0
 40
0.0
 40
0.0
 40
0.0
 40
0.0280519266237119
 40
0.056004734558126
 40
0.0838891461139359
 40
0.1117363820324101
 40
0.1395780411893776
 40
0.1674459749078314
 40
0.1953721579631406
 40
0.2233885584858844
 40
0.2515270089987801
 40
0.3746542730310249
 40
0.5015424916331961
 40
0.6218233648557607
 40
0.750638295372383
 40
0.7976141052225782
 40
0.8460021458070395
 40
0.8958403837875017
 40
0.9471628693282704
 40
1.0
 40
1.0
 40
1.0
 40
1.0
 10
226.1195210769974
 20
164.5482752158443
 30
0.0
 10
226.1404315189652
 20
164.4950004725441
 30
0.0
 10
226.1821785179364
 20
164.3886392269439
 30
0.0
 10
226.2529885075503
 20
164.2387096328324
 30
0.0
 10
226.3300351784214
 20
164.0962225414424
 30
0.0
 10
226.4142167971336
 20
163.9617789088364
 30
0.0
 10
226.505715404595
 20
163.8351360952014
 30
0.0
 10
226.6049136127122
 20
163.7162629320369
 30
0.0
 10
226.712140593739
 20
163.6050539603681
 30
0.0
 10
226.8277653748374
 20
163.5014159442202
 30
0.0
 10
227.0916616539085
 20
163.297154666069
 30
0.0
 10
227.5766671719839
 20
163.0498041395517
 30
0.0
 10
228.3880144804638
 20
162.859230841901
 30
0.0
 10
229.363824997228
 20
162.7756107000783
 30
0.0
 10
230.2339534565813
 20
162.7673467758318
 30
0.0
 10
230.9328598991594
 20
162.776735841533
 30
0.0
 10
231.3984132513157
 20
162.7865780196572
 30
0.0
 10
231.889792068143
 20
162.798923237115
 30
0.0
 10
232.4058910365257
 20
162.8125125160394
 30
0.0
 10
232.7622533716794
 20
162.8207359708618
 30
0.0
 10
232.9430255745126
 20
162.8249074892757
 30
0.0
  0
SPLINE
  5
1F4
330
1F
100
AcDbEntity
  8
1
100
AcDbSpline
210
0.0
220
0.0
230
1.0
 70
     8
 71
     3
 72
     8
 73
     4
 74
     0
 42
0.000000001
 43
0.0000000001
 40
0.0
 40
0.0
 40
0.0
 40
0.0
 40
1.0
 40
1.0
 40
1.0
 40
1.0
 10
232.4965826229172
 20
183.7145351257675
 30
0.0
 10
232.5307680893474
 20
183.7142599067014
 30
0.0
 10
232.5649535557777
 20
183.6970700422293
 30
0.0
 10
232.599139022208
 20
183.6631272574359
 30
0.0
  0
SPLINE
  5
1F5
330
1F
100
AcDbEntity
  8
1
100
AcDbSpline
210
0.0
220
0.0
230
1.0
 70
    24
 71
     1
 72
     4
 73
     2
 74
     0
 42
0.000000001
 43
0.0000000001
 40
0.0
 40
0.0
 40
1.0
 40
1.0
 10
235.5438812280536
 20
170.5738856192461
 30
0.0
 10
233.9930015744581
 20
170.8019711731965
 30
0.0
  0
SPLINE
  5
1F6
330
1F
100
AcDbEntity
  8
1
100
AcDbSpline
210
0.0
220
0.0
230
1.0
 70
     8
 71
     3
 72
    24
 73
    20
 74
     0
 42
0.000000001
 43
0.0000000001
 40
0.0
 40
0.0
 40
0.0
 40
0.0
 40
0.0353296928342084
 40
0.0707060074557403
 40
0.1061180207516499
 40
0.1415529063951749
 40
0.1769962061946251
 40
0.2124321519384319
 40
0.2478440408976801
 40
0.371504516810749
 40
0.496480638684025
 40
0.6211987894344297
 40
0.7477379555126815
 40
0.7894215886064728
 40
0.8311807064634237
 40
0.8730606095974733
 40
0.9151151968772165
 40
0.9574058711370332
 40
1.0
 40
1.0
 40
1.0
 40
1.0
 10
240.7466657432756
 20
166.578511229211
 30
0.0
 10
240.7764158554131
 20
166.5104189876919
 30
0.0
 10
240.8359553385464
 20
166.3741446487352
 30
0.0
 10
240.9139878890351
 20
166.1665206748721
 30
0.0
 10
240.983010431855
 20
165.9566315927152
 30
0.0
 10
241.0415958947348
 20
165.744532382757
 30
0.0
 10
241.0893083756672
 20
165.5306329084351
 30
0.0
 10
241.1254668585374
 20
165.3152895732154
 30
0.0
 10
241.1694680342404
 20
164.9192613323032
 30
0.0
 10
241.1572892763412
 20
164.3351116071221
 30
0.0
 10
240.9601067352697
 20
163.5827610637026
 30
0.0
 10
240.5622246280614
 20
162.8752920172436
 30
0.0
 10
240.0935319727472
 20
162.3991679444508
 30
0.0
 10
239.6924114781218
 20
162.1149164211429
 30
0.0
 10
239.4348732874969
 20
161.9633817450398
 30
0.0
 10
239.1602863452906
 20
161.8312863223207
 30
0.0
 10
238.8701589312238
 20
161.720824897756
 30
0.0
 10
238.5669669598844
 20
161.6312540699899
 30
0.0
 10
238.357083913052
 20
161.5924421051875
 30
0.0
 10
238.2517672342821
 20
161.572966748358
 30
0.0
  0
SPLINE
  5
1F7
330
1F
100
AcDbEntity
  8
1
100
AcDbSpline
210
0.0
220
0.0
230
1.0
 70
     8
 71
     2
 72
     6
 73
     3
 74
     0
 42
0.000000001
 43
0.0000000001
 40
0.0
 40
0.0
 40
0.0
 40
1.0
 40
1.0
 40
1.0
 10
242.1348586025662
 20
170.8433570094716
 30
0.0
 10
242.0779744931662
 20
171.0440199766756
 30
0.0
 10
242.0100950992169
 20
171.2482372801539
 30
0.0
  0
SPLINE
  5
1F8
330
1F
100
AcDbEntity
  8
1
100
AcDbSpline
210
0.0
220
0.0
230
1.0
 70
     8
 71
     3
 72
    12
 73
     8
 74
     0
 42
0.000000001
 43
0.0000000001
 40
0.0
 40
0.0
 40
0.0
 40
0.0
 40
0.2201086066745547
 40
0.528727426112595
 40
0.7704477664670577
 40
0.9567030523944652
 40
1.0
 40
1.0
 40
1.0
 40
1.0
 10
241.2759442360957
 20
165.45023831028
 30
0.0
 10
241.3387877502817
 20
165.6177665684855
 30
0.0
 10
241.488749925783
 20
166.0232204639712
 30
0.0
 10
241.7055224065061
 20
166.6233828037689
 30
0.0
 10
241.9063422736058
 20
167.2098849782085
 30
0.0
 10
242.0325631771056
 20
167.5922523508451
 30
0.0
 10
242.088052287972
 20
167.7803223351909
 30
0.0
 10
242.0983912519111
 20
167.8158605709556
 30
0.0
  0
SPLINE
  5
1F9
330
1F
100
AcDbEntity
  8
1
100
AcDbSpline
210
0.0
220
0.0
230
1.0
 70
     8
 71
     3
 72
    11
 73
     7
 74
     0
 42
0.000000001
 43
0.0000000001
 40
0.0
 40
0.0
 40
0.0
 40
0.0
 40
0.0614485502576751
 40
0.3113241427744459
 40
0.6316941683409956
 40
1.0
 40
1.0
 40
1.0
 40
1.0
 10
242.0100950992169
 20
171.2482372801539
 30
0.0
 10
241.9963020860399
 20
171.2924500374787
 30
0.0
 10
241.9258368614725
 20
171.5162001540489
 30
0.0
 10
241.7729860545255
 20
171.9679886438835
 30
0.0
 10
241.5426646023475
 20
172.6310206642275
 30
0.0
 10
241.3705611238544
 20
173.1113114396821
 30
0.0
 10
241.2776550552873
 20
173.3662968468846
 30
0.0
  0
SPLINE
  5
1FA
330
1F
100
AcDbEntity
  8
1
100
AcDbSpline
210
0.0
220
0.0
230
1.0
 70
     8
 71
     2
 72
     6
 73
     3
 74
     0
 42
0.000000001
 43
0.0000000001
 40
0.0
 40
0.0
 40
0.0
 40
1.0
 40
1.0
 40
1.0
 10
240.6881708575474
 20
171.9904937632915
 30
0.0
 10
240.7386326605322
 20
172.0451185083016
 30
0.0
 10
240.7894789675724
 20
172.0999798586575
 30
0.0
  0
SPLINE
  5
1FB
330
1F
100
AcDbEntity
  8
1
100
AcDbSpline
210
0.0
220
0.0
230
1.0
 70
     8
 71
     2
 72
     6
 73
     3
 74
     0
 42
0.000000001
 43
0.0000000001
 40
0.0
 40
0.0
 40
0.0
 40
1.0
 40
1.0
 40
1.0
 10
241.132339593852
 20
177.4472860757702
 30
0.0
 10
241.0717956428034
 20
177.512798337317
 30
0.0
 10
241.0111752837709
 20
177.5793078951507
 30
0.0
  0
SPLINE
  5
1FC
330
1F
100
AcDbEntity
  8
1
100
AcDbSpline
210
0.0
220
0.0
230
1.0
 70
    24
 71
     1
 72
     4
 73
     2
 74
     0
 42
0.000000001
 43
0.0000000001
 40
0.0
 40
0.0
 40
1.0
 40
1.0
 10
232.7139662986875
 20
183.5491535278208
 30
0.0
 10
232.5993850421278
 20
183.6631388514233
 30
0.0
  0
LINE
  5
1FD
330
1F
100
AcDbEntity
  8
SK4
100
AcDbLine
 10
184.5057139999999
 20
173.2145379999999
 30
0.0
 11
214.505714
 21
173.2145379999999
 31
0.0
  0
LINE
  5
1FE
330
1F
100
AcDbEntity
  8
4
100
AcDbLine
 10
207.505714
 20
173.2145379999999
 30
0.0
 11
244.159429
 21
173.2145379999999
 31
0.0
  0
MTEXT
  5
1FF
330
1F
100
AcDbEntity
  8
SK6
100
AcDbMText
 10
174.712467
 20
133.336391
 30
0.0
 40
3.5
 41
0.0
 71
     7
 72
     5
  1
{\H1.5x;\W0.75;100E3R126M12-ISRC10-C}
  7
cesky
 73
     2
 44
0.8433729999999998
1001
ACAD
1000
MTEXTBEGIN
1070
    73
1070
     2
1070
    44
1040
0.8433729999999998
1070
    74
1070
     0
1000
MTEXTEND
  0
LINE
  5
202
330
1F
100
AcDbEntity
  8
2
 60
     1
100
AcDbLine
 10
237.542884
 20
192.897833
 30
0.0
 11
235.042886
 21
192.457016
 31
0.0
  0
LINE
  5
203
330
1F
100
AcDbEntity
  8
2
 60
     1
100
AcDbLine
 10
235.042886
 20
192.457016
 30
0.0
 11
235.042883
 21
193.33865
 31
0.0
  0
LINE
  5
204
330
1F
100
AcDbEntity
  8
2
 60
     1
100
AcDbLine
 10
235.042883
 20
193.33865
 30
0.0
 11
237.542884
 21
192.897833
 31
0.0
  0
LINE
  5
206
330
1F
100
AcDbEntity
  8
2
 60
     1
100
AcDbLine
 10
242.505716
 20
192.897833
 30
0.0
 11
245.005714
 21
193.33865
 31
0.0
  0
LINE
  5
207
330
1F
100
AcDbEntity
  8
2
 60
     1
100
AcDbLine
 10
245.005714
 20
193.33865
 30
0.0
 11
245.005717
 21
192.457016
 31
0.0
  0
LINE
  5
208
330
1F
100
AcDbEntity
  8
2
 60
     1
100
AcDbLine
 10
245.005717
 20
192.457016
 30
0.0
 11
242.505716
 21
192.897833
 31
0.0
  0
LINE
  5
20B
330
1F
100
AcDbEntity
  8
2
 60
     1
100
AcDbLine
 10
242.505716
 20
201.736196
 30
0.0
 11
240.005717
 21
201.295378
 31
0.0
  0
LINE
  5
20C
330
1F
100
AcDbEntity
  8
2
 60
     1
100
AcDbLine
 10
240.005717
 20
201.295378
 30
0.0
 11
240.005714
 21
202.177013
 31
0.0
  0
LINE
  5
20D
330
1F
100
AcDbEntity
  8
2
 60
     1
100
AcDbLine
 10
240.005714
 20
202.177013
 30
0.0
 11
242.505716
 21
201.736196
 31
0.0
  0
LINE
  5
20F
330
1F
100
AcDbEntity
  8
2
 60
     1
100
AcDbLine
 10
210.505714
 20
201.736196
 30
0.0
 11
213.005713
 21
202.177013
 31
0.0
  0
LINE
  5
210
330
1F
100
AcDbEntity
  8
2
 60
     1
100
AcDbLine
 10
213.005713
 20
202.177013
 30
0.0
 11
213.005716
 21
201.295378
 31
0.0
  0
LINE
  5
211
330
1F
100
AcDbEntity
  8
2
 60
     1
100
AcDbLine
 10
213.005716
 20
201.295378
 30
0.0
 11
210.505714
 21
201.736196
 31
0.0
  0
LINE
  5
215
330
1F
100
AcDbEntity
  8
2
 60
     1
100
AcDbLine
 10
254.75471
 20
185.889434
 30
0.0
 11
255.195528
 21
183.389436
 31
0.0
  0
LINE
  5
216
330
1F
100
AcDbEntity
  8
2
 60
     1
100
AcDbLine
 10
255.195528
 20
183.389436
 30
0.0
 11
254.313893
 21
183.389432
 31
0.0
  0
LINE
  5
217
330
1F
100
AcDbEntity
  8
2
 60
     1
100
AcDbLine
 10
254.313893
 20
183.389432
 30
0.0
 11
254.75471
 21
185.889434
 31
0.0
  0
LINE
  5
293
330
1F
100
AcDbEntity
  8
2
100
AcDbLine
 10
254.7518656221245
 20
185.8733011735237
 30
0.0
 11
254.756702109526
 21
185.8781376609253
 31
0.0
  0
LINE
  5
294
330
1F
100
AcDbEntity
  8
2
100
AcDbLine
 10
254.7326412434501
 20
185.7642742336387
 30
0.0
 11
254.7701631823878
 21
185.8017961725764
 31
0.0
  0
LINE
  5
295
330
1F
100
AcDbEntity
  8
2
100
AcDbLine
 10
254.7134168647758
 20
185.6552472937537
 30
0.0
 11
254.7836242552496
 21
185.7254546842275
 31
0.0
  0
LINE
  5
296
330
1F
100
AcDbEntity
  8
2
100
AcDbLine
 10
254.6941924861014
 20
185.5462203538687
 30
0.0
 11
254.7970853281114
 21
185.6491131958786
 31
0.0
  0
LINE
  5
297
330
1F
100
AcDbEntity
  8
2
100
AcDbLine
 10
254.6749681074271
 20
185.4371934139836
 30
0.0
 11
254.8105464009732
 21
185.5727717075297
 31
0.0
  0
LINE
  5
298
330
1F
100
AcDbEntity
  8
2
100
AcDbLine
 10
254.6557437287528
 20
185.3281664740987
 30
0.0
 11
254.824007473835
 21
185.4964302191808
 31
0.0
  0
LINE
  5
299
330
1F
100
AcDbEntity
  8
2
100
AcDbLine
 10
254.6365193500784
 20
185.2191395342136
 30
0.0
 11
254.8374685466967
 21
185.4200887308319
 31
0.0
  0
LINE
  5
29A
330
1F
100
AcDbEntity
  8
2
100
AcDbLine
 10
254.6172949714041
 20
185.1101125943286
 30
0.0
 11
254.8509296195585
 21
185.343747242483
 31
0.0
  0
LINE
  5
29B
330
1F
100
AcDbEntity
  8
2
100
AcDbLine
 10
254.5980705927298
 20
185.0010856544436
 30
0.0
 11
254.8643906924203
 21
185.2674057541341
 31
0.0
  0
LINE
  5
29C
330
1F
100
AcDbEntity
  8
2
100
AcDbLine
 10
254.5788462140555
 20
184.8920587145586
 30
0.0
 11
254.8778517652821
 21
185.1910642657852
 31
0.0
  0
LINE
  5
29D
330
1F
100
AcDbEntity
  8
2
100
AcDbLine
 10
254.5596218353811
 20
184.7830317746735
 30
0.0
 11
254.8913128381439
 21
185.1147227774363
 31
0.0
  0
LINE
  5
29E
330
1F
100
AcDbEntity
  8
2
100
AcDbLine
 10
254.5403974567068
 20
184.6740048347885
 30
0.0
 11
254.9047739110058
 21
185.0383812890874
 31
0.0
  0
LINE
  5
29F
330
1F
100
AcDbEntity
  8
2
100
AcDbLine
 10
254.5211730780324
 20
184.5649778949034
 30
0.0
 11
254.9182349838675
 21
184.9620398007385
 31
0.0
  0
LINE
  5
2A0
330
1F
100
AcDbEntity
  8
2
100
AcDbLine
 10
254.5019486993581
 20
184.4559509550184
 30
0.0
 11
254.9316960567293
 21
184.8856983123896
 31
0.0
  0
LINE
  5
2A1
330
1F
100
AcDbEntity
  8
2
100
AcDbLine
 10
254.4827243206837
 20
184.3469240151334
 30
0.0
 11
254.9451571295911
 21
184.8093568240407
 31
0.0
  0
LINE
  5
2A2
330
1F
100
AcDbEntity
  8
2
100
AcDbLine
 10
254.4634999420094
 20
184.2378970752483
 30
0.0
 11
254.9586182024529
 21
184.7330153356918
 31
0.0
  0
LINE
  5
2A3
330
1F
100
AcDbEntity
  8
2
100
AcDbLine
 10
254.4442755633351
 20
184.1288701353633
 30
0.0
 11
254.9720792753147
 21
184.6566738473429
 31
0.0
  0
LINE
  5
2A4
330
1F
100
AcDbEntity
  8
2
100
AcDbLine
 10
254.4250511846608
 20
184.0198431954783
 30
0.0
 11
254.9855403481765
 21
184.580332358994
 31
0.0
  0
LINE
  5
2A5
330
1F
100
AcDbEntity
  8
2
100
AcDbLine
 10
254.4058268059865
 20
183.9108162555933
 30
0.0
 11
254.9990014210383
 21
184.5039908706452
 31
0.0
  0
LINE
  5
2A6
330
1F
100
AcDbEntity
  8
2
100
AcDbLine
 10
254.3866024273121
 20
183.8017893157083
 30
0.0
 11
255.0124624939001
 21
184.4276493822962
 31
0.0
  0
LINE
  5
2A7
330
1F
100
AcDbEntity
  8
2
100
AcDbLine
 10
254.3673780486378
 20
183.6927623758233
 30
0.0
 11
255.0259235667619
 21
184.3513078939474
 31
0.0
  0
LINE
  5
2A8
330
1F
100
AcDbEntity
  8
2
100
AcDbLine
 10
254.3481536699635
 20
183.5837354359382
 30
0.0
 11
255.0393846396237
 21
184.2749664055984
 31
0.0
  0
LINE
  5
2A9
330
1F
100
AcDbEntity
  8
2
100
AcDbLine
 10
254.3289292912891
 20
183.4747084960532
 30
0.0
 11
255.0528457124855
 21
184.1986249172495
 31
0.0
  0
LINE
  5
2AA
330
1F
100
AcDbEntity
  8
2
100
AcDbLine
 10
254.3334557694189
 20
183.3894324129722
 30
0.0
 11
255.0663067853473
 21
184.1222834289007
 31
0.0
  0
LINE
  5
2AB
330
1F
100
AcDbEntity
  8
2
100
AcDbLine
 10
254.423258660494
 20
183.3894327428366
 30
0.0
 11
255.0797678582091
 21
184.0459419405518
 31
0.0
  0
LINE
  5
2AC
330
1F
100
AcDbEntity
  8
2
100
AcDbLine
 10
254.5130615515692
 20
183.3894330727011
 30
0.0
 11
255.0932289310709
 21
183.9696004522029
 31
0.0
  0
LINE
  5
2AD
330
1F
100
AcDbEntity
  8
2
100
AcDbLine
 10
254.6028644426443
 20
183.3894334025656
 30
0.0
 11
255.1066900039327
 21
183.893258963854
 31
0.0
  0
LINE
  5
2AE
330
1F
100
AcDbEntity
  8
2
100
AcDbLine
 10
254.6926673337194
 20
183.38943373243
 30
0.0
 11
255.1201510767945
 21
183.8169174755051
 31
0.0
  0
LINE
  5
2AF
330
1F
100
AcDbEntity
  8
2
100
AcDbLine
 10
254.7824702247945
 20
183.3894340622944
 30
0.0
 11
255.1336121496563
 21
183.7405759871562
 31
0.0
  0
LINE
  5
2B0
330
1F
100
AcDbEntity
  8
2
100
AcDbLine
 10
254.8722731158696
 20
183.3894343921589
 30
0.0
 11
255.1470732225181
 21
183.6642344988073
 31
0.0
  0
LINE
  5
2B1
330
1F
100
AcDbEntity
  8
2
100
AcDbLine
 10
254.9620760069447
 20
183.3894347220233
 30
0.0
 11
255.1605342953799
 21
183.5878930104584
 31
0.0
  0
LINE
  5
2B2
330
1F
100
AcDbEntity
  8
2
100
AcDbLine
 10
255.0518788980199
 20
183.3894350518878
 30
0.0
 11
255.1739953682417
 21
183.5115515221095
 31
0.0
  0
LINE
  5
2B3
330
1F
100
AcDbEntity
  8
2
100
AcDbLine
 10
255.141681789095
 20
183.3894353817522
 30
0.0
 11
255.1874564411034
 21
183.4352100337606
 31
0.0
  0
TEXT
  5
2B6
330
1F
100
AcDbEntity
  8
2
100
AcDbText
 10
252.2963773333334
 20
170.5796437659873
 30
0.0
 40
3.5
  1
25,4
 50
89.99999999999991
 41
0.75
  7
cesky
100
AcDbText
  0
TEXT
  5
2B7
330
1F
100
AcDbEntity
  8
2
100
AcDbText
 10
252.3868943333333
 20
163.6875384174279
 30
0.0
 40
3.5
  1
\U+00D8
 50
89.99999999999991
  7
cesky
100
AcDbText
  0
LINE
  5
2B8
330
1F
100
AcDbEntity
  8
2
100
AcDbLine
 10
210.5321799680966
 20
201.7315289694484
 30
0.0
 11
210.5435111582229
 21
201.7428601595747
 31
0.0
  0
LINE
  5
2B9
330
1F
100
AcDbEntity
  8
2
100
AcDbLine
 10
210.6085214712687
 20
201.7180679114099
 30
0.0
 11
210.6525381283416
 21
201.7620845684827
 31
0.0
  0
LINE
  5
2BA
330
1F
100
AcDbEntity
  8
2
100
AcDbLine
 10
210.684862974441
 20
201.7046068533714
 30
0.0
 11
210.7615650984604
 21
201.7813089773909
 31
0.0
  0
LINE
  5
2BB
330
1F
100
AcDbEntity
  8
2
100
AcDbLine
 10
210.7612044776131
 20
201.6911457953329
 30
0.0
 11
210.8705920685792
 21
201.8005333862989
 31
0.0
  0
LINE
  5
2BC
330
1F
100
AcDbEntity
  8
2
100
AcDbLine
 10
210.8375459807854
 20
201.6776847372945
 30
0.0
 11
210.979619038698
 21
201.819757795207
 31
0.0
  0
LINE
  5
2BD
330
1F
100
AcDbEntity
  8
2
100
AcDbLine
 10
210.9138874839576
 20
201.664223679256
 30
0.0
 11
211.0886460088167
 21
201.838982204115
 31
0.0
  0
LINE
  5
2BE
330
1F
100
AcDbEntity
  8
2
100
AcDbLine
 10
210.9902289871298
 20
201.6507626212175
 30
0.0
 11
211.1976729789355
 21
201.8582066130231
 31
0.0
  0
LINE
  5
2BF
330
1F
100
AcDbEntity
  8
2
100
AcDbLine
 10
211.066570490302
 20
201.6373015631791
 30
0.0
 11
211.3066999490542
 21
201.8774310219312
 31
0.0
  0
LINE
  5
2C0
330
1F
100
AcDbEntity
  8
2
100
AcDbLine
 10
211.1429119934742
 20
201.6238405051405
 30
0.0
 11
211.4157269191729
 21
201.8966554308393
 31
0.0
  0
LINE
  5
2C1
330
1F
100
AcDbEntity
  8
2
100
AcDbLine
 10
211.2192534966464
 20
201.6103794471021
 30
0.0
 11
211.5247538892917
 21
201.9158798397473
 31
0.0
  0
LINE
  5
2C2
330
1F
100
AcDbEntity
  8
2
100
AcDbLine
 10
211.2955949998186
 20
201.5969183890636
 30
0.0
 11
211.6337808594105
 21
201.9351042486554
 31
0.0
  0
LINE
  5
2C3
330
1F
100
AcDbEntity
  8
2
100
AcDbLine
 10
211.3719365029909
 20
201.5834573310251
 30
0.0
 11
211.7428078295292
 21
201.9543286575634
 31
0.0
  0
LINE
  5
2C4
330
1F
100
AcDbEntity
  8
2
100
AcDbLine
 10
211.4482780061631
 20
201.5699962729866
 30
0.0
 11
211.8518347996479
 21
201.9735530664715
 31
0.0
  0
LINE
  5
2C5
330
1F
100
AcDbEntity
  8
2
100
AcDbLine
 10
211.5246195093353
 20
201.5565352149481
 30
0.0
 11
211.9608617697668
 21
201.9927774753796
 31
0.0
  0
LINE
  5
2C6
330
1F
100
AcDbEntity
  8
2
100
AcDbLine
 10
211.6009610125075
 20
201.5430741569097
 30
0.0
 11
212.0698887398855
 21
202.0120018842876
 31
0.0
  0
LINE
  5
2C7
330
1F
100
AcDbEntity
  8
2
100
AcDbLine
 10
211.6773025156797
 20
201.5296130988712
 30
0.0
 11
212.1789157100043
 21
202.0312262931958
 31
0.0
  0
LINE
  5
2C8
330
1F
100
AcDbEntity
  8
2
100
AcDbLine
 10
211.7536440188519
 20
201.5161520408327
 30
0.0
 11
212.287942680123
 21
202.0504507021038
 31
0.0
  0
LINE
  5
2C9
330
1F
100
AcDbEntity
  8
2
100
AcDbLine
 10
211.8299855220241
 20
201.5026909827942
 30
0.0
 11
212.3969696502418
 21
202.0696751110119
 31
0.0
  0
LINE
  5
2CA
330
1F
100
AcDbEntity
  8
2
100
AcDbLine
 10
211.9063270251963
 20
201.4892299247557
 30
0.0
 11
212.5059966203606
 21
202.08889951992
 31
0.0
  0
LINE
  5
2CB
330
1F
100
AcDbEntity
  8
2
100
AcDbLine
 10
211.9826685283686
 20
201.4757688667173
 30
0.0
 11
212.6150235904793
 21
202.108123928828
 31
0.0
  0
LINE
  5
2CC
330
1F
100
AcDbEntity
  8
2
100
AcDbLine
 10
212.0590100315408
 20
201.4623078086788
 30
0.0
 11
212.7240505605981
 21
202.1273483377361
 31
0.0
  0
LINE
  5
2CD
330
1F
100
AcDbEntity
  8
2
100
AcDbLine
 10
212.135351534713
 20
201.4488467506403
 30
0.0
 11
212.8330775307168
 21
202.1465727466441
 31
0.0
  0
LINE
  5
2CE
330
1F
100
AcDbEntity
  8
2
100
AcDbLine
 10
212.2116930378851
 20
201.4353856926018
 30
0.0
 11
212.9421045008356
 21
202.1657971555522
 31
0.0
  0
LINE
  5
2CF
330
1F
100
AcDbEntity
  8
2
100
AcDbLine
 10
212.2880345410574
 20
201.4219246345633
 30
0.0
 11
213.0057128987518
 21
202.1396029922577
 31
0.0
  0
LINE
  5
2D0
330
1F
100
AcDbEntity
  8
2
100
AcDbLine
 10
212.3643760442296
 20
201.4084635765249
 30
0.0
 11
213.0057132286139
 21
202.0498007609091
 31
0.0
  0
LINE
  5
2D1
330
1F
100
AcDbEntity
  8
2
100
AcDbLine
 10
212.4407175474018
 20
201.3950025184863
 30
0.0
 11
213.0057135584759
 21
201.9599985295604
 31
0.0
  0
LINE
  5
2D2
330
1F
100
AcDbEntity
  8
2
100
AcDbLine
 10
212.517059050574
 20
201.3815414604479
 30
0.0
 11
213.0057138883379
 21
201.8701962982117
 31
0.0
  0
LINE
  5
2D3
330
1F
100
AcDbEntity
  8
2
100
AcDbLine
 10
212.5934005537462
 20
201.3680804024093
 30
0.0
 11
213.0057142181999
 21
201.780394066863
 31
0.0
  0
LINE
  5
2D4
330
1F
100
AcDbEntity
  8
2
100
AcDbLine
 10
212.6697420569184
 20
201.3546193443709
 30
0.0
 11
213.0057145480619
 21
201.6905918355144
 31
0.0
  0
LINE
  5
2D5
330
1F
100
AcDbEntity
  8
2
100
AcDbLine
 10
212.7460835600907
 20
201.3411582863325
 30
0.0
 11
213.005714877924
 21
201.6007896041657
 31
0.0
  0
LINE
  5
2D6
330
1F
100
AcDbEntity
  8
2
100
AcDbLine
 10
212.8224250632628
 20
201.327697228294
 30
0.0
 11
213.0057152077859
 21
201.5109873728171
 31
0.0
  0
LINE
  5
2D7
330
1F
100
AcDbEntity
  8
2
100
AcDbLine
 10
212.8987665664351
 20
201.3142361702555
 30
0.0
 11
213.005715537648
 21
201.4211851414684
 31
0.0
  0
LINE
  5
2D8
330
1F
100
AcDbEntity
  8
2
100
AcDbLine
 10
212.9751080696073
 20
201.300775112217
 30
0.0
 11
213.00571586751
 21
201.3313829101198
 31
0.0
  0
LINE
  5
2D9
330
1F
100
AcDbEntity
  8
2
100
AcDbLine
 10
240.0057144707925
 20
202.1090336398803
 30
0.0
 11
240.0635039622723
 21
202.1668231313602
 31
0.0
  0
LINE
  5
2DA
330
1F
100
AcDbEntity
  8
2
100
AcDbLine
 10
240.0057148006544
 20
202.0192314085316
 30
0.0
 11
240.1398454654445
 21
202.1533620733217
 31
0.0
  0
LINE
  5
2DB
330
1F
100
AcDbEntity
  8
2
100
AcDbLine
 10
240.0057151305165
 20
201.9294291771829
 30
0.0
 11
240.2161869686167
 21
202.1399010152832
 31
0.0
  0
LINE
  5
2DC
330
1F
100
AcDbEntity
  8
2
100
AcDbLine
 10
240.0057154603784
 20
201.8396269458342
 30
0.0
 11
240.2925284717889
 21
202.1264399572447
 31
0.0
  0
LINE
  5
2DD
330
1F
100
AcDbEntity
  8
2
100
AcDbLine
 10
240.0057157902404
 20
201.7498247144855
 30
0.0
 11
240.3688699749611
 21
202.1129788992062
 31
0.0
  0
LINE
  5
2DE
330
1F
100
AcDbEntity
  8
2
100
AcDbLine
 10
240.0057161201024
 20
201.6600224831369
 30
0.0
 11
240.4452114781333
 21
202.0995178411677
 31
0.0
  0
LINE
  5
2DF
330
1F
100
AcDbEntity
  8
2
100
AcDbLine
 10
240.0057164499644
 20
201.5702202517882
 30
0.0
 11
240.5215529813055
 21
202.0860567831292
 31
0.0
  0
LINE
  5
2E0
330
1F
100
AcDbEntity
  8
2
100
AcDbLine
 10
240.0057167798264
 20
201.4804180204395
 30
0.0
 11
240.5978944844777
 21
202.0725957250907
 31
0.0
  0
LINE
  5
2E1
330
1F
100
AcDbEntity
  8
2
100
AcDbLine
 10
240.0057171096884
 20
201.3906157890908
 30
0.0
 11
240.67423598765
 21
202.0591346670523
 31
0.0
  0
LINE
  5
2E2
330
1F
100
AcDbEntity
  8
2
100
AcDbLine
 10
240.0057174395505
 20
201.3008135577421
 30
0.0
 11
240.7505774908222
 21
202.0456736090138
 31
0.0
  0
LINE
  5
2E3
330
1F
100
AcDbEntity
  8
2
100
AcDbLine
 10
240.1081453708681
 20
201.3134389278491
 30
0.0
 11
240.8269189939943
 21
202.0322125509753
 31
0.0
  0
LINE
  5
2E4
330
1F
100
AcDbEntity
  8
2
100
AcDbLine
 10
240.2171723409869
 20
201.3326633367571
 30
0.0
 11
240.9032604971666
 21
202.0187514929368
 31
0.0
  0
LINE
  5
2E5
330
1F
100
AcDbEntity
  8
2
100
AcDbLine
 10
240.3261993111057
 20
201.3518877456653
 30
0.0
 11
240.9796020003388
 21
202.0052904348984
 31
0.0
  0
LINE
  5
2E6
330
1F
100
AcDbEntity
  8
2
100
AcDbLine
 10
240.4352262812244
 20
201.3711121545733
 30
0.0
 11
241.0559435035109
 21
201.9918293768598
 31
0.0
  0
LINE
  5
2E7
330
1F
100
AcDbEntity
  8
2
100
AcDbLine
 10
240.5442532513431
 20
201.3903365634813
 30
0.0
 11
241.1322850066832
 21
201.9783683188214
 31
0.0
  0
LINE
  5
2E8
330
1F
100
AcDbEntity
  8
2
100
AcDbLine
 10
240.6532802214619
 20
201.4095609723894
 30
0.0
 11
241.2086265098555
 21
201.9649072607829
 31
0.0
  0
LINE
  5
2E9
330
1F
100
AcDbEntity
  8
2
100
AcDbLine
 10
240.7623071915807
 20
201.4287853812975
 30
0.0
 11
241.2849680130276
 21
201.9514462027444
 31
0.0
  0
LINE
  5
2EA
330
1F
100
AcDbEntity
  8
2
100
AcDbLine
 10
240.8713341616994
 20
201.4480097902055
 30
0.0
 11
241.3613095161998
 21
201.9379851447059
 31
0.0
  0
LINE
  5
2EB
330
1F
100
AcDbEntity
  8
2
100
AcDbLine
 10
240.9803611318181
 20
201.4672341991136
 30
0.0
 11
241.437651019372
 21
201.9245240866674
 31
0.0
  0
LINE
  5
2EC
330
1F
100
AcDbEntity
  8
2
100
AcDbLine
 10
241.0893881019369
 20
201.4864586080217
 30
0.0
 11
241.5139925225442
 21
201.911063028629
 31
0.0
  0
LINE
  5
2ED
330
1F
100
AcDbEntity
  8
2
100
AcDbLine
 10
241.1984150720556
 20
201.5056830169297
 30
0.0
 11
241.5903340257164
 21
201.8976019705905
 31
0.0
  0
LINE
  5
2EE
330
1F
100
AcDbEntity
  8
2
100
AcDbLine
 10
241.3074420421744
 20
201.5249074258377
 30
0.0
 11
241.6666755288886
 21
201.884140912552
 31
0.0
  0
LINE
  5
2EF
330
1F
100
AcDbEntity
  8
2
100
AcDbLine
 10
241.4164690122932
 20
201.5441318347458
 30
0.0
 11
241.7430170320608
 21
201.8706798545135
 31
0.0
  0
LINE
  5
2F0
330
1F
100
AcDbEntity
  8
2
100
AcDbLine
 10
241.5254959824119
 20
201.5633562436539
 30
0.0
 11
241.8193585352331
 21
201.857218796475
 31
0.0
  0
LINE
  5
2F1
330
1F
100
AcDbEntity
  8
2
100
AcDbLine
 10
241.6345229525307
 20
201.582580652562
 30
0.0
 11
241.8957000384053
 21
201.8437577384365
 31
0.0
  0
LINE
  5
2F2
330
1F
100
AcDbEntity
  8
2
100
AcDbLine
 10
241.7435499226495
 20
201.60180506147
 30
0.0
 11
241.9720415415774
 21
201.8302966803981
 31
0.0
  0
LINE
  5
2F3
330
1F
100
AcDbEntity
  8
2
100
AcDbLine
 10
241.8525768927682
 20
201.621029470378
 30
0.0
 11
242.0483830447497
 21
201.8168356223596
 31
0.0
  0
LINE
  5
2F4
330
1F
100
AcDbEntity
  8
2
100
AcDbLine
 10
241.9616038628869
 20
201.6402538792862
 30
0.0
 11
242.1247245479219
 21
201.8033745643211
 31
0.0
  0
LINE
  5
2F5
330
1F
100
AcDbEntity
  8
2
100
AcDbLine
 10
242.0706308330057
 20
201.6594782881942
 30
0.0
 11
242.2010660510941
 21
201.7899135062826
 31
0.0
  0
LINE
  5
2F6
330
1F
100
AcDbEntity
  8
2
100
AcDbLine
 10
242.1796578031244
 20
201.6787026971023
 30
0.0
 11
242.2774075542663
 21
201.7764524482441
 31
0.0
  0
LINE
  5
2F7
330
1F
100
AcDbEntity
  8
2
100
AcDbLine
 10
242.2886847732432
 20
201.6979271060103
 30
0.0
 11
242.3537490574385
 21
201.7629913902056
 31
0.0
  0
LINE
  5
2F8
330
1F
100
AcDbEntity
  8
2
100
AcDbLine
 10
242.3977117433619
 20
201.7171515149184
 30
0.0
 11
242.4300905606107
 21
201.7495303321672
 31
0.0
  0
TEXT
  5
2F9
330
1F
100
AcDbEntity
  8
2
100
AcDbText
 10
224.9774955692199
 20
203.3195286666666
 30
0.0
 40
3.5
  1
32
 41
0.75
  7
cesky
100
AcDbText
  0
LINE
  5
2FA
330
1F
100
AcDbEntity
  8
2
100
AcDbLine
 10
242.5507147989372
 20
192.8898984494244
 30
0.0
 11
242.569981016053
 21
192.9091646665401
 31
0.0
  0
LINE
  5
2FB
330
1F
100
AcDbEntity
  8
2
100
AcDbLine
 10
242.6270563021094
 20
192.8764373913859
 30
0.0
 11
242.6790079861718
 21
192.9283890754483
 31
0.0
  0
LINE
  5
2FC
330
1F
100
AcDbEntity
  8
2
100
AcDbLine
 10
242.7033978052816
 20
192.8629763333474
 30
0.0
 11
242.7880349562905
 21
192.9476134843563
 31
0.0
  0
LINE
  5
2FD
330
1F
100
AcDbEntity
  8
2
100
AcDbLine
 10
242.7797393084539
 20
192.849515275309
 30
0.0
 11
242.8970619264093
 21
192.9668378932643
 31
0.0
  0
LINE
  5
2FE
330
1F
100
AcDbEntity
  8
2
100
AcDbLine
 10
242.856080811626
 20
192.8360542172704
 30
0.0
 11
243.0060888965281
 21
192.9860623021724
 31
0.0
  0
LINE
  5
2FF
330
1F
100
AcDbEntity
  8
2
100
AcDbLine
 10
242.9324223147983
 20
192.822593159232
 30
0.0
 11
243.1151158666468
 21
193.0052867110805
 31
0.0
  0
LINE
  5
300
330
1F
100
AcDbEntity
  8
2
100
AcDbLine
 10
243.0087638179704
 20
192.8091321011934
 30
0.0
 11
243.2241428367656
 21
193.0245111199885
 31
0.0
  0
LINE
  5
301
330
1F
100
AcDbEntity
  8
2
100
AcDbLine
 10
243.0851053211426
 20
192.795671043155
 30
0.0
 11
243.3331698068843
 21
193.0437355288966
 31
0.0
  0
LINE
  5
302
330
1F
100
AcDbEntity
  8
2
100
AcDbLine
 10
243.1614468243149
 20
192.7822099851166
 30
0.0
 11
243.4421967770031
 21
193.0629599378048
 31
0.0
  0
LINE
  5
303
330
1F
100
AcDbEntity
  8
2
100
AcDbLine
 10
243.2377883274871
 20
192.768748927078
 30
0.0
 11
243.5512237471218
 21
193.0821843467128
 31
0.0
  0
LINE
  5
304
330
1F
100
AcDbEntity
  8
2
100
AcDbLine
 10
243.3141298306593
 20
192.7552878690395
 30
0.0
 11
243.6602507172406
 21
193.1014087556209
 31
0.0
  0
LINE
  5
305
330
1F
100
AcDbEntity
  8
2
100
AcDbLine
 10
243.3904713338315
 20
192.741826811001
 30
0.0
 11
243.7692776873594
 21
193.1206331645289
 31
0.0
  0
LINE
  5
306
330
1F
100
AcDbEntity
  8
2
100
AcDbLine
 10
243.4668128370037
 20
192.7283657529626
 30
0.0
 11
243.8783046574781
 21
193.139857573437
 31
0.0
  0
LINE
  5
307
330
1F
100
AcDbEntity
  8
2
100
AcDbLine
 10
243.5431543401759
 20
192.7149046949242
 30
0.0
 11
243.9873316275969
 21
193.159081982345
 31
0.0
  0
LINE
  5
308
330
1F
100
AcDbEntity
  8
2
100
AcDbLine
 10
243.6194958433481
 20
192.7014436368856
 30
0.0
 11
244.0963585977157
 21
193.1783063912531
 31
0.0
  0
LINE
  5
309
330
1F
100
AcDbEntity
  8
2
100
AcDbLine
 10
243.6958373465204
 20
192.6879825788472
 30
0.0
 11
244.2053855678344
 21
193.1975308001612
 31
0.0
  0
LINE
  5
30A
330
1F
100
AcDbEntity
  8
2
100
AcDbLine
 10
243.7721788496926
 20
192.6745215208086
 30
0.0
 11
244.3144125379532
 21
193.2167552090693
 31
0.0
  0
LINE
  5
30B
330
1F
100
AcDbEntity
  8
2
100
AcDbLine
 10
243.8485203528648
 20
192.6610604627702
 30
0.0
 11
244.4234395080719
 21
193.2359796179773
 31
0.0
  0
LINE
  5
30C
330
1F
100
AcDbEntity
  8
2
100
AcDbLine
 10
243.924861856037
 20
192.6475994047316
 30
0.0
 11
244.5324664781907
 21
193.2552040268854
 31
0.0
  0
LINE
  5
30D
330
1F
100
AcDbEntity
  8
2
100
AcDbLine
 10
244.0012033592092
 20
192.6341383466932
 30
0.0
 11
244.6414934483095
 21
193.2744284357935
 31
0.0
  0
LINE
  5
30E
330
1F
100
AcDbEntity
  8
2
100
AcDbLine
 10
244.0775448623814
 20
192.6206772886548
 30
0.0
 11
244.7505204184282
 21
193.2936528447016
 31
0.0
  0
LINE
  5
30F
330
1F
100
AcDbEntity
  8
2
100
AcDbLine
 10
244.1538863655537
 20
192.6072162306163
 30
0.0
 11
244.859547388547
 21
193.3128772536096
 31
0.0
  0
LINE
  5
310
330
1F
100
AcDbEntity
  8
2
100
AcDbLine
 10
244.2302278687258
 20
192.5937551725778
 30
0.0
 11
244.9685743586657
 21
193.3321016625177
 31
0.0
  0
LINE
  5
311
330
1F
100
AcDbEntity
  8
2
100
AcDbLine
 10
244.306569371898
 20
192.5802941145393
 30
0.0
 11
245.0057144385853
 21
193.2794391812265
 31
0.0
  0
LINE
  5
312
330
1F
100
AcDbEntity
  8
2
100
AcDbLine
 10
244.3829108750703
 20
192.5668330565008
 30
0.0
 11
245.0057147684473
 21
193.1896369498778
 31
0.0
  0
LINE
  5
313
330
1F
100
AcDbEntity
  8
2
100
AcDbLine
 10
244.4592523782425
 20
192.5533719984624
 30
0.0
 11
245.0057150983093
 21
193.0998347185292
 31
0.0
  0
LINE
  5
314
330
1F
100
AcDbEntity
  8
2
100
AcDbLine
 10
244.5355938814147
 20
192.5399109404239
 30
0.0
 11
245.0057154281713
 21
193.0100324871805
 31
0.0
  0
LINE
  5
315
330
1F
100
AcDbEntity
  8
2
100
AcDbLine
 10
244.6119353845869
 20
192.5264498823854
 30
0.0
 11
245.0057157580333
 21
192.9202302558319
 31
0.0
  0
LINE
  5
316
330
1F
100
AcDbEntity
  8
2
100
AcDbLine
 10
244.6882768877591
 20
192.5129888243469
 30
0.0
 11
245.0057160878953
 21
192.8304280244832
 31
0.0
  0
LINE
  5
317
330
1F
100
AcDbEntity
  8
2
100
AcDbLine
 10
244.7646183909313
 20
192.4995277663084
 30
0.0
 11
245.0057164177573
 21
192.7406257931345
 31
0.0
  0
LINE
  5
318
330
1F
100
AcDbEntity
  8
2
100
AcDbLine
 10
244.8409598941035
 20
192.4860667082699
 30
0.0
 11
245.0057167476193
 21
192.6508235617858
 31
0.0
  0
LINE
  5
319
330
1F
100
AcDbEntity
  8
2
100
AcDbLine
 10
244.9173013972757
 20
192.4726056502314
 30
0.0
 11
245.0057170774813
 21
192.5610213304371
 31
0.0
  0
LINE
  5
31A
330
1F
100
AcDbEntity
  8
2
100
AcDbLine
 10
244.993642900448
 20
192.459144592193
 30
0.0
 11
245.0057174073434
 21
192.4712190990884
 31
0.0
  0
LINE
  5
31B
330
1F
100
AcDbEntity
  8
2
100
AcDbLine
 10
235.0428827141261
 20
193.2846917511542
 30
0.0
 11
235.088753162212
 21
193.3305621992401
 31
0.0
  0
LINE
  5
31C
330
1F
100
AcDbEntity
  8
2
100
AcDbLine
 10
235.042883043988
 20
193.1948895198055
 30
0.0
 11
235.1650946653842
 21
193.3171011412016
 31
0.0
  0
LINE
  5
31D
330
1F
100
AcDbEntity
  8
2
100
AcDbLine
 10
235.0428833738501
 20
193.1050872884569
 30
0.0
 11
235.2414361685564
 21
193.3036400831632
 31
0.0
  0
LINE
  5
31E
330
1F
100
AcDbEntity
  8
2
100
AcDbLine
 10
235.0428837037121
 20
193.0152850571082
 30
0.0
 11
235.3177776717286
 21
193.2901790251247
 31
0.0
  0
LINE
  5
31F
330
1F
100
AcDbEntity
  8
2
100
AcDbLine
 10
235.0428840335741
 20
192.9254828257595
 30
0.0
 11
235.3941191749008
 21
193.2767179670861
 31
0.0
  0
LINE
  5
320
330
1F
100
AcDbEntity
  8
2
100
AcDbLine
 10
235.0428843634362
 20
192.8356805944108
 30
0.0
 11
235.470460678073
 21
193.2632569090477
 31
0.0
  0
LINE
  5
321
330
1F
100
AcDbEntity
  8
2
100
AcDbLine
 10
235.0428846932982
 20
192.7458783630622
 30
0.0
 11
235.5468021812452
 21
193.2497958510092
 31
0.0
  0
LINE
  5
322
330
1F
100
AcDbEntity
  8
2
100
AcDbLine
 10
235.0428850231602
 20
192.6560761317135
 30
0.0
 11
235.6231436844174
 21
193.2363347929707
 31
0.0
  0
LINE
  5
323
330
1F
100
AcDbEntity
  8
2
100
AcDbLine
 10
235.0428853530222
 20
192.5662739003648
 30
0.0
 11
235.6994851875897
 21
193.2228737349323
 31
0.0
  0
LINE
  5
324
330
1F
100
AcDbEntity
  8
2
100
AcDbLine
 10
235.0428856828843
 20
192.4764716690162
 30
0.0
 11
235.7758266907619
 21
193.2094126768937
 31
0.0
  0
LINE
  5
325
330
1F
100
AcDbEntity
  8
2
100
AcDbLine
 10
235.1282914333788
 20
192.4720748583001
 30
0.0
 11
235.852168193934
 21
193.1959516188553
 31
0.0
  0
LINE
  5
326
330
1F
100
AcDbEntity
  8
2
100
AcDbLine
 10
235.2373184034976
 20
192.4912992672081
 30
0.0
 11
235.9285096971063
 21
193.1824905608167
 31
0.0
  0
LINE
  5
327
330
1F
100
AcDbEntity
  8
2
100
AcDbLine
 10
235.3463453736163
 20
192.5105236761162
 30
0.0
 11
236.0048512002785
 21
193.1690295027783
 31
0.0
  0
LINE
  5
328
330
1F
100
AcDbEntity
  8
2
100
AcDbLine
 10
235.4553723437351
 20
192.5297480850242
 30
0.0
 11
236.0811927034506
 21
193.1555684447398
 31
0.0
  0
LINE
  5
329
330
1F
100
AcDbEntity
  8
2
100
AcDbLine
 10
235.5643993138539
 20
192.5489724939323
 30
0.0
 11
236.1575342066229
 21
193.1421073867013
 31
0.0
  0
LINE
  5
32A
330
1F
100
AcDbEntity
  8
2
100
AcDbLine
 10
235.6734262839726
 20
192.5681969028404
 30
0.0
 11
236.2338757097951
 21
193.1286463286628
 31
0.0
  0
LINE
  5
32B
330
1F
100
AcDbEntity
  8
2
100
AcDbLine
 10
235.7824532540913
 20
192.5874213117484
 30
0.0
 11
236.3102172129673
 21
193.1151852706244
 31
0.0
  0
LINE
  5
32C
330
1F
100
AcDbEntity
  8
2
100
AcDbLine
 10
235.8914802242101
 20
192.6066457206565
 30
0.0
 11
236.3865587161395
 21
193.1017242125859
 31
0.0
  0
LINE
  5
32D
330
1F
100
AcDbEntity
  8
2
100
AcDbLine
 10
236.0005071943289
 20
192.6258701295646
 30
0.0
 11
236.4629002193118
 21
193.0882631545474
 31
0.0
  0
LINE
  5
32E
330
1F
100
AcDbEntity
  8
2
100
AcDbLine
 10
236.1095341644476
 20
192.6450945384726
 30
0.0
 11
236.5392417224839
 21
193.0748020965089
 31
0.0
  0
LINE
  5
32F
330
1F
100
AcDbEntity
  8
2
100
AcDbLine
 10
236.2185611345664
 20
192.6643189473807
 30
0.0
 11
236.6155832256561
 21
193.0613410384704
 31
0.0
  0
LINE
  5
330
330
1F
100
AcDbEntity
  8
2
100
AcDbLine
 10
236.3275881046851
 20
192.6835433562887
 30
0.0
 11
236.6919247288283
 21
193.0478799804319
 31
0.0
  0
LINE
  5
331
330
1F
100
AcDbEntity
  8
2
100
AcDbLine
 10
236.4366150748039
 20
192.7027677651968
 30
0.0
 11
236.7682662320005
 21
193.0344189223934
 31
0.0
  0
LINE
  5
332
330
1F
100
AcDbEntity
  8
2
100
AcDbLine
 10
236.5456420449226
 20
192.7219921741049
 30
0.0
 11
236.8446077351728
 21
193.020957864355
 31
0.0
  0
LINE
  5
333
330
1F
100
AcDbEntity
  8
2
100
AcDbLine
 10
236.6546690150414
 20
192.741216583013
 30
0.0
 11
236.920949238345
 21
193.0074968063165
 31
0.0
  0
LINE
  5
334
330
1F
100
AcDbEntity
  8
2
100
AcDbLine
 10
236.7636959851601
 20
192.760440991921
 30
0.0
 11
236.9972907415171
 21
192.994035748278
 31
0.0
  0
LINE
  5
335
330
1F
100
AcDbEntity
  8
2
100
AcDbLine
 10
236.8727229552789
 20
192.7796654008291
 30
0.0
 11
237.0736322446894
 21
192.9805746902395
 31
0.0
  0
LINE
  5
336
330
1F
100
AcDbEntity
  8
2
100
AcDbLine
 10
236.9817499253977
 20
192.7988898097372
 30
0.0
 11
237.1499737478616
 21
192.967113632201
 31
0.0
  0
LINE
  5
337
330
1F
100
AcDbEntity
  8
2
100
AcDbLine
 10
237.0907768955165
 20
192.8181142186453
 30
0.0
 11
237.2263152510338
 21
192.9536525741626
 31
0.0
  0
LINE
  5
338
330
1F
100
AcDbEntity
  8
2
100
AcDbLine
 10
237.1998038656352
 20
192.8373386275533
 30
0.0
 11
237.302656754206
 21
192.9401915161241
 31
0.0
  0
LINE
  5
339
330
1F
100
AcDbEntity
  8
2
100
AcDbLine
 10
237.3088308357539
 20
192.8565630364613
 30
0.0
 11
237.3789982573782
 21
192.9267304580856
 31
0.0
  0
LINE
  5
33A
330
1F
100
AcDbEntity
  8
2
100
AcDbLine
 10
237.4178578058727
 20
192.8757874453694
 30
0.0
 11
237.4553397605504
 21
192.9132694000471
 31
0.0
  0
LINE
  5
33B
330
1F
100
AcDbEntity
  8
2
100
AcDbLine
 10
237.5268847759915
 20
192.8950118542775
 30
0.0
 11
237.5316812637226
 21
192.8998083420086
 31
0.0
  0
TEXT
  5
33C
330
1F
100
AcDbEntity
  8
2
100
AcDbText
 10
239.7419783204497
 20
194.4811666666666
 30
0.0
 40
3.5
  1
5
 41
0.75
  7
cesky
100
AcDbText
  0
MTEXT
  5
33D
330
1F
100
AcDbEntity
  8
SK2
100
AcDbMText
 10
178.184253
 20
174.358288
 30
0.0
 40
3.5
 41
0.0
 71
     7
 72
     5
  1
\W0.7500;12
  7
cesky
 11
0.0000000000000001
 21
1.0
 31
0.0
 73
     2
 44
0.8433729999999998
1001
ACAD
1000
MTEXTBEGIN
1070
    73
1070
     2
1070
    44
1040
0.8433729999999998
1070
    74
1070
     0
1000
MTEXTEND
  0
MTEXT
  5
33E
330
1F
100
AcDbEntity
  8
SK2
100
AcDbMText
 10
178.184253
 20
169.383288
 30
0.0
 40
3.5
 41
0.0
 71
     7
 72
     5
  1
\W0.7500;M
  7
cesky
 11
0.0000000000000001
 21
1.0
 31
0.0
 73
     2
 44
0.8433729999999998
1001
ACAD
1000
MTEXTBEGIN
1070
    73
1070
     2
1070
    44
1040
0.8433729999999998
1070
    74
1070
     0
1000
MTEXTEND
  0
LINE
  5
33F
330
1F
100
AcDbEntity
  8
SK2
100
AcDbLine
 10
188.5057139999999
 20
179.214538
 30
0.0
 11
176.600919
 21
179.214538
 31
0.0
  0
LINE
  5
340
330
1F
100
AcDbEntity
  8
SK2
100
AcDbLine
 10
188.5057139999999
 20
167.214538
 30
0.0
 11
176.600919
 21
167.214538
 31
0.0
  0
LINE
  5
341
330
1F
100
AcDbEntity
  8
SK2
100
AcDbLine
 10
178.600919
 20
187.9645379999999
 30
0.0
 11
178.600919
 21
158.4645379999999
 31
0.0
  0
SOLID
  5
342
330
1F
100
AcDbEntity
  8
SK2
100
AcDbTrace
 10
178.600919
 20
179.214538
 30
0.0
 11
178.160102
 21
181.714537
 31
0.0
 12
179.041737
 22
181.71454
 32
0.0
 13
178.600919
 23
179.214538
 33
0.0
  0
SOLID
  5
343
330
1F
100
AcDbEntity
  8
SK2
100
AcDbTrace
 10
178.600919
 20
167.214538
 30
0.0
 11
179.041737
 21
164.71454
 31
0.0
 12
178.160102
 22
164.714537
 32
0.0
 13
178.600919
 23
167.214538
 33
0.0
  0
MTEXT
  5
344
330
1F
100
AcDbEntity
  8
SK2
100
AcDbMText
 10
168.812964
 20
176.2457879999999
 30
0.0
 40
3.5
 41
0.0
 71
     7
 72
     5
  1
\W0.7500;21
  7
cesky
 11
0.0000000000000001
 21
1.0
 31
0.0
 73
     2
 44
0.8433729999999998
1001
ACAD
1000
MTEXTBEGIN
1070
    73
1070
     2
1070
    44
1040
0.8433729999999998
1070
    74
1070
     0
1000
MTEXTEND
  0
MTEXT
  5
345
330
1F
100
AcDbEntity
  8
SK2
100
AcDbMText
 10
168.812964
 20
169.273132
 30
0.0
 40
3.5
 41
0.0
 71
     7
 72
     5
  1
%%c
  7
cesky
 11
0.0000000000000001
 21
1.0
 31
0.0
 73
     2
 44
0.8433729999999998
1001
ACAD
1000
MTEXTBEGIN
1070
    73
1070
     2
1070
    44
1040
0.8433729999999998
1070
    74
1070
     0
1000
MTEXTEND
  0
LINE
  5
346
330
1F
100
AcDbEntity
  8
SK2
100
AcDbLine
 10
210.005714
 20
183.7145379999999
 30
0.0
 11
168.104631
 21
183.7145379999999
 31
0.0
  0
LINE
  5
347
330
1F
100
AcDbEntity
  8
SK2
100
AcDbLine
 10
210.005714
 20
162.7145379999999
 30
0.0
 11
168.104631
 21
162.7145379999999
 31
0.0
  0
LINE
  5
348
330
1F
100
AcDbEntity
  8
SK2
100
AcDbLine
 10
170.104631
 20
183.7145379999999
 30
0.0
 11
170.104631
 21
162.7145379999999
 31
0.0
  0
SOLID
  5
349
330
1F
100
AcDbEntity
  8
SK2
100
AcDbTrace
 10
170.104631
 20
183.7145379999999
 30
0.0
 11
170.545449
 21
181.21454
 31
0.0
 12
169.663814
 22
181.214537
 32
0.0
 13
170.104631
 23
183.7145379999999
 33
0.0
  0
SOLID
  5
34A
330
1F
100
AcDbEntity
  8
SK2
100
AcDbTrace
 10
170.104631
 20
162.7145379999999
 30
0.0
 11
169.663814
 21
165.214537
 31
0.0
 12
170.545449
 22
165.21454
 32
0.0
 13
170.104631
 23
162.7145379999999
 33
0.0
  0
ENDSEC
  0
SECTION
  2
OBJECTS
  0
DICTIONARY
  5
C
330
0
100
AcDbDictionary
281
     1
  3
ACAD_CIP_PREVIOUS_PRODUCT_INFO
350
291
  3
ACAD_COLOR
350
286
  3
ACAD_DETAILVIEWSTYLE
350
28C
  3
ACAD_GROUP
350
D
  3
ACAD_LAYOUT
350
1A
  3
ACAD_MATERIAL
350
43
  3
ACAD_MLEADERSTYLE
350
247
  3
ACAD_MLINESTYLE
350
17
  3
ACAD_PLOTSETTINGS
350
19
  3
ACAD_PLOTSTYLENAME
350
E
  3
ACAD_SCALELIST
350
47
  3
ACAD_SECTIONVIEWSTYLE
350
28A
  3
ACAD_TABLESTYLE
350
287
  3
ACAD_VISUALSTYLE
350
2A
  3
ACDB_RECOMPOSE_DATA
350
3BB
  3
AcDbVariableDictionary
350
245
  3
DWGPROPS
350
3BC
  0
DICTIONARY
  5
357
330
10
100
AcDbDictionary
280
     1
281
     1
  3
ADSK_XREC_LAYER_RECONCILED
360
358
  0
DICTIONARY
  5
359
330
34B
100
AcDbDictionary
280
     1
281
     1
  3
ADSK_XREC_LAYER_RECONCILED
360
35A
  0
DICTIONARY
  5
35B
330
34C
100
AcDbDictionary
280
     1
281
     1
  3
ADSK_XREC_LAYER_RECONCILED
360
35C
  0
DICTIONARY
  5
35D
330
34D
100
AcDbDictionary
280
     1
281
     1
  3
ADSK_XREC_LAYER_RECONCILED
360
35E
  0
DICTIONARY
  5
35F
330
34E
100
AcDbDictionary
280
     1
281
     1
  3
ADSK_XREC_LAYER_RECONCILED
360
360
  0
DICTIONARY
  5
361
330
34F
100
AcDbDictionary
280
     1
281
     1
  3
ADSK_XREC_LAYER_RECONCILED
360
362
  0
DICTIONARY
  5
363
330
351
100
AcDbDictionary
280
     1
281
     1
  3
ADSK_XREC_LAYER_RECONCILED
360
364
  0
DICTIONARY
  5
365
330
352
100
AcDbDictionary
280
     1
281
     1
  3
ADSK_XREC_LAYER_RECONCILED
360
366
  0
DICTIONARY
  5
367
330
353
100
AcDbDictionary
280
     1
281
     1
  3
ADSK_XREC_LAYER_RECONCILED
360
368
  0
DICTIONARY
  5
369
330
354
100
AcDbDictionary
280
     1
281
     1
  3
ADSK_XREC_LAYER_RECONCILED
360
36A
  0
DICTIONARY
  5
36B
330
355
100
AcDbDictionary
280
     1
281
     1
  3
ADSK_XREC_LAYER_RECONCILED
360
36C
  0
DICTIONARY
  5
36D
330
356
100
AcDbDictionary
280
     1
281
     1
  3
ADSK_XREC_LAYER_RECONCILED
360
36E
  0
DICTIONARY
  5
2B4
330
1F
100
AcDbDictionary
280
     1
281
     1
  3
ACAD_SORTENTS
360
2B5
  0
XRECORD
  5
291
102
{ACAD_REACTORS
330
C
102
}
330
C
100
AcDbXrecord
280
     1
300
AMECH_PP
300
2015
300
86266PDSP_2015_0F
  0
DICTIONARY
  5
286
102
{ACAD_REACTORS
330
C
102
}
330
C
100
AcDbDictionary
281
     1
  0
DICTIONARY
  5
28C
102
{ACAD_REACTORS
330
C
102
}
330
C
100
AcDbDictionary
281
     1
  3
Metric50
350
28D
  0
DICTIONARY
  5
D
102
{ACAD_REACTORS
330
C
102
}
330
C
100
AcDbDictionary
281
     1
  3
ASSORTED_PARTS
350
230
  3
CENTERLINE
350
22F
  3
DIMENSION
350
231
  3
DIMENSION4
350
232
  3
DIMENSION5
350
233
  0
DICTIONARY
  5
1A
102
{ACAD_REACTORS
330
C
102
}
330
C
100
AcDbDictionary
281
     1
  3
Layout1
350
1E
  3
Layout2
350
26
  3
Model
350
22
  0
DICTIONARY
  5
43
102
{ACAD_REACTORS
330
C
102
}
330
C
100
AcDbDictionary
281
     1
  3
ByBlock
350
45
  3
ByLayer
350
44
  3
Global
350
46
  0
DICTIONARY
  5
247
102
{ACAD_REACTORS
330
C
102
}
330
C
100
AcDbDictionary
281
     1
  3
Standard
350
289
  0
DICTIONARY
  5
17
102
{ACAD_REACTORS
330
C
102
}
330
C
100
AcDbDictionary
281
     1
  3
Standard
350
18
  0
DICTIONARY
  5
19
102
{ACAD_REACTORS
330
C
102
}
330
C
100
AcDbDictionary
281
     1
  0
ACDBDICTIONARYWDFLT
  5
E
102
{ACAD_REACTORS
330
C
102
}
330
C
100
AcDbDictionary
281
     1
  3
Normal
350
F
100
AcDbDictionaryWithDefault
340
F
  0
DICTIONARY
  5
47
102
{ACAD_REACTORS
330
C
102
}
330
C
100
AcDbDictionary
281
     1
  3
A0
350
48
  3
A1
350
49
  3
A2
350
4A
  3
A3
350
4B
  3
A4
350
4C
  3
A5
350
4D
  3
A6
350
4E
  3
A7
350
4F
  3
A8
350
50
  3
A9
350
51
  3
B0
350
52
  3
B1
350
53
  3
B2
350
54
  3
B3
350
55
  3
B4
350
56
  3
B5
350
57
  3
B6
350
58
  3
B7
350
59
  3
B8
350
5A
  3
B9
350
5B
  3
C0
350
5C
  3
C1
350
5D
  3
C2
350
5E
  3
C3
350
5F
  3
C4
350
60
  3
C5
350
61
  3
C6
350
62
  3
C7
350
63
  3
C8
350
64
  3
C9
350
65
  3
D0
350
66
  3
D1
350
67
  3
D2
350
68
  0
DICTIONARY
  5
28A
102
{ACAD_REACTORS
330
C
102
}
330
C
100
AcDbDictionary
281
     1
  3
Metric50
350
28B
  0
DICTIONARY
  5
287
102
{ACAD_REACTORS
330
C
102
}
330
C
100
AcDbDictionary
281
     1
  3
Standard
350
288
  0
DICTIONARY
  5
2A
102
{ACAD_REACTORS
330
C
102
}
330
C
100
AcDbDictionary
281
     1
  3
2dWireframe
350
2F
  3
Basic
350
32
  3
Brighten
350
36
  3
ColorChange
350
3A
  3
Conceptual
350
34
  3
Dim
350
35
  3
EdgeColorOff
350
3D
  3
Facepattern
350
39
  3
Flat
350
2B
  3
FlatWithEdges
350
2C
  3
Gouraud
350
2D
  3
GouraudWithEdges
350
2E
  3
Hidden
350
31
  3
JitterOff
350
3B
  3
Linepattern
350
38
  3
OverhangOff
350
3C
  3
Realistic
350
33
  3
Shaded
350
42
  3
Shaded with edges
350
41
  3
Shades of Gray
350
3E
  3
Sketchy
350
3F
  3
Thicken
350
37
  3
Wireframe
350
30
  3
X-Ray
350
40
  0
XRECORD
  5
3BB
102
{ACAD_REACTORS
330
C
102
}
330
C
100
AcDbXrecord
280
     1
 90
        1
330
288
  0
DICTIONARY
  5
245
102
{ACAD_REACTORS
330
C
102
}
330
C
100
AcDbDictionary
281
     1
  3
CANNOSCALE
350
24C
  3
CMLEADERSTYLE
350
370
  3
CTABLESTYLE
350
36F
  3
CVIEWDETAILSTYLE
350
371
  3
CVIEWSECTIONSTYLE
350
372
  3
DIMASSOC
350
24A
  3
HIDETEXT
350
24B
  3
INDEXCTL
350
374
  3
MSLTSCALE
350
24D
  3
SORTENTS
350
373
  3
XCLIPFRAME
350
375
  0
XRECORD
  5
3BC
102
{ACAD_REACTORS
330
C
102
}
330
C
100
AcDbXrecord
280
     1
  1
DWGPROPS COOKIE
  2

  3

  4

  6

  7

  8
hm1535
  9

300
=
301
=
302
=
303
=
304
=
305
=
306
=
307
=
308
=
309
=
 40
0.0199163425925926
 41
2457920.394842569
 42
2457920.414887142
  1

 90
        0
  0
XRECORD
  5
358
102
{ACAD_REACTORS
330
357
102
}
330
357
100
AcDbXrecord
280
     1
290
     1
  0
XRECORD
  5
35A
102
{ACAD_REACTORS
330
359
102
}
330
359
100
AcDbXrecord
280
     1
290
     1
  0
XRECORD
  5
35C
102
{ACAD_REACTORS
330
35B
102
}
330
35B
100
AcDbXrecord
280
     1
290
     1
  0
XRECORD
  5
35E
102
{ACAD_REACTORS
330
35D
102
}
330
35D
100
AcDbXrecord
280
     1
290
     1
  0
XRECORD
  5
360
102
{ACAD_REACTORS
330
35F
102
}
330
35F
100
AcDbXrecord
280
     1
290
     1
  0
XRECORD
  5
362
102
{ACAD_REACTORS
330
361
102
}
330
361
100
AcDbXrecord
280
     1
290
     1
  0
XRECORD
  5
364
102
{ACAD_REACTORS
330
363
102
}
330
363
100
AcDbXrecord
280
     1
290
     1
  0
XRECORD
  5
366
102
{ACAD_REACTORS
330
365
102
}
330
365
100
AcDbXrecord
280
     1
290
     1
  0
XRECORD
  5
368
102
{ACAD_REACTORS
330
367
102
}
330
367
100
AcDbXrecord
280
     1
290
     1
  0
XRECORD
  5
36A
102
{ACAD_REACTORS
330
369
102
}
330
369
100
AcDbXrecord
280
     1
290
     1
  0
XRECORD
  5
36C
102
{ACAD_REACTORS
330
36B
102
}
330
36B
100
AcDbXrecord
280
     1
290
     1
  0
XRECORD
  5
36E
102
{ACAD_REACTORS
330
36D
102
}
330
36D
100
AcDbXrecord
280
     1
290
     1
  0
SORTENTSTABLE
  5
2B5
102
{ACAD_REACTORS
330
2B4
102
}
330
2B4
100
AcDbSortentsTable
330
1F
331
349
  5
342
331
338
  5
2A3
331
16A
  5
16A
331
160
  5
160
331
17B
  5
17B
331
2C6
  5
302
331
2D7
  5
313
331
2E8
  5
2E0
331
1D0
  5
1D0
331
1BF
  5
1BF
331
1AE
  5
1AE
331
19D
  5
19D
331
18C
  5
18C
331
CC
  5
CC
331
2F9
  5
2CD
331
FA
  5
FA
331
1EB
  5
1EB
331
10B
  5
10B
331
1FC
  5
1FC
331
29E
  5
325
331
215
  5
317
331
2AF
  5
336
331
316
  5
2C8
331
327
  5
22E
331
14F
  5
14F
331
13E
  5
13E
331
12D
  5
12D
331
11C
  5
11C
331
E4
  5
E4
331
D3
  5
D3
331
BA
  5
BA
331
A9
  5
A9
331
93
  5
93
331
2B0
  5
337
331
328
  5
293
331
34A
  5
343
331
339
  5
2A4
331
17C
  5
17C
331
16B
  5
16B
331
161
  5
161
331
150
  5
150
331
2C7
  5
303
331
2D8
  5
314
331
2E9
  5
2E1
331
1D1
  5
1D1
331
1C0
  5
1C0
331
1AF
  5
1AF
331
19E
  5
19E
331
18D
  5
18D
331
CD
  5
CD
331
2FA
  5
2AA
331
FB
  5
FB
331
1EC
  5
1EC
331
10C
  5
10C
331
1FD
  5
1FD
331
29F
  5
326
331
216
  5
318
331
317
  5
2C9
331
13F
  5
13F
331
12E
  5
12E
331
11D
  5
11D
331
E5
  5
E5
331
D4
  5
D4
331
BB
  5
BB
331
AA
  5
AA
331
2A0
  5
327
331
2B1
  5
338
331
318
  5
2CA
331
329
  5
294
331
33A
  5
2A5
331
16C
  5
16C
331
162
  5
162
331
151
  5
151
331
140
  5
140
331
17D
  5
17D
331
2C8
  5
304
331
2D9
  5
2D1
331
2EA
  5
2E2
331
1D2
  5
1D2
331
1C1
  5
1C1
331
1B0
  5
1B0
331
19F
  5
19F
331
18E
  5
18E
331
CE
  5
CE
331
2FB
  5
2AB
331
FC
  5
FC
331
1ED
  5
1ED
331
10D
  5
10D
331
1FE
  5
1FE
331
217
  5
319
331
12F
  5
12F
331
11E
  5
11E
331
E6
  5
E6
331
D5
  5
D5
331
BC
  5
BC
331
AB
  5
AB
331
95
  5
95
331
2A1
  5
328
331
308
  5
2BA
331
2B2
  5
339
331
319
  5
2CB
331
32A
  5
295
331
33B
  5
2A6
331
163
  5
163
331
152
  5
152
331
141
  5
141
331
130
  5
130
331
16D
  5
16D
331
2B8
  5
2F4
331
2C9
  5
305
331
2DA
  5
2D2
331
2EB
  5
2E3
331
1D3
  5
1D3
331
1C2
  5
1C2
331
1B1
  5
1B1
331
1A0
  5
1A0
331
18F
  5
18F
331
17E
  5
17E
331
2FC
  5
2AC
331
FD
  5
FD
331
1EE
  5
1EE
331
10E
  5
10E
331
1FF
  5
1FF
331
11F
  5
11F
331
E7
  5
E7
331
D6
  5
D6
331
BD
  5
BD
331
AC
  5
AC
331
96
  5
96
331
85
  5
85
331
208
  5
2A9
331
2A2
  5
329
331
309
  5
2BB
331
2B3
  5
33A
331
31A
  5
2CC
331
32B
  5
296
331
33C
  5
202
331
16E
  5
16E
331
164
  5
164
331
153
  5
153
331
142
  5
142
331
131
  5
131
331
120
  5
120
331
E8
  5
E8
331
2B9
  5
2F5
331
2CA
  5
306
331
2DB
  5
2D3
331
2EC
  5
2E4
331
1D4
  5
1D4
331
1C3
  5
1C3
331
1B2
  5
1B2
331
1A1
  5
1A1
331
190
  5
190
331
17F
  5
17F
331
2FD
  5
2AD
331
FE
  5
FE
331
1EF
  5
1EF
331
10F
  5
10F
331
D7
  5
D7
331
BE
  5
BE
331
AD
  5
AD
331
97
  5
97
331
1F0
  5
1F0
331
110
  5
110
331
2A3
  5
32A
331
30A
  5
2BC
331
31B
  5
207
331
32C
  5
297
331
33D
  5
344
331
165
  5
165
331
154
  5
154
331
143
  5
143
331
132
  5
132
331
121
  5
121
331
E9
  5
E9
331
D8
  5
D8
331
16F
  5
16F
331
2BA
  5
2F6
331
2CB
  5
307
331
2DC
  5
2D4
331
2ED
  5
2E5
331
1D5
  5
1D5
331
1C4
  5
1C4
331
1B3
  5
1B3
331
1A2
  5
1A2
331
191
  5
191
331
180
  5
180
331
2FE
  5
2AE
331
BF
  5
BF
331
AE
  5
AE
331
A0
  5
A0
331
87
  5
87
331
1E0
  5
1E0
331
100
  5
100
331
1F1
  5
1F1
331
111
  5
111
331
293
  5
31A
331
2A4
  5
32B
331
30B
  5
2BD
331
31C
  5
208
331
32D
  5
298
331
33E
  5
345
331
166
  5
166
331
155
  5
155
331
144
  5
144
331
133
  5
133
331
122
  5
122
331
EA
  5
EA
331
D9
  5
D9
331
C0
  5
C0
331
170
  5
170
331
202
  5
203
331
2BB
  5
2F7
331
2CC
  5
308
331
2DD
  5
2D5
331
2EE
  5
2E6
331
1D6
  5
1D6
331
1C5
  5
1C5
331
1B4
  5
1B4
331
1A3
  5
1A3
331
192
  5
192
331
181
  5
181
331
2FF
  5
2AF
331
AF
  5
AF
331
A1
  5
A1
331
88
  5
88
331
6F
  5
6F
331
300
  5
2B0
331
F0
  5
F0
331
1E1
  5
1E1
331
101
  5
101
331
1F2
  5
1F2
331
112
  5
112
331
294
  5
31B
331
20B
  5
2CE
331
2A5
  5
32C
331
30C
  5
2BE
331
2B6
  5
316
331
31D
  5
20B
331
32E
  5
299
331
33F
  5
346
331
167
  5
167
331
156
  5
156
331
145
  5
145
331
134
  5
134
331
123
  5
123
331
EB
  5
EB
331
DA
  5
DA
331
C1
  5
C1
331
B0
  5
B0
331
171
  5
171
331
203
  5
204
331
2BC
  5
2F8
331
2CD
  5
309
331
2DE
  5
2D6
331
2EF
  5
2E7
331
1D7
  5
1D7
331
1C6
  5
1C6
331
1B5
  5
1B5
331
1A4
  5
1A4
331
193
  5
193
331
182
  5
182
331
A2
  5
A2
331
89
  5
89
331
2F0
  5
2E8
331
1D8
  5
1D8
331
301
  5
2B1
331
F1
  5
F1
331
1E2
  5
1E2
331
102
  5
102
331
1F3
  5
1F3
331
113
  5
113
331
295
  5
31C
331
20C
  5
2CF
331
2A6
  5
32D
331
30D
  5
2BF
331
2B7
  5
315
331
31E
  5
20C
331
340
  5
347
331
32F
  5
29A
331
157
  5
157
331
146
  5
146
331
135
  5
135
331
124
  5
124
331
EC
  5
EC
331
DB
  5
DB
331
C2
  5
C2
331
B1
  5
B1
331
98
  5
98
331
172
  5
172
331
204
  5
206
331
2BD
  5
2F9
331
2CE
  5
30A
331
2DF
  5
2D7
331
1C7
  5
1C7
331
1B6
  5
1B6
331
1A5
  5
1A5
331
194
  5
194
331
183
  5
183
331
A3
  5
A3
331
8A
  5
8A
331
71
  5
71
331
2E0
  5
2D8
331
1C8
  5
1C8
331
2F1
  5
2E9
331
1D9
  5
1D9
331
302
  5
2B2
331
F2
  5
F2
331
1E3
  5
1E3
331
103
  5
103
331
1F4
  5
1F4
331
114
  5
114
331
296
  5
31D
331
20D
  5
2D0
331
2A7
  5
32E
331
30E
  5
2C0
331
31F
  5
20D
331
341
  5
348
331
330
  5
29B
331
158
  5
158
331
147
  5
147
331
136
  5
136
331
125
  5
125
331
ED
  5
ED
331
DC
  5
DC
331
C3
  5
C3
331
B2
  5
B2
331
99
  5
99
331
173
  5
173
331
2BE
  5
2FA
331
2CF
  5
30B
331
1B7
  5
1B7
331
1A6
  5
1A6
331
195
  5
195
331
184
  5
184
331
A4
  5
A4
331
8B
  5
8B
331
72
  5
72
331
2D0
  5
30C
331
2E1
  5
2D9
331
1C9
  5
1C9
331
1B8
  5
1B8
331
2F2
  5
2EA
331
1DA
  5
1DA
331
303
  5
2B3
331
F3
  5
F3
331
1E4
  5
1E4
331
104
  5
104
331
1F5
  5
1F5
331
115
  5
115
331
297
  5
31E
331
2A8
  5
32F
331
30F
  5
2C1
331
320
  5
20F
331
342
  5
349
331
331
  5
29C
331
159
  5
159
331
148
  5
148
331
137
  5
137
331
126
  5
126
331
EE
  5
EE
331
DD
  5
DD
331
C4
  5
C4
331
B3
  5
B3
331
9A
  5
9A
331
174
  5
174
331
206
  5
2A7
331
2BF
  5
2FB
331
1A7
  5
1A7
331
196
  5
196
331
185
  5
185
331
A5
  5
A5
331
73
  5
73
331
2C0
  5
2FC
331
2D1
  5
30D
331
2E2
  5
2DA
331
1CA
  5
1CA
331
1B9
  5
1B9
331
1A8
  5
1A8
331
2F3
  5
2EB
331
1DB
  5
1DB
331
304
  5
2B6
331
F4
  5
F4
331
1E5
  5
1E5
331
105
  5
105
331
1F6
  5
1F6
331
116
  5
116
331
298
  5
31F
331
20F
  5
2F1
331
2A9
  5
330
331
310
  5
2C2
331
321
  5
210
331
343
  5
34A
331
332
  5
29D
331
15A
  5
15A
331
149
  5
149
331
138
  5
138
331
127
  5
127
331
EF
  5
EF
331
DE
  5
DE
331
C5
  5
C5
331
B4
  5
B4
331
9B
  5
9B
331
207
  5
2A8
331
197
  5
197
331
186
  5
186
331
175
  5
175
331
8D
  5
8D
331
74
  5
74
331
2C1
  5
2FD
331
2D2
  5
30E
331
2E3
  5
2DB
331
1CB
  5
1CB
331
1BA
  5
1BA
331
1A9
  5
1A9
331
198
  5
198
331
2F4
  5
2EC
331
1DC
  5
1DC
331
305
  5
2B7
331
F5
  5
F5
331
1E6
  5
1E6
331
106
  5
106
331
1F7
  5
1F7
331
299
  5
320
331
210
  5
2F2
331
2AA
  5
331
331
311
  5
2C3
331
322
  5
211
331
344
  5
33D
331
333
  5
29E
331
15B
  5
15B
331
14A
  5
14A
331
139
  5
139
331
128
  5
128
331
117
  5
117
331
DF
  5
DF
331
C6
  5
C6
331
B5
  5
B5
331
9C
  5
9C
331
176
  5
176
331
187
  5
187
331
A7
  5
A7
331
8E
  5
8E
331
2C2
  5
2FE
331
2D3
  5
30F
331
2E4
  5
2DC
331
1CC
  5
1CC
331
1BB
  5
1BB
331
1AA
  5
1AA
331
199
  5
199
331
188
  5
188
331
C8
  5
C8
331
2F5
  5
2ED
331
1DD
  5
1DD
331
306
  5
2B8
331
F6
  5
F6
331
1E7
  5
1E7
331
107
  5
107
331
1F8
  5
1F8
331
29A
  5
321
331
211
  5
2F3
331
2AB
  5
332
331
312
  5
2C4
331
323
  5
215
331
345
  5
33E
331
334
  5
29F
331
15C
  5
15C
331
14B
  5
14B
331
13A
  5
13A
331
129
  5
129
331
118
  5
118
331
E0
  5
E0
331
C7
  5
C7
331
B6
  5
B6
331
9D
  5
9D
331
177
  5
177
331
8F
  5
8F
331
178
  5
178
331
2C3
  5
2FF
331
2D4
  5
310
331
2E5
  5
2DD
331
1CD
  5
1CD
331
1BC
  5
1BC
331
1AB
  5
1AB
331
19A
  5
19A
331
189
  5
189
331
C9
  5
C9
331
2F6
  5
2EE
331
1DE
  5
1DE
331
307
  5
2B9
331
F7
  5
F7
331
1E8
  5
1E8
331
108
  5
108
331
1F9
  5
1F9
331
29B
  5
322
331
2AC
  5
333
331
313
  5
2C5
331
324
  5
216
331
346
  5
33F
331
335
  5
2A0
331
15D
  5
15D
331
14C
  5
14C
331
13B
  5
13B
331
12A
  5
12A
331
119
  5
119
331
E1
  5
E1
331
D0
  5
D0
331
B7
  5
B7
331
9E
  5
9E
331
90
  5
90
331
168
  5
168
331
179
  5
179
331
2C4
  5
300
331
2D5
  5
311
331
2E6
  5
2DE
331
1CE
  5
1CE
331
1BD
  5
1BD
331
1AC
  5
1AC
331
19B
  5
19B
331
18A
  5
18A
331
CA
  5
CA
331
2F7
  5
2EF
331
1DF
  5
1DF
331
F8
  5
F8
331
1E9
  5
1E9
331
109
  5
109
331
1FA
  5
1FA
331
29C
  5
323
331
2AD
  5
334
331
314
  5
2C6
331
325
  5
217
331
347
  5
340
331
336
  5
2A1
331
15E
  5
15E
331
14D
  5
14D
331
13C
  5
13C
331
12B
  5
12B
331
11A
  5
11A
331
E2
  5
E2
331
D1
  5
D1
331
B8
  5
B8
331
9F
  5
9F
331
91
  5
91
331
348
  5
341
331
169
  5
169
331
17A
  5
17A
331
2C5
  5
301
331
2D6
  5
312
331
2E7
  5
2DF
331
1CF
  5
1CF
331
1BE
  5
1BE
331
1AD
  5
1AD
331
19C
  5
19C
331
18B
  5
18B
331
CB
  5
CB
331
2F8
  5
2F0
331
F9
  5
F9
331
1EA
  5
1EA
331
10A
  5
10A
331
1FB
  5
1FB
331
29D
  5
324
331
2AE
  5
335
331
315
  5
2C7
331
326
  5
223
331
337
  5
2A2
331
15F
  5
15F
331
14E
  5
14E
331
13D
  5
13D
331
12C
  5
12C
331
11B
  5
11B
331
E3
  5
E3
331
D2
  5
D2
331
B9
  5
B9
331
A8
  5
A8
331
92
  5
92
  0
ACDBDETAILVIEWSTYLE
  5
28D
102
{ACAD_XDICTIONARY
360
3F7
102
}
102
{ACAD_REACTORS
330
28C
102
}
330
28C
100
AcDbModelDocViewStyle
 70
     0
  3
Metric50
290
     0
100
AcDbDetailViewStyle
 70
     0
 71
     0
 90
        3
 71
     1
340
11
 40
5.0
340
0
 40
5.0
300

 40
0.0
280
     1
 71
     2
340
16
 90
       25
 71
     3
340
11
 40
5.0
 90
        0
 40
15.0
 90
        1
300
%<\AcVar ViewDetailId>% (%<\AcVar ViewScale \f "%sn">%)
 71
     4
340
16
 90
       25
340
16
 90
       25
280
     0
  0
GROUP
  5
230
102
{ACAD_REACTORS
330
D
102
}
330
D
100
AcDbGroup
300

 70
     0
 71
     1
340
F4
340
F5
  0
GROUP
  5
22F
102
{ACAD_REACTORS
330
D
102
}
330
D
100
AcDbGroup
300

 70
     0
 71
     1
340
F2
340
F3
  0
GROUP
  5
231
102
{ACAD_REACTORS
330
D
102
}
330
D
100
AcDbGroup
300

 70
     0
 71
     1
340
F6
340
F7
340
F8
  0
GROUP
  5
232
102
{ACAD_REACTORS
330
D
102
}
330
D
100
AcDbGroup
300

 70
     0
 71
     1
340
100
340
101
340
102
  0
GROUP
  5
233
102
{ACAD_REACTORS
330
D
102
}
330
D
100
AcDbGroup
300

 70
     0
 71
     1
340
109
340
10A
  0
LAYOUT
  5
1E
102
{ACAD_XDICTIONARY
360
3BD
102
}
102
{ACAD_REACTORS
330
1A
102
}
330
1A
100
AcDbPlotSettings
  1

  2
none_device
  4

  6

 40
0.0
 41
0.0
 42
0.0
 43
0.0
 44
0.0
 45
0.0
 46
0.0
 47
0.0
 48
0.0
 49
0.0
140
0.0
141
0.0
142
1.0
143
1.0
 70
   688
 72
     0
 73
     0
 74
     5
  7

 75
    16
147
1.0
148
0.0
149
0.0
100
AcDbLayout
  1
Layout1
 70
     1
 71
     1
 10
-0.5
 20
-0.5
 11
5.0
 21
5.0
 12
0.0
 22
0.0
 32
0.0
 14
-0.5
 24
-0.5
 34
-0.5
 15
5.0
 25
5.0
 35
5.0
146
0.0
 13
0.0
 23
0.0
 33
0.0
 16
1.0
 26
0.0
 36
0.0
 17
0.0
 27
1.0
 37
0.0
 76
     0
330
1B
  0
LAYOUT
  5
26
102
{ACAD_XDICTIONARY
360
3C1
102
}
102
{ACAD_REACTORS
330
1A
102
}
330
1A
100
AcDbPlotSettings
  1

  2
none_device
  4

  6

 40
0.0
 41
0.0
 42
0.0
 43
0.0
 44
0.0
 45
0.0
 46
0.0
 47
0.0
 48
0.0
 49
0.0
140
0.0
141
0.0
142
1.0
143
1.0
 70
   688
 72
     0
 73
     0
 74
     5
  7

 75
    16
147
1.0
148
0.0
149
0.0
100
AcDbLayout
  1
Layout2
 70
     1
 71
     2
 10
0.0
 20
0.0
 11
0.0
 21
0.0
 12
0.0
 22
0.0
 32
0.0
 14
0.0
 24
0.0
 34
0.0
 15
0.0
 25
0.0
 35
0.0
146
0.0
 13
0.0
 23
0.0
 33
0.0
 16
1.0
 26
0.0
 36
0.0
 17
0.0
 27
1.0
 37
0.0
 76
     0
330
23
  0
LAYOUT
  5
22
102
{ACAD_XDICTIONARY
360
3BF
102
}
102
{ACAD_REACTORS
330
1A
102
}
330
1A
100
AcDbPlotSettings
  1

  2
none_device
  4
Letter_(8.50_x_11.00_Inches)
  6

 40
6.349999999999999
 41
6.349999999999999
 42
6.350005
 43
6.350005
 44
215.9
 45
279.4
 46
0.0
 47
0.0
 48
0.0
 49
0.0
140
0.0
141
0.0
142
1.0
143
1.0
 70
  1712
 72
     0
 73
     0
 74
     0
  7

 75
     0
147
1.0
148
0.0
149
0.0
100
AcDbLayout
  1
Model
 70
     1
 71
     0
 10
-0.5
 20
-0.5
 11
5.0
 21
5.0
 12
0.0
 22
0.0
 32
0.0
 14
-0.5
 24
-0.5
 34
-0.5
 15
5.0
 25
5.0
 35
5.0
146
0.0
 13
0.0
 23
0.0
 33
0.0
 16
1.0
 26
0.0
 36
0.0
 17
0.0
 27
1.0
 37
0.0
 76
     0
330
1F
331
234
  0
MATERIAL
  5
45
102
{ACAD_XDICTIONARY
360
280
102
}
102
{ACAD_REACTORS
330
43
102
}
330
43
100
AcDbMaterial
  1
ByBlock
  0
MATERIAL
  5
44
102
{ACAD_XDICTIONARY
360
27E
102
}
102
{ACAD_REACTORS
330
43
102
}
330
43
100
AcDbMaterial
  1
ByLayer
  0
MATERIAL
  5
46
102
{ACAD_XDICTIONARY
360
282
102
}
102
{ACAD_REACTORS
330
43
102
}
330
43
100
AcDbMaterial
  1
Global
  0
MLEADERSTYLE
  5
289
102
{ACAD_REACTORS
330
247
102
}
330
247
100
AcDbMLeaderStyle
170
     2
171
     1
172
     0
 90
        2
 40
0.0
 41
0.0
173
     1
 91
-1056964608
340
14
 92
       -2
290
     1
 42
2.0
291
     1
 43
0.36
  3
Standard
 44
4.0
300

342
11
174
     1
178
     6
175
     1
176
     0
 93
-1056964608
 45
4.0
292
     0
297
     0
 46
4.0
 94
-1056964608
 47
1.0
 49
1.0
140
1.0
293
     1
141
0.0
294
     1
177
     0
142
1.0
295
     0
296
     0
143
0.125
1001
ACAD_MLEADERVER
1070
     2
  0
MLINESTYLE
  5
18
102
{ACAD_REACTORS
330
17
102
}
330
17
100
AcDbMlineStyle
  2
STANDARD
 70
     0
  3

 62
   256
 51
90.0
 52
90.0
 71
     2
 49
0.5
 62
   256
  6
BYLAYER
 49
-0.5
 62
   256
  6
BYLAYER
  0
ACDBPLACEHOLDER
  5
F
102
{ACAD_REACTORS
330
E
102
}
330
E
  0
SCALE
  5
48
102
{ACAD_REACTORS
330
47
102
}
330
47
100
AcDbScale
 70
     0
300
1:1
140
1.0
141
1.0
290
     1
  0
SCALE
  5
49
102
{ACAD_REACTORS
330
47
102
}
330
47
100
AcDbScale
 70
     0
300
1:2
140
1.0
141
2.0
290
     0
  0
SCALE
  5
4A
102
{ACAD_REACTORS
330
47
102
}
330
47
100
AcDbScale
 70
     0
300
1:4
140
1.0
141
4.0
290
     0
  0
SCALE
  5
4B
102
{ACAD_REACTORS
330
47
102
}
330
47
100
AcDbScale
 70
     0
300
1:5
140
1.0
141
5.0
290
     0
  0
SCALE
  5
4C
102
{ACAD_REACTORS
330
47
102
}
330
47
100
AcDbScale
 70
     0
300
1:8
140
1.0
141
8.0
290
     0
  0
SCALE
  5
4D
102
{ACAD_REACTORS
330
47
102
}
330
47
100
AcDbScale
 70
     0
300
1:10
140
1.0
141
10.0
290
     0
  0
SCALE
  5
4E
102
{ACAD_REACTORS
330
47
102
}
330
47
100
AcDbScale
 70
     0
300
1:16
140
1.0
141
16.0
290
     0
  0
SCALE
  5
4F
102
{ACAD_REACTORS
330
47
102
}
330
47
100
AcDbScale
 70
     0
300
1:20
140
1.0
141
20.0
290
     0
  0
SCALE
  5
50
102
{ACAD_REACTORS
330
47
102
}
330
47
100
AcDbScale
 70
     0
300
1:30
140
1.0
141
30.0
290
     0
  0
SCALE
  5
51
102
{ACAD_REACTORS
330
47
102
}
330
47
100
AcDbScale
 70
     0
300
1:40
140
1.0
141
40.0
290
     0
  0
SCALE
  5
52
102
{ACAD_REACTORS
330
47
102
}
330
47
100
AcDbScale
 70
     0
300
1:50
140
1.0
141
50.0
290
     0
  0
SCALE
  5
53
102
{ACAD_REACTORS
330
47
102
}
330
47
100
AcDbScale
 70
     0
300
1:100
140
1.0
141
100.0
290
     0
  0
SCALE
  5
54
102
{ACAD_REACTORS
330
47
102
}
330
47
100
AcDbScale
 70
     0
300
2:1
140
2.0
141
1.0
290
     0
  0
SCALE
  5
55
102
{ACAD_REACTORS
330
47
102
}
330
47
100
AcDbScale
 70
     0
300
4:1
140
4.0
141
1.0
290
     0
  0
SCALE
  5
56
102
{ACAD_REACTORS
330
47
102
}
330
47
100
AcDbScale
 70
     0
300
8:1
140
8.0
141
1.0
290
     0
  0
SCALE
  5
57
102
{ACAD_REACTORS
330
47
102
}
330
47
100
AcDbScale
 70
     0
300
10:1
140
10.0
141
1.0
290
     0
  0
SCALE
  5
58
102
{ACAD_REACTORS
330
47
102
}
330
47
100
AcDbScale
 70
     0
300
100:1
140
100.0
141
1.0
290
     0
  0
SCALE
  5
59
102
{ACAD_REACTORS
330
47
102
}
330
47
100
AcDbScale
 70
     0
300
1/128" = 1'-0"
140
0.007812
141
12.0
290
     0
  0
SCALE
  5
5A
102
{ACAD_REACTORS
330
47
102
}
330
47
100
AcDbScale
 70
     0
300
1/64" = 1'-0"
140
0.015625
141
12.0
290
     0
  0
SCALE
  5
5B
102
{ACAD_REACTORS
330
47
102
}
330
47
100
AcDbScale
 70
     0
300
1/32" = 1'-0"
140
0.03125
141
12.0
290
     0
  0
SCALE
  5
5C
102
{ACAD_REACTORS
330
47
102
}
330
47
100
AcDbScale
 70
     0
300
1/16" = 1'-0"
140
0.0625
141
12.0
290
     0
  0
SCALE
  5
5D
102
{ACAD_REACTORS
330
47
102
}
330
47
100
AcDbScale
 70
     0
300
3/32" = 1'-0"
140
0.09375
141
12.0
290
     0
  0
SCALE
  5
5E
102
{ACAD_REACTORS
330
47
102
}
330
47
100
AcDbScale
 70
     0
300
1/8" = 1'-0"
140
0.125
141
12.0
290
     0
  0
SCALE
  5
5F
102
{ACAD_REACTORS
330
47
102
}
330
47
100
AcDbScale
 70
     0
300
3/16" = 1'-0"
140
0.1875
141
12.0
290
     0
  0
SCALE
  5
60
102
{ACAD_REACTORS
330
47
102
}
330
47
100
AcDbScale
 70
     0
300
1/4" = 1'-0"
140
0.25
141
12.0
290
     0
  0
SCALE
  5
61
102
{ACAD_REACTORS
330
47
102
}
330
47
100
AcDbScale
 70
     0
300
3/8" = 1'-0"
140
0.375
141
12.0
290
     0
  0
SCALE
  5
62
102
{ACAD_REACTORS
330
47
102
}
330
47
100
AcDbScale
 70
     0
300
1/2" = 1'-0"
140
0.5
141
12.0
290
     0
  0
SCALE
  5
63
102
{ACAD_REACTORS
330
47
102
}
330
47
100
AcDbScale
 70
     0
300
3/4" = 1'-0"
140
0.75
141
12.0
290
     0
  0
SCALE
  5
64
102
{ACAD_REACTORS
330
47
102
}
330
47
100
AcDbScale
 70
     0
300
1" = 1'-0"
140
1.0
141
12.0
290
     0
  0
SCALE
  5
65
102
{ACAD_REACTORS
330
47
102
}
330
47
100
AcDbScale
 70
     0
300
1-1/2" = 1'-0"
140
1.5
141
12.0
290
     0
  0
SCALE
  5
66
102
{ACAD_REACTORS
330
47
102
}
330
47
100
AcDbScale
 70
     0
300
3" = 1'-0"
140
3.0
141
12.0
290
     0
  0
SCALE
  5
67
102
{ACAD_REACTORS
330
47
102
}
330
47
100
AcDbScale
 70
     0
300
6" = 1'-0"
140
6.0
141
12.0
290
     0
  0
SCALE
  5
68
102
{ACAD_REACTORS
330
47
102
}
330
47
100
AcDbScale
 70
     0
300
1'-0" = 1'-0"
140
12.0
141
12.0
290
     0
  0
ACDBSECTIONVIEWSTYLE
  5
28B
102
{ACAD_XDICTIONARY
360
3F5
102
}
102
{ACAD_REACTORS
330
28A
102
}
330
28A
100
AcDbModelDocViewStyle
 70
     0
  3
Metric50
290
     0
100
AcDbSectionViewStyle
 70
     0
 71
     0
 90
      102
 71
     1
340
11
 40
5.0
340
0
340
0
 40
5.0
300
I, O, Q, S, X, Z
 40
10.0
 90
        0
 40
2.5
 90
        0
 71
     2
340
16
 90
       25
340
16
 90
       50
 40
5.0
 40
2.5
 40
5.0
 71
     3
340
11
 40
5.0
 90
        0
 40
15.0
 90
        1
300
%<\AcVar ViewSectionStartId>%-%<\AcVar ViewSectionEndId>% (%<\AcVar ViewScale \f "%sn">%)
 71
     4
300
ANSI31
 40
1.0
 90
        0
290
     0
290
     0
 90
        6
 40
0.0
 40
1.570796326794896
 40
0.2617993877991494
 40
1.308996938995747
 40
-0.2617993877991494
 40
1.832595714594046
  0
TABLESTYLE
  5
288
102
{ACAD_XDICTIONARY
360
3B9
102
}
102
{ACAD_REACTORS
330
287
102
}
330
287
100
AcDbTableStyle
  3
Standard
 70
     0
 71
     0
 40
1.5
 41
1.5
280
     0
281
     0
  7
Standard
140
4.5
170
     2
 62
     0
 63
     7
283
     0
274
    -2
284
     1
 64
     0
275
    -2
285
     1
 65
     0
276
    -2
286
     1
 66
     0
277
    -2
287
     1
 67
     0
278
    -2
288
     1
 68
     0
279
    -2
289
     1
 69
     0
  7
Standard
140
6.0
170
     5
 62
     0
 63
     7
283
     0
274
    -2
284
     1
 64
     0
275
    -2
285
     1
 65
     0
276
    -2
286
     1
 66
     0
277
    -2
287
     1
 67
     0
278
    -2
288
     1
 68
     0
279
    -2
289
     1
 69
     0
  7
Standard
140
4.5
170
     5
 62
     0
 63
     7
283
     0
274
    -2
284
     1
 64
     0
275
    -2
285
     1
 65
     0
276
    -2
286
     1
 66
     0
277
    -2
287
     1
 67
     0
278
    -2
288
     1
 68
     0
279
    -2
289
     1
 69
     0
  0
VISUALSTYLE
  5
2F
102
{ACAD_XDICTIONARY
360
3CB
102
}
102
{ACAD_REACTORS
330
2A
102
}
330
2A
100
AcDbVisualStyle
  2

 70
     4
 71
     0
 72
     2
 73
     0
 90
        0
 40
-0.6
 41
-30.0
 62
     5
 63
     7
 74
     1
 91
        4
 64
     7
 65
   257
 75
     1
175
     1
 42
1.0
 92
        0
 66
   257
 43
1.0
 76
     1
 77
     6
 78
     2
 67
     7
 79
     5
170
     0
171
     0
290
     0
174
     0
 93
        1
 44
0.0
173
     0
291
     0
 45
0.0
1001
ACAD
1000
AcDbSavedByObjectVersion
1070
     0
  0
VISUALSTYLE
  5
32
102
{ACAD_XDICTIONARY
360
3D1
102
}
102
{ACAD_REACTORS
330
2A
102
}
330
2A
100
AcDbVisualStyle
  2

 70
     7
 71
     1
 72
     0
 73
     1
 90
        0
 40
-0.6
 41
-30.0
 62
     5
 63
     7
 74
     0
 91
        4
 64
     7
 65
   257
 75
     1
175
     1
 42
1.0
 92
        8
 66
     7
 43
1.0
 76
     1
 77
     6
 78
     2
 67
     7
 79
     5
170
     0
171
     0
290
     0
174
     0
 93
        1
 44
0.0
173
     0
291
     1
 45
0.0
1001
ACAD
1000
AcDbSavedByObjectVersion
1070
     0
  0
VISUALSTYLE
  5
36
102
{ACAD_XDICTIONARY
360
3D9
102
}
102
{ACAD_REACTORS
330
2A
102
}
330
2A
100
AcDbVisualStyle
  2

 70
    12
 71
     2
 72
     2
 73
     0
 90
        0
 40
-0.6
 41
-30.0
 62
     5
 63
     7
 74
     1
 91
        4
 64
     7
 65
   257
 75
     1
175
     1
 42
1.0
 92
        8
 66
     7
 43
1.0
 76
     1
 77
     6
 78
     2
 67
     7
 79
     5
170
     0
171
     0
290
     0
174
     0
 93
        1
 44
50.0
173
     0
291
     1
 45
0.0
1001
ACAD
1000
AcDbSavedByObjectVersion
1070
     0
  0
VISUALSTYLE
  5
3A
102
{ACAD_XDICTIONARY
360
3E1
102
}
102
{ACAD_REACTORS
330
2A
102
}
330
2A
100
AcDbVisualStyle
  2

 70
    16
 71
     2
 72
     2
 73
     3
 90
        0
 40
-0.6
 41
-30.0
 62
     5
 63
     8
 74
     1
 91
        4
 64
     7
 65
   257
 75
     1
175
     1
 42
1.0
 92
        8
 66
     8
 43
1.0
 76
     1
 77
     6
 78
     2
 67
     7
 79
     5
170
     0
171
     0
290
     0
174
     0
 93
        1
 44
0.0
173
     0
291
     1
 45
0.0
1001
ACAD
1000
AcDbSavedByObjectVersion
1070
     0
  0
VISUALSTYLE
  5
34
102
{ACAD_XDICTIONARY
360
3D5
102
}
102
{ACAD_REACTORS
330
2A
102
}
330
2A
100
AcDbVisualStyle
  2

 70
     9
 71
     3
 72
     2
 73
     0
 90
        0
 40
-0.6
 41
-30.0
 62
     5
 63
     7
 74
     2
 91
        2
 64
     7
 65
   257
 75
     1
175
     1
 42
179.0
 92
        8
 66
     7
 43
1.0
 76
     1
 77
     6
 78
     2
 67
     7
 79
     3
170
     0
171
     0
290
     0
174
     0
 93
        1
 44
0.0
173
     0
291
     0
 45
0.0
1001
ACAD
1000
AcDbSavedByObjectVersion
1070
     0
  0
VISUALSTYLE
  5
35
102
{ACAD_XDICTIONARY
360
3D7
102
}
102
{ACAD_REACTORS
330
2A
102
}
330
2A
100
AcDbVisualStyle
  2

 70
    11
 71
     2
 72
     2
 73
     0
 90
        0
 40
-0.6
 41
-30.0
 62
     5
 63
     7
 74
     1
 91
        4
 64
     7
 65
   257
 75
     1
175
     1
 42
1.0
 92
        8
 66
     7
 43
1.0
 76
     1
 77
     6
 78
     2
 67
     7
 79
     5
170
     0
171
     0
290
     0
174
     0
 93
        1
 44
-50.0
173
     0
291
     1
 45
0.0
1001
ACAD
1000
AcDbSavedByObjectVersion
1070
     0
  0
VISUALSTYLE
  5
3D
102
{ACAD_XDICTIONARY
360
3E7
102
}
102
{ACAD_REACTORS
330
2A
102
}
330
2A
100
AcDbVisualStyle
  2

 70
    22
 71
     2
 72
     2
 73
     0
 90
        0
 40
-0.6
 41
-30.0
 62
     5
 63
     7
 74
     1
 91
        4
 64
     7
 65
   257
 75
     1
175
     1
 42
1.0
 92
        8
 66
     7
 43
1.0
 76
     1
 77
     6
 78
     2
 67
     7
 79
     5
170
     0
171
     0
290
     0
174
     0
 93
        1
 44
0.0
173
     0
291
     1
 45
0.0
1001
ACAD
1000
AcDbSavedByObjectVersion
1070
     0
  0
VISUALSTYLE
  5
39
102
{ACAD_XDICTIONARY
360
3DF
102
}
102
{ACAD_REACTORS
330
2A
102
}
330
2A
100
AcDbVisualStyle
  2

 70
    15
 71
     2
 72
     2
 73
     0
 90
        0
 40
-0.6
 41
-30.0
 62
     5
 63
     7
 74
     1
 91
        4
 64
     7
 65
   257
 75
     1
175
     1
 42
1.0
 92
        8
 66
     7
 43
1.0
 76
     1
 77
     6
 78
     2
 67
     7
 79
     5
170
     0
171
     0
290
     0
174
     0
 93
        1
 44
0.0
173
     0
291
     1
 45
0.0
1001
ACAD
1000
AcDbSavedByObjectVersion
1070
     0
  0
VISUALSTYLE
  5
2B
102
{ACAD_XDICTIONARY
360
3C3
102
}
102
{ACAD_REACTORS
330
2A
102
}
330
2A
100
AcDbVisualStyle
  2

 70
     0
 71
     2
 72
     1
 73
     1
 90
        2
 40
-0.6
 41
30.0
 62
     5
 63
     7
 74
     0
 91
        0
 64
     7
 65
   257
 75
     1
175
     1
 42
1.0
 92
        8
 66
     7
 43
1.0
 76
     1
 77
     6
 78
     2
 67
     7
 79
     5
170
     0
171
     0
290
     0
174
     0
 93
       13
 44
0.0
173
     0
291
     1
 45
0.0
1001
ACAD
1000
AcDbSavedByObjectVersion
1070
     0
  0
VISUALSTYLE
  5
2C
102
{ACAD_XDICTIONARY
360
3C5
102
}
102
{ACAD_REACTORS
330
2A
102
}
330
2A
100
AcDbVisualStyle
  2

 70
     1
 71
     2
 72
     1
 73
     1
 90
        2
 40
-0.6
 41
30.0
 62
     5
 63
     7
 74
     1
 91
        0
 64
     7
 65
   257
 75
     1
175
     1
 42
1.0
 92
        0
 66
   257
 43
1.0
 76
     1
 77
     6
 78
     2
 67
     7
 79
     5
170
     0
171
     0
290
     0
174
     0
 93
       13
 44
0.0
173
     0
291
     1
 45
0.0
1001
ACAD
1000
AcDbSavedByObjectVersion
1070
     0
  0
VISUALSTYLE
  5
2D
102
{ACAD_XDICTIONARY
360
3C7
102
}
102
{ACAD_REACTORS
330
2A
102
}
330
2A
100
AcDbVisualStyle
  2

 70
     2
 71
     2
 72
     2
 73
     1
 90
        2
 40
-0.6
 41
30.0
 62
     5
 63
     7
 74
     0
 91
        0
 64
     7
 65
   257
 75
     1
175
     1
 42
1.0
 92
        0
 66
     7
 43
1.0
 76
     1
 77
     6
 78
     2
 67
     7
 79
     5
170
     0
171
     0
290
     0
174
     0
 93
       13
 44
0.0
173
     0
291
     1
 45
0.0
1001
ACAD
1000
AcDbSavedByObjectVersion
1070
     0
  0
VISUALSTYLE
  5
2E
102
{ACAD_XDICTIONARY
360
3C9
102
}
102
{ACAD_REACTORS
330
2A
102
}
330
2A
100
AcDbVisualStyle
  2

 70
     3
 71
     2
 72
     2
 73
     1
 90
        2
 40
-0.6
 41
30.0
 62
     5
 63
     7
 74
     1
 91
        0
 64
     7
 65
   257
 75
     1
175
     1
 42
1.0
 92
        0
 66
   257
 43
1.0
 76
     1
 77
     6
 78
     2
 67
     7
 79
     5
170
     0
171
     0
290
     0
174
     0
 93
       13
 44
0.0
173
     0
291
     1
 45
0.0
1001
ACAD
1000
AcDbSavedByObjectVersion
1070
     0
  0
VISUALSTYLE
  5
31
102
{ACAD_XDICTIONARY
360
3CF
102
}
102
{ACAD_REACTORS
330
2A
102
}
330
2A
100
AcDbVisualStyle
  2

 70
     6
 71
     1
 72
     2
 73
     2
 90
        0
 40
-0.6
 41
-30.0
 62
     5
 63
     7
 74
     2
 91
        2
 64
     7
 65
   257
 75
     2
175
     1
 42
40.0
 92
        0
 66
   257
 43
1.0
 76
     1
 77
     6
 78
     2
 67
     7
 79
     3
170
     0
171
     0
290
     0
174
     0
 93
        1
 44
0.0
173
     0
291
     0
 45
0.0
1001
ACAD
1000
AcDbSavedByObjectVersion
1070
     0
  0
VISUALSTYLE
  5
3B
102
{ACAD_XDICTIONARY
360
3E3
102
}
102
{ACAD_REACTORS
330
2A
102
}
330
2A
100
AcDbVisualStyle
  2

 70
    20
 71
     2
 72
     2
 73
     0
 90
        0
 40
-0.6
 41
-30.0
 62
     5
 63
     7
 74
     1
 91
        4
 64
     7
 65
   257
 75
     1
175
     1
 42
1.0
 92
       10
 66
     7
 43
1.0
 76
     1
 77
     6
 78
     2
 67
     7
 79
     5
170
     0
171
     0
290
     0
174
     0
 93
        1
 44
0.0
173
     0
291
     1
 45
0.0
1001
ACAD
1000
AcDbSavedByObjectVersion
1070
     0
  0
VISUALSTYLE
  5
38
102
{ACAD_XDICTIONARY
360
3DD
102
}
102
{ACAD_REACTORS
330
2A
102
}
330
2A
100
AcDbVisualStyle
  2

 70
    14
 71
     2
 72
     2
 73
     0
 90
        0
 40
-0.6
 41
-30.0
 62
     5
 63
     7
 74
     1
 91
        4
 64
     7
 65
   257
 75
     7
175
     7
 42
1.0
 92
        8
 66
     7
 43
1.0
 76
     1
 77
     6
 78
     2
 67
     7
 79
     5
170
     0
171
     0
290
     0
174
     0
 93
        1
 44
0.0
173
     0
291
     1
 45
0.0
1001
ACAD
1000
AcDbSavedByObjectVersion
1070
     0
  0
VISUALSTYLE
  5
3C
102
{ACAD_XDICTIONARY
360
3E5
102
}
102
{ACAD_REACTORS
330
2A
102
}
330
2A
100
AcDbVisualStyle
  2

 70
    21
 71
     2
 72
     2
 73
     0
 90
        0
 40
-0.6
 41
-30.0
 62
     5
 63
     7
 74
     1
 91
        4
 64
     7
 65
   257
 75
     1
175
     1
 42
1.0
 92
        9
 66
     7
 43
1.0
 76
     1
 77
     6
 78
     2
 67
     7
 79
     5
170
     0
171
     0
290
     0
174
     0
 93
        1
 44
0.0
173
     0
291
     1
 45
0.0
1001
ACAD
1000
AcDbSavedByObjectVersion
1070
     0
  0
VISUALSTYLE
  5
33
102
{ACAD_XDICTIONARY
360
3D3
102
}
102
{ACAD_REACTORS
330
2A
102
}
330
2A
100
AcDbVisualStyle
  2

 70
     8
 71
     2
 72
     3
 73
     0
 90
        2
 40
-0.6
 41
30.0
 62
     5
 63
     7
 74
     0
 91
        0
 64
     7
 65
   257
 75
     1
175
     1
 42
1.0
 92
        8
 66
   257
 43
1.0
 76
     1
 77
     6
 78
     2
 67
     7
 79
     3
170
     0
171
     0
290
     0
174
     0
 93
       13
 44
0.0
173
     0
291
     0
 45
0.0
1001
ACAD
1000
AcDbSavedByObjectVersion
1070
     0
  0
VISUALSTYLE
  5
42
102
{ACAD_XDICTIONARY
360
3F1
102
}
102
{ACAD_REACTORS
330
2A
102
}
330
2A
100
AcDbVisualStyle
  2

 70
    27
 71
     2
 72
     2
 73
     1
 90
        2
 40
-0.6
 41
30.0
 62
     5
 63
     7
 74
     0
 91
        4
 64
     7
 65
   257
 75
     1
175
     1
 42
1.0
 92
        8
 66
   257
 43
1.0
 76
     1
 77
     6
 78
     2
 67
     8
 79
     3
170
     0
171
     0
290
     0
174
     0
 93
        5
 44
0.0
173
     0
291
     0
 45
0.0
1001
ACAD
1000
AcDbSavedByObjectVersion
1070
     0
  0
VISUALSTYLE
  5
41
102
{ACAD_XDICTIONARY
360
3EF
102
}
102
{ACAD_REACTORS
330
2A
102
}
330
2A
100
AcDbVisualStyle
  2

 70
    26
 71
     2
 72
     2
 73
     1
 90
        2
 40
-0.6
 41
30.0
 62
     5
 63
     7
 74
     1
 91
       10
 64
     7
 65
   257
 75
     2
175
     1
 42
1.0
 92
        8
 66
   257
 43
1.0
 76
     1
 77
     6
 78
     2
 67
     7
 79
     3
170
     0
171
     0
290
     0
174
     0
 93
        5
 44
0.0
173
     0
291
     0
 45
0.0
1001
ACAD
1000
AcDbSavedByObjectVersion
1070
     0
  0
VISUALSTYLE
  5
3E
102
{ACAD_XDICTIONARY
360
3E9
102
}
102
{ACAD_REACTORS
330
2A
102
}
330
2A
100
AcDbVisualStyle
  2

 70
    23
 71
     2
 72
     2
 73
     3
 90
        0
 40
-0.6
 41
-30.0
 62
     5
 63
     7
 74
     2
 91
        2
 64
     7
 65
     7
 75
     1
175
     1
 42
40.0
 92
        8
 66
     7
 43
1.0
 76
     1
 77
     6
 78
     2
 67
     7
 79
     3
170
     0
171
     0
290
     0
174
     0
 93
        1
 44
0.0
173
     0
291
     0
 45
0.0
1001
ACAD
1000
AcDbSavedByObjectVersion
1070
     0
  0
VISUALSTYLE
  5
3F
102
{ACAD_XDICTIONARY
360
3EB
102
}
102
{ACAD_REACTORS
330
2A
102
}
330
2A
100
AcDbVisualStyle
  2

 70
    24
 71
     1
 72
     2
 73
     2
 90
        0
 40
-0.6
 41
-30.0
 62
     5
 63
     7
 74
     2
 91
        2
 64
     7
 65
     7
 75
     1
175
     1
 42
40.0
 92
       11
 66
     7
 43
1.0
 76
     1
 77
     6
 78
     2
 67
     7
 79
     6
170
     0
171
     0
290
     0
174
     0
 93
        1
 44
0.0
173
     0
291
     0
 45
0.0
1001
ACAD
1000
AcDbSavedByObjectVersion
1070
     0
  0
VISUALSTYLE
  5
37
102
{ACAD_XDICTIONARY
360
3DB
102
}
102
{ACAD_REACTORS
330
2A
102
}
330
2A
100
AcDbVisualStyle
  2

 70
    13
 71
     2
 72
     2
 73
     0
 90
        0
 40
-0.6
 41
-30.0
 62
     5
 63
     7
 74
     1
 91
        4
 64
     7
 65
   257
 75
     1
175
     1
 42
1.0
 92
       12
 66
     7
 43
1.0
 76
     1
 77
     6
 78
     2
 67
     7
 79
     5
170
     0
171
     0
290
     0
174
     0
 93
        1
 44
0.0
173
     0
291
     1
 45
0.0
1001
ACAD
1000
AcDbSavedByObjectVersion
1070
     0
  0
VISUALSTYLE
  5
30
102
{ACAD_XDICTIONARY
360
3CD
102
}
102
{ACAD_REACTORS
330
2A
102
}
330
2A
100
AcDbVisualStyle
  2

 70
     5
 71
     0
 72
     2
 73
     0
 90
        0
 40
-0.6
 41
-30.0
 62
     5
 63
     7
 74
     1
 91
        4
 64
     7
 65
   257
 75
     1
175
     1
 42
1.0
 92
        0
 66
   257
 43
1.0
 76
     1
 77
     6
 78
     2
 67
     7
 79
     3
170
     0
171
     0
290
     0
174
     0
 93
        1
 44
0.0
173
     0
291
     0
 45
0.0
1001
ACAD
1000
AcDbSavedByObjectVersion
1070
     0
  0
VISUALSTYLE
  5
40
102
{ACAD_XDICTIONARY
360
3ED
102
}
102
{ACAD_REACTORS
330
2A
102
}
330
2A
100
AcDbVisualStyle
  2

 70
    25
 71
     2
 72
     2
 73
     1
 90
        1
 40
0.5
 41
-30.0
 62
     5
 63
     7
 74
     1
 91
        0
 64
     7
 65
   257
 75
     1
175
     1
 42
1.0
 92
        8
 66
     7
 43
1.0
 76
     1
 77
     6
 78
     2
 67
     7
 79
     3
170
     0
171
     0
290
     0
174
     0
 93
       13
 44
0.0
173
     0
291
     0
 45
0.0
1001
ACAD
1000
AcDbSavedByObjectVersion
1070
     0
  0
DICTIONARYVAR
  5
24C
102
{ACAD_REACTORS
330
245
102
}
330
245
100
DictionaryVariables
280
     0
  1
1:1
  0
DICTIONARYVAR
  5
370
102
{ACAD_REACTORS
330
245
102
}
330
245
100
DictionaryVariables
280
     0
  1
STANDARD
  0
DICTIONARYVAR
  5
36F
102
{ACAD_REACTORS
330
245
102
}
330
245
100
DictionaryVariables
280
     0
  1
STANDARD
  0
DICTIONARYVAR
  5
371
102
{ACAD_REACTORS
330
245
102
}
330
245
100
DictionaryVariables
280
     0
  1
Metric50
  0
DICTIONARYVAR
  5
372
102
{ACAD_REACTORS
330
245
102
}
330
245
100
DictionaryVariables
280
     0
  1
Metric50
  0
DICTIONARYVAR
  5
24A
102
{ACAD_REACTORS
330
245
102
}
330
245
100
DictionaryVariables
280
     0
  1
2
  0
DICTIONARYVAR
  5
24B
102
{ACAD_REACTORS
330
245
102
}
330
245
100
DictionaryVariables
280
     0
  1
1
  0
DICTIONARYVAR
  5
374
102
{ACAD_REACTORS
330
245
102
}
330
245
100
DictionaryVariables
280
     0
  1
0
  0
DICTIONARYVAR
  5
24D
102
{ACAD_REACTORS
330
245
102
}
330
245
100
DictionaryVariables
280
     0
  1
1
  0
DICTIONARYVAR
  5
373
102
{ACAD_REACTORS
330
245
102
}
330
245
100
DictionaryVariables
280
     0
  1
127
  0
DICTIONARYVAR
  5
375
102
{ACAD_REACTORS
330
245
102
}
330
245
100
DictionaryVariables
280
     0
  1
2
  0
DICTIONARY
  5
3F7
330
28D
100
AcDbDictionary
280
     1
281
     1
  3
ACAD_XREC_ROUNDTRIP
360
3F8
  0
DICTIONARY
  5
3BD
330
1E
100
AcDbDictionary
280
     1
281
     1
  3
ACAD_XREC_ROUNDTRIP
360
3BE
  0
DICTIONARY
  5
3C1
330
26
100
AcDbDictionary
280
     1
281
     1
  3
ACAD_XREC_ROUNDTRIP
360
3C2
  0
DICTIONARY
  5
3BF
330
22
100
AcDbDictionary
280
     1
281
     1
  3
ACAD_XREC_ROUNDTRIP
360
3C0
  0
DICTIONARY
  5
280
330
45
100
AcDbDictionary
280
     1
281
     1
  3
ACAD_XREC_ROUNDTRIP
360
281
  0
DICTIONARY
  5
27E
330
44
100
AcDbDictionary
280
     1
281
     1
  3
ACAD_XREC_ROUNDTRIP
360
27F
  0
DICTIONARY
  5
282
330
46
100
AcDbDictionary
280
     1
281
     1
  3
ACAD_XREC_ROUNDTRIP
360
283
  0
DICTIONARY
  5
3F5
330
28B
100
AcDbDictionary
280
     1
281
     1
  3
ACAD_XREC_ROUNDTRIP
360
3F6
  0
DICTIONARY
  5
3B9
330
288
100
AcDbDictionary
280
     1
281
     1
  3
ACAD_ROUNDTRIP_2008_TABLESTYLE_CELLSTYLEMAP
360
3BA
  3
ACAD_XREC_ROUNDTRIP
360
3F3
  0
DICTIONARY
  5
3CB
330
2F
100
AcDbDictionary
280
     1
281
     1
  3
ACAD_XREC_ROUNDTRIP
360
3CC
  0
DICTIONARY
  5
3D1
330
32
100
AcDbDictionary
280
     1
281
     1
  3
ACAD_XREC_ROUNDTRIP
360
3D2
  0
DICTIONARY
  5
3D9
330
36
100
AcDbDictionary
280
     1
281
     1
  3
ACAD_XREC_ROUNDTRIP
360
3DA
  0
DICTIONARY
  5
3E1
330
3A
100
AcDbDictionary
280
     1
281
     1
  3
ACAD_XREC_ROUNDTRIP
360
3E2
  0
DICTIONARY
  5
3D5
330
34
100
AcDbDictionary
280
     1
281
     1
  3
ACAD_XREC_ROUNDTRIP
360
3D6
  0
DICTIONARY
  5
3D7
330
35
100
AcDbDictionary
280
     1
281
     1
  3
ACAD_XREC_ROUNDTRIP
360
3D8
  0
DICTIONARY
  5
3E7
330
3D
100
AcDbDictionary
280
     1
281
     1
  3
ACAD_XREC_ROUNDTRIP
360
3E8
  0
DICTIONARY
  5
3DF
330
39
100
AcDbDictionary
280
     1
281
     1
  3
ACAD_XREC_ROUNDTRIP
360
3E0
  0
DICTIONARY
  5
3C3
330
2B
100
AcDbDictionary
280
     1
281
     1
  3
ACAD_XREC_ROUNDTRIP
360
3C4
  0
DICTIONARY
  5
3C5
330
2C
100
AcDbDictionary
280
     1
281
     1
  3
ACAD_XREC_ROUNDTRIP
360
3C6
  0
DICTIONARY
  5
3C7
330
2D
100
AcDbDictionary
280
     1
281
     1
  3
ACAD_XREC_ROUNDTRIP
360
3C8
  0
DICTIONARY
  5
3C9
330
2E
100
AcDbDictionary
280
     1
281
     1
  3
ACAD_XREC_ROUNDTRIP
360
3CA
  0
DICTIONARY
  5
3CF
330
31
100
AcDbDictionary
280
     1
281
     1
  3
ACAD_XREC_ROUNDTRIP
360
3D0
  0
DICTIONARY
  5
3E3
330
3B
100
AcDbDictionary
280
     1
281
     1
  3
ACAD_XREC_ROUNDTRIP
360
3E4
  0
DICTIONARY
  5
3DD
330
38
100
AcDbDictionary
280
     1
281
     1
  3
ACAD_XREC_ROUNDTRIP
360
3DE
  0
DICTIONARY
  5
3E5
330
3C
100
AcDbDictionary
280
     1
281
     1
  3
ACAD_XREC_ROUNDTRIP
360
3E6
  0
DICTIONARY
  5
3D3
330
33
100
AcDbDictionary
280
     1
281
     1
  3
ACAD_XREC_ROUNDTRIP
360
3D4
  0
DICTIONARY
  5
3F1
330
42
100
AcDbDictionary
280
     1
281
     1
  3
ACAD_XREC_ROUNDTRIP
360
3F2
  0
DICTIONARY
  5
3EF
330
41
100
AcDbDictionary
280
     1
281
     1
  3
ACAD_XREC_ROUNDTRIP
360
3F0
  0
DICTIONARY
  5
3E9
330
3E
100
AcDbDictionary
280
     1
281
     1
  3
ACAD_XREC_ROUNDTRIP
360
3EA
  0
DICTIONARY
  5
3EB
330
3F
100
AcDbDictionary
280
     1
281
     1
  3
ACAD_XREC_ROUNDTRIP
360
3EC
  0
DICTIONARY
  5
3DB
330
37
100
AcDbDictionary
280
     1
281
     1
  3
ACAD_XREC_ROUNDTRIP
360
3DC
  0
DICTIONARY
  5
3CD
330
30
100
AcDbDictionary
280
     1
281
     1
  3
ACAD_XREC_ROUNDTRIP
360
3CE
  0
DICTIONARY
  5
3ED
330
40
100
AcDbDictionary
280
     1
281
     1
  3
ACAD_XREC_ROUNDTRIP
360
3EE
  0
XRECORD
  5
3F8
102
{ACAD_REACTORS
330
3F7
102
}
330
3F7
100
AcDbXrecord
280
     1
102
DISPLAYNAME
  1
Metric50
102
FLAGS
 90
        0
  0
XRECORD
  5
3BE
102
{ACAD_REACTORS
330
3BD
102
}
330
3BD
100
AcDbXrecord
280
     1
102
SHADEPLOT
 70
     0
102
SHADEPLOTRESLEVEL
 70
     2
102
SHADEPLOTCUSTOMDPI
 70
   300
  0
XRECORD
  5
3C2
102
{ACAD_REACTORS
330
3C1
102
}
330
3C1
100
AcDbXrecord
280
     1
102
SHADEPLOT
 70
     0
102
SHADEPLOTRESLEVEL
 70
     2
102
SHADEPLOTCUSTOMDPI
 70
   300
  0
XRECORD
  5
3C0
102
{ACAD_REACTORS
330
3BF
102
}
330
3BF
100
AcDbXrecord
280
     1
102
SHADEPLOT
 70
     0
102
SHADEPLOTRESLEVEL
 70
     2
102
SHADEPLOTCUSTOMDPI
 70
   300
  0
XRECORD
  5
281
102
{ACAD_REACTORS
330
280
102
}
330
280
100
AcDbXrecord
280
     1
102
MATERIAL
148
0.0
149
0.0
149
0.0
 93
        0
 94
      127
282
     0
 72
     1
 77
     1
171
     1
175
     1
179
     1
273
     0
  0
XRECORD
  5
27F
102
{ACAD_REACTORS
330
27E
102
}
330
27E
100
AcDbXrecord
280
     1
102
MATERIAL
148
0.0
149
0.0
149
0.0
 93
        0
 94
      127
282
     0
 72
     1
 77
     1
171
     1
175
     1
179
     1
273
     0
  0
XRECORD
  5
283
102
{ACAD_REACTORS
330
282
102
}
330
282
100
AcDbXrecord
280
     1
102
MATERIAL
148
0.0
149
0.0
149
0.0
 93
        0
 94
      127
282
     0
 72
     1
 77
     1
171
     1
175
     1
179
     1
273
     0
  0
XRECORD
  5
3F6
102
{ACAD_REACTORS
330
3F5
102
}
330
3F5
100
AcDbXrecord
280
     1
102
DISPLAYNAME
  1
Metric50
102
FLAGS
 90
        0
  0
CELLSTYLEMAP
  5
3BA
102
{ACAD_REACTORS
330
3B9
102
}
330
3B9
100
AcDbCellStyleMap
 90
        3
300
CELLSTYLE
  1
TABLEFORMAT_BEGIN
 90
        5
170
     1
 91
        0
 92
    32768
 62
   257
 93
        1
300
CONTENTFORMAT
  1
CONTENTFORMAT_BEGIN
 90
        0
 91
        0
 92
      512
 93
        0
300

 40
0.0
140
1.0
 94
        5
 62
     0
340
11
144
6.0
309
CONTENTFORMAT_END
171
     1
301
MARGIN
  1
CELLMARGIN_BEGIN
 40
1.5
 40
1.5
 40
1.5
 40
1.5
 40
4.5
 40
4.5
309
CELLMARGIN_END
 94
        6
 95
        1
302
GRIDFORMAT
  1
GRIDFORMAT_BEGIN
 90
        0
 91
        1
 62
     0
 92
       -2
340
0
 93
        0
 40
1.125
309
GRIDFORMAT_END
 95
        2
302
GRIDFORMAT
  1
GRIDFORMAT_BEGIN
 90
        0
 91
        1
 62
     0
 92
       -2
340
0
 93
        0
 40
1.125
309
GRIDFORMAT_END
 95
        4
302
GRIDFORMAT
  1
GRIDFORMAT_BEGIN
 90
        0
 91
        1
 62
     0
 92
       -2
340
0
 93
        0
 40
1.125
309
GRIDFORMAT_END
 95
        8
302
GRIDFORMAT
  1
GRIDFORMAT_BEGIN
 90
        0
 91
        1
 62
     0
 92
       -2
340
0
 93
        0
 40
1.125
309
GRIDFORMAT_END
 95
       16
302
GRIDFORMAT
  1
GRIDFORMAT_BEGIN
 90
        0
 91
        1
 62
     0
 92
       -2
340
0
 93
        0
 40
1.125
309
GRIDFORMAT_END
 95
       32
302
GRIDFORMAT
  1
GRIDFORMAT_BEGIN
 90
        0
 91
        1
 62
     0
 92
       -2
340
0
 93
        0
 40
1.125
309
GRIDFORMAT_END
309
TABLEFORMAT_END
  1
CELLSTYLE_BEGIN
 90
        1
 91
        1
300
_TITLE
309
CELLSTYLE_END
300
CELLSTYLE
  1
TABLEFORMAT_BEGIN
 90
        5
170
     1
 91
        0
 92
        0
 62
   257
 93
        1
300
CONTENTFORMAT
  1
CONTENTFORMAT_BEGIN
 90
        0
 91
        0
 92
      512
 93
        0
300

 40
0.0
140
1.0
 94
        5
 62
     0
340
11
144
4.5
309
CONTENTFORMAT_END
171
     1
301
MARGIN
  1
CELLMARGIN_BEGIN
 40
1.5
 40
1.5
 40
1.5
 40
1.5
 40
4.5
 40
4.5
309
CELLMARGIN_END
 94
        6
 95
        1
302
GRIDFORMAT
  1
GRIDFORMAT_BEGIN
 90
        0
 91
        1
 62
     0
 92
       -2
340
0
 93
        0
 40
1.125
309
GRIDFORMAT_END
 95
        2
302
GRIDFORMAT
  1
GRIDFORMAT_BEGIN
 90
        0
 91
        1
 62
     0
 92
       -2
340
0
 93
        0
 40
1.125
309
GRIDFORMAT_END
 95
        4
302
GRIDFORMAT
  1
GRIDFORMAT_BEGIN
 90
        0
 91
        1
 62
     0
 92
       -2
340
0
 93
        0
 40
1.125
309
GRIDFORMAT_END
 95
        8
302
GRIDFORMAT
  1
GRIDFORMAT_BEGIN
 90
        0
 91
        1
 62
     0
 92
       -2
340
0
 93
        0
 40
1.125
309
GRIDFORMAT_END
 95
       16
302
GRIDFORMAT
  1
GRIDFORMAT_BEGIN
 90
        0
 91
        1
 62
     0
 92
       -2
340
0
 93
        0
 40
1.125
309
GRIDFORMAT_END
 95
       32
302
GRIDFORMAT
  1
GRIDFORMAT_BEGIN
 90
        0
 91
        1
 62
     0
 92
       -2
340
0
 93
        0
 40
1.125
309
GRIDFORMAT_END
309
TABLEFORMAT_END
  1
CELLSTYLE_BEGIN
 90
        2
 91
        1
300
_HEADER
309
CELLSTYLE_END
300
CELLSTYLE
  1
TABLEFORMAT_BEGIN
 90
        5
170
     1
 91
        0
 92
        0
 62
   257
 93
        1
300
CONTENTFORMAT
  1
CONTENTFORMAT_BEGIN
 90
        0
 91
        0
 92
      512
 93
        0
300

 40
0.0
140
1.0
 94
        2
 62
     0
340
11
144
4.5
309
CONTENTFORMAT_END
171
     1
301
MARGIN
  1
CELLMARGIN_BEGIN
 40
1.5
 40
1.5
 40
1.5
 40
1.5
 40
4.5
 40
4.5
309
CELLMARGIN_END
 94
        6
 95
        1
302
GRIDFORMAT
  1
GRIDFORMAT_BEGIN
 90
        0
 91
        1
 62
     0
 92
       -2
340
0
 93
        0
 40
1.125
309
GRIDFORMAT_END
 95
        2
302
GRIDFORMAT
  1
GRIDFORMAT_BEGIN
 90
        0
 91
        1
 62
     0
 92
       -2
340
0
 93
        0
 40
1.125
309
GRIDFORMAT_END
 95
        4
302
GRIDFORMAT
  1
GRIDFORMAT_BEGIN
 90
        0
 91
        1
 62
     0
 92
       -2
340
0
 93
        0
 40
1.125
309
GRIDFORMAT_END
 95
        8
302
GRIDFORMAT
  1
GRIDFORMAT_BEGIN
 90
        0
 91
        1
 62
     0
 92
       -2
340
0
 93
        0
 40
1.125
309
GRIDFORMAT_END
 95
       16
302
GRIDFORMAT
  1
GRIDFORMAT_BEGIN
 90
        0
 91
        1
 62
     0
 92
       -2
340
0
 93
        0
 40
1.125
309
GRIDFORMAT_END
 95
       32
302
GRIDFORMAT
  1
GRIDFORMAT_BEGIN
 90
        0
 91
        1
 62
     0
 92
       -2
340
0
 93
        0
 40
1.125
309
GRIDFORMAT_END
309
TABLEFORMAT_END
  1
CELLSTYLE_BEGIN
 90
        3
 91
        2
300
_DATA
309
CELLSTYLE_END
  0
XRECORD
  5
3F3
102
{ACAD_REACTORS
330
3B9
102
}
330
3B9
100
AcDbXrecord
280
     1
102
ACAD_ROUNDTRIP_PRE2007_TABLESTYLE
 90
      512
 91
        0
  1

 92
      512
 93
        0
  2

 94
      512
 95
        0
  3

  0
XRECORD
  5
3CC
102
{ACAD_REACTORS
330
3CB
102
}
330
3CB
100
AcDbXrecord
280
     1
102
RTVSPost2010Prop28
280
     1
102
RTVSPost2010PropOp28
 70
     1
102
RTVSPost2010Prop29
280
     1
102
RTVSPost2010PropOp29
 70
     1
102
RTVSPost2010Prop30
280
     0
102
RTVSPost2010PropOp30
 70
     1
102
RTVSPost2010Prop31
280
     0
102
RTVSPost2010PropOp31
 70
     1
102
RTVSPost2010Prop32
280
     0
102
RTVSPost2010PropOp32
 70
     1
102
RTVSPost2010Prop33
280
     0
102
RTVSPost2010PropOp33
 70
     1
102
RTVSPost2010Prop34
280
     0
102
RTVSPost2010PropOp34
 70
     1
102
RTVSPost2010Prop35
280
     0
102
RTVSPost2010PropOp35
 70
     1
102
RTVSPost2010Prop36
280
     0
102
RTVSPost2010PropOp36
 70
     1
102
RTVSPost2010Prop37
 90
       50
102
RTVSPost2010PropOp37
 70
     1
102
RTVSPost2010Prop38
140
0.0
102
RTVSPost2010PropOp38
 70
     1
102
RTVSPost2010Prop39
140
1.0
102
RTVSPost2010PropOp39
 70
     1
102
RTVSPost2010Prop40
 90
        0
102
RTVSPost2010PropOp40
 70
     1
102
RTVSPost2010Prop41ColorIndex
 90
       18
102
RTVSPost2010Prop41ColorRGB
 90
        0
102
RTVSPost2010PropOp41
 70
     1
102
RTVSPost2010Prop42
 90
       50
102
RTVSPost2010PropOp42
 70
     1
102
RTVSPost2010Prop43
 90
        3
102
RTVSPost2010PropOp43
 70
     1
102
RTVSPost2010Prop44ColorIndex
 90
        5
102
RTVSPost2010Prop44ColorRGB
 90
      255
102
RTVSPost2010PropOp44
 70
     1
102
RTVSPost2010Prop45
280
     0
102
RTVSPost2010PropOp45
 70
     1
102
RTVSPost2010Prop46
 90
       50
102
RTVSPost2010PropOp46
 70
     1
102
RTVSPost2010Prop47
 90
       50
102
RTVSPost2010PropOp47
 70
     1
102
RTVSPost2010Prop48
 90
       50
102
RTVSPost2010PropOp48
 70
     1
102
RTVSPost2010Prop49
280
     0
102
RTVSPost2010PropOp49
 70
     1
102
RTVSPost2010Prop50
 90
       50
102
RTVSPost2010PropOp50
 70
     1
102
RTVSPost2010Prop51ColorIndex
 90
      256
102
RTVSPost2010Prop51ColorRGB
 90
-16777216
102
RTVSPost2010PropOp51
 70
     0
102
RTVSPost2010Prop52
140
1.0
102
RTVSPost2010PropOp52
 70
     0
102
RTVSPost2010Prop53
 90
        2
102
RTVSPost2010PropOp53
 70
     1
102
RTVSPost2010Prop54
  1
strokes_ogs.tif
102
RTVSPost2010PropOp54
 70
     1
102
RTVSPost2010Prop55
280
     0
102
RTVSPost2010PropOp55
 70
     1
102
RTVSPost2010Prop56
140
1.0
102
RTVSPost2010PropOp56
 70
     1
102
RTVSPost2010Prop57
140
1.0
102
RTVSPost2010PropOp57
 70
     1
102
RTVSPropertyOp0
 70
     1
102
RTVSPropertyOp1
 70
     1
102
RTVSPropertyOp2
 70
     1
102
RTVSPropertyOp3
 70
     1
102
RTVSPropertyOp4
 70
     1
102
RTVSPropertyOp5
 70
     1
102
RTVSPropertyOp6
 70
     1
102
RTVSPropertyOp7
 70
     1
102
RTVSPropertyOp8
 70
     1
102
RTVSPropertyOp9
 70
     1
102
RTVSPropertyOp10
 70
     1
102
RTVSPropertyOp11
 70
     1
102
RTVSPropertyOp12
 70
     1
102
RTVSPropertyOp13
 70
     1
102
RTVSPropertyOp14
 70
     1
102
RTVSPropertyOp15
 70
     1
102
RTVSPropertyOp16
 70
     1
102
RTVSPropertyOp17
 70
     1
102
RTVSPropertyOp18
 70
     1
102
RTVSPropertyOp19
 70
     1
102
RTVSPropertyOp20
 70
     1
102
RTVSPropertyOp21
 70
     1
102
RTVSPropertyOp22
 70
     1
102
RTVSPropertyOp23
 70
     1
102
RTVSPropertyOp24
 70
     1
102
RTVSPropertyOp25
 70
     1
102
RTVSPropertyOp26
 70
     1
102
RTVSPropertyOp27
 70
     1
102
RTVSPropertyOp28
 70
     1
102
RTVSPropertyOp29
 70
     1
102
RTVSPropertyOp30
 70
     1
102
RTVSPropertyOp31
 70
     1
102
RTVSPropertyOp32
 70
     1
102
RTVSPropertyOp33
 70
     1
102
RTVSPropertyOp34
 70
     1
102
RTVSPropertyOp35
 70
     1
102
RTVSPropertyOp36
 70
     1
102
RTVSPropertyOp37
 70
     1
102
RTVSPropertyOp38
 70
     1
102
RTVSPropertyOp39
 70
     1
102
RTVSPropertyOp40
 70
     1
102
RTVSPropertyOp41
 70
     1
102
RTVSPropertyOp42
 70
     1
102
RTVSPropertyOp43
 70
     1
102
RTVSPropertyOp44
 70
     1
102
RTVSPropertyOp45
 70
     1
102
RTVSPropertyOp46
 70
     1
102
RTVSPropertyOp47
 70
     1
102
RTVSPropertyOp48
 70
     1
102
RTVSPropertyOp49
 70
     1
102
RTVSPropertyOp50
 70
     1
102
RTVSPropertyOp51
 70
     0
102
RTVSPropertyOp52
 70
     0
102
RTVSPropertyOp53
 70
     1
102
RTVSPropertyOp54
 70
     1
102
RTVSPropertyOp55
 70
     1
102
RTVSPropertyOp56
 70
     1
102
RTVSPropertyOp57
 70
     1
102
RTVSPropertyOp58
 70
     1
102
RTVSPropertyOp59
 70
     1
102
RTVSPropertyOp60
 70
     1
102
RTVSPropertyOp61
 70
     1
102
RTVSPropertyOp62
 70
     1
  0
XRECORD
  5
3D2
102
{ACAD_REACTORS
330
3D1
102
}
330
3D1
100
AcDbXrecord
280
     1
102
RTVSPost2010Prop28
280
     0
102
RTVSPost2010PropOp28
 70
     1
102
RTVSPost2010Prop29
280
     1
102
RTVSPost2010PropOp29
 70
     1
102
RTVSPost2010Prop30
280
     1
102
RTVSPost2010PropOp30
 70
     1
102
RTVSPost2010Prop31
280
     0
102
RTVSPost2010PropOp31
 70
     1
102
RTVSPost2010Prop32
280
     0
102
RTVSPost2010PropOp32
 70
     1
102
RTVSPost2010Prop33
280
     0
102
RTVSPost2010PropOp33
 70
     1
102
RTVSPost2010Prop34
280
     0
102
RTVSPost2010PropOp34
 70
     1
102
RTVSPost2010Prop35
280
     0
102
RTVSPost2010PropOp35
 70
     1
102
RTVSPost2010Prop36
280
     0
102
RTVSPost2010PropOp36
 70
     1
102
RTVSPost2010Prop37
 90
       50
102
RTVSPost2010PropOp37
 70
     1
102
RTVSPost2010Prop38
140
0.0
102
RTVSPost2010PropOp38
 70
     1
102
RTVSPost2010Prop39
140
1.0
102
RTVSPost2010PropOp39
 70
     1
102
RTVSPost2010Prop40
 90
        0
102
RTVSPost2010PropOp40
 70
     1
102
RTVSPost2010Prop41ColorIndex
 90
       18
102
RTVSPost2010Prop41ColorRGB
 90
        0
102
RTVSPost2010PropOp41
 70
     1
102
RTVSPost2010Prop42
 90
       50
102
RTVSPost2010PropOp42
 70
     1
102
RTVSPost2010Prop43
 90
        3
102
RTVSPost2010PropOp43
 70
     1
102
RTVSPost2010Prop44ColorIndex
 90
        5
102
RTVSPost2010Prop44ColorRGB
 90
      255
102
RTVSPost2010PropOp44
 70
     1
102
RTVSPost2010Prop45
280
     0
102
RTVSPost2010PropOp45
 70
     1
102
RTVSPost2010Prop46
 90
       50
102
RTVSPost2010PropOp46
 70
     1
102
RTVSPost2010Prop47
 90
       50
102
RTVSPost2010PropOp47
 70
     1
102
RTVSPost2010Prop48
 90
       50
102
RTVSPost2010PropOp48
 70
     1
102
RTVSPost2010Prop49
280
     0
102
RTVSPost2010PropOp49
 70
     1
102
RTVSPost2010Prop50
 90
       50
102
RTVSPost2010PropOp50
 70
     1
102
RTVSPost2010Prop51ColorIndex
 90
      256
102
RTVSPost2010Prop51ColorRGB
 90
-16777216
102
RTVSPost2010PropOp51
 70
     0
102
RTVSPost2010Prop52
140
1.0
102
RTVSPost2010PropOp52
 70
     0
102
RTVSPost2010Prop53
 90
        2
102
RTVSPost2010PropOp53
 70
     1
102
RTVSPost2010Prop54
  1
strokes_ogs.tif
102
RTVSPost2010PropOp54
 70
     1
102
RTVSPost2010Prop55
280
     0
102
RTVSPost2010PropOp55
 70
     1
102
RTVSPost2010Prop56
140
1.0
102
RTVSPost2010PropOp56
 70
     1
102
RTVSPost2010Prop57
140
1.0
102
RTVSPost2010PropOp57
 70
     1
102
RTVSPropertyOp0
 70
     1
102
RTVSPropertyOp1
 70
     1
102
RTVSPropertyOp2
 70
     1
102
RTVSPropertyOp3
 70
     1
102
RTVSPropertyOp4
 70
     1
102
RTVSPropertyOp5
 70
     1
102
RTVSPropertyOp6
 70
     1
102
RTVSPropertyOp7
 70
     1
102
RTVSPropertyOp8
 70
     1
102
RTVSPropertyOp9
 70
     1
102
RTVSPropertyOp10
 70
     1
102
RTVSPropertyOp11
 70
     1
102
RTVSPropertyOp12
 70
     1
102
RTVSPropertyOp13
 70
     1
102
RTVSPropertyOp14
 70
     1
102
RTVSPropertyOp15
 70
     1
102
RTVSPropertyOp16
 70
     1
102
RTVSPropertyOp17
 70
     1
102
RTVSPropertyOp18
 70
     1
102
RTVSPropertyOp19
 70
     1
102
RTVSPropertyOp20
 70
     1
102
RTVSPropertyOp21
 70
     1
102
RTVSPropertyOp22
 70
     1
102
RTVSPropertyOp23
 70
     1
102
RTVSPropertyOp24
 70
     1
102
RTVSPropertyOp25
 70
     1
102
RTVSPropertyOp26
 70
     1
102
RTVSPropertyOp27
 70
     1
102
RTVSPropertyOp28
 70
     1
102
RTVSPropertyOp29
 70
     1
102
RTVSPropertyOp30
 70
     1
102
RTVSPropertyOp31
 70
     1
102
RTVSPropertyOp32
 70
     1
102
RTVSPropertyOp33
 70
     1
102
RTVSPropertyOp34
 70
     1
102
RTVSPropertyOp35
 70
     1
102
RTVSPropertyOp36
 70
     1
102
RTVSPropertyOp37
 70
     1
102
RTVSPropertyOp38
 70
     1
102
RTVSPropertyOp39
 70
     1
102
RTVSPropertyOp40
 70
     1
102
RTVSPropertyOp41
 70
     1
102
RTVSPropertyOp42
 70
     1
102
RTVSPropertyOp43
 70
     1
102
RTVSPropertyOp44
 70
     1
102
RTVSPropertyOp45
 70
     1
102
RTVSPropertyOp46
 70
     1
102
RTVSPropertyOp47
 70
     1
102
RTVSPropertyOp48
 70
     1
102
RTVSPropertyOp49
 70
     1
102
RTVSPropertyOp50
 70
     1
102
RTVSPropertyOp51
 70
     0
102
RTVSPropertyOp52
 70
     0
102
RTVSPropertyOp53
 70
     1
102
RTVSPropertyOp54
 70
     1
102
RTVSPropertyOp55
 70
     1
102
RTVSPropertyOp56
 70
     1
102
RTVSPropertyOp57
 70
     1
102
RTVSPropertyOp58
 70
     1
102
RTVSPropertyOp59
 70
     1
102
RTVSPropertyOp60
 70
     1
102
RTVSPropertyOp61
 70
     1
102
RTVSPropertyOp62
 70
     1
  0
XRECORD
  5
3DA
102
{ACAD_REACTORS
330
3D9
102
}
330
3D9
100
AcDbXrecord
280
     1
102
RTVSPost2010Prop28
280
     0
102
RTVSPost2010PropOp28
 70
     1
102
RTVSPost2010Prop29
280
     1
102
RTVSPost2010PropOp29
 70
     1
102
RTVSPost2010Prop30
280
     1
102
RTVSPost2010PropOp30
 70
     1
102
RTVSPost2010Prop31
280
     0
102
RTVSPost2010PropOp31
 70
     1
102
RTVSPost2010Prop32
280
     0
102
RTVSPost2010PropOp32
 70
     1
102
RTVSPost2010Prop33
280
     0
102
RTVSPost2010PropOp33
 70
     1
102
RTVSPost2010Prop34
280
     0
102
RTVSPost2010PropOp34
 70
     1
102
RTVSPost2010Prop35
280
     0
102
RTVSPost2010PropOp35
 70
     1
102
RTVSPost2010Prop36
280
     0
102
RTVSPost2010PropOp36
 70
     1
102
RTVSPost2010Prop37
 90
       50
102
RTVSPost2010PropOp37
 70
     1
102
RTVSPost2010Prop38
140
0.0
102
RTVSPost2010PropOp38
 70
     1
102
RTVSPost2010Prop39
140
1.0
102
RTVSPost2010PropOp39
 70
     1
102
RTVSPost2010Prop40
 90
        0
102
RTVSPost2010PropOp40
 70
     1
102
RTVSPost2010Prop41ColorIndex
 90
       18
102
RTVSPost2010Prop41ColorRGB
 90
        0
102
RTVSPost2010PropOp41
 70
     1
102
RTVSPost2010Prop42
 90
       50
102
RTVSPost2010PropOp42
 70
     1
102
RTVSPost2010Prop43
 90
        3
102
RTVSPost2010PropOp43
 70
     1
102
RTVSPost2010Prop44ColorIndex
 90
        5
102
RTVSPost2010Prop44ColorRGB
 90
      255
102
RTVSPost2010PropOp44
 70
     1
102
RTVSPost2010Prop45
280
     0
102
RTVSPost2010PropOp45
 70
     1
102
RTVSPost2010Prop46
 90
       50
102
RTVSPost2010PropOp46
 70
     1
102
RTVSPost2010Prop47
 90
       50
102
RTVSPost2010PropOp47
 70
     1
102
RTVSPost2010Prop48
 90
       50
102
RTVSPost2010PropOp48
 70
     1
102
RTVSPost2010Prop49
280
     0
102
RTVSPost2010PropOp49
 70
     1
102
RTVSPost2010Prop50
 90
       50
102
RTVSPost2010PropOp50
 70
     1
102
RTVSPost2010Prop51ColorIndex
 90
      256
102
RTVSPost2010Prop51ColorRGB
 90
-16777216
102
RTVSPost2010PropOp51
 70
     0
102
RTVSPost2010Prop52
140
1.0
102
RTVSPost2010PropOp52
 70
     0
102
RTVSPost2010Prop53
 90
        2
102
RTVSPost2010PropOp53
 70
     1
102
RTVSPost2010Prop54
  1
strokes_ogs.tif
102
RTVSPost2010PropOp54
 70
     1
102
RTVSPost2010Prop55
280
     0
102
RTVSPost2010PropOp55
 70
     1
102
RTVSPost2010Prop56
140
1.0
102
RTVSPost2010PropOp56
 70
     1
102
RTVSPost2010Prop57
140
1.0
102
RTVSPost2010PropOp57
 70
     1
102
RTVSPropertyOp0
 70
     1
102
RTVSPropertyOp1
 70
     1
102
RTVSPropertyOp2
 70
     1
102
RTVSPropertyOp3
 70
     1
102
RTVSPropertyOp4
 70
     1
102
RTVSPropertyOp5
 70
     1
102
RTVSPropertyOp6
 70
     1
102
RTVSPropertyOp7
 70
     1
102
RTVSPropertyOp8
 70
     1
102
RTVSPropertyOp9
 70
     1
102
RTVSPropertyOp10
 70
     1
102
RTVSPropertyOp11
 70
     1
102
RTVSPropertyOp12
 70
     1
102
RTVSPropertyOp13
 70
     1
102
RTVSPropertyOp14
 70
     1
102
RTVSPropertyOp15
 70
     1
102
RTVSPropertyOp16
 70
     1
102
RTVSPropertyOp17
 70
     1
102
RTVSPropertyOp18
 70
     1
102
RTVSPropertyOp19
 70
     1
102
RTVSPropertyOp20
 70
     1
102
RTVSPropertyOp21
 70
     1
102
RTVSPropertyOp22
 70
     1
102
RTVSPropertyOp23
 70
     1
102
RTVSPropertyOp24
 70
     1
102
RTVSPropertyOp25
 70
     1
102
RTVSPropertyOp26
 70
     1
102
RTVSPropertyOp27
 70
     1
102
RTVSPropertyOp28
 70
     1
102
RTVSPropertyOp29
 70
     1
102
RTVSPropertyOp30
 70
     1
102
RTVSPropertyOp31
 70
     1
102
RTVSPropertyOp32
 70
     1
102
RTVSPropertyOp33
 70
     1
102
RTVSPropertyOp34
 70
     1
102
RTVSPropertyOp35
 70
     1
102
RTVSPropertyOp36
 70
     1
102
RTVSPropertyOp37
 70
     1
102
RTVSPropertyOp38
 70
     1
102
RTVSPropertyOp39
 70
     1
102
RTVSPropertyOp40
 70
     1
102
RTVSPropertyOp41
 70
     1
102
RTVSPropertyOp42
 70
     1
102
RTVSPropertyOp43
 70
     1
102
RTVSPropertyOp44
 70
     1
102
RTVSPropertyOp45
 70
     1
102
RTVSPropertyOp46
 70
     1
102
RTVSPropertyOp47
 70
     1
102
RTVSPropertyOp48
 70
     1
102
RTVSPropertyOp49
 70
     1
102
RTVSPropertyOp50
 70
     1
102
RTVSPropertyOp51
 70
     0
102
RTVSPropertyOp52
 70
     0
102
RTVSPropertyOp53
 70
     1
102
RTVSPropertyOp54
 70
     1
102
RTVSPropertyOp55
 70
     1
102
RTVSPropertyOp56
 70
     1
102
RTVSPropertyOp57
 70
     1
102
RTVSPropertyOp58
 70
     1
102
RTVSPropertyOp59
 70
     1
102
RTVSPropertyOp60
 70
     1
102
RTVSPropertyOp61
 70
     1
102
RTVSPropertyOp62
 70
     1
  0
XRECORD
  5
3E2
102
{ACAD_REACTORS
330
3E1
102
}
330
3E1
100
AcDbXrecord
280
     1
102
RTVSPost2010Prop28
280
     0
102
RTVSPost2010PropOp28
 70
     1
102
RTVSPost2010Prop29
280
     1
102
RTVSPost2010PropOp29
 70
     1
102
RTVSPost2010Prop30
280
     1
102
RTVSPost2010PropOp30
 70
     1
102
RTVSPost2010Prop31
280
     0
102
RTVSPost2010PropOp31
 70
     1
102
RTVSPost2010Prop32
280
     0
102
RTVSPost2010PropOp32
 70
     1
102
RTVSPost2010Prop33
280
     0
102
RTVSPost2010PropOp33
 70
     1
102
RTVSPost2010Prop34
280
     0
102
RTVSPost2010PropOp34
 70
     1
102
RTVSPost2010Prop35
280
     0
102
RTVSPost2010PropOp35
 70
     1
102
RTVSPost2010Prop36
280
     0
102
RTVSPost2010PropOp36
 70
     1
102
RTVSPost2010Prop37
 90
       50
102
RTVSPost2010PropOp37
 70
     1
102
RTVSPost2010Prop38
140
0.0
102
RTVSPost2010PropOp38
 70
     1
102
RTVSPost2010Prop39
140
1.0
102
RTVSPost2010PropOp39
 70
     1
102
RTVSPost2010Prop40
 90
        0
102
RTVSPost2010PropOp40
 70
     1
102
RTVSPost2010Prop41ColorIndex
 90
       18
102
RTVSPost2010Prop41ColorRGB
 90
        0
102
RTVSPost2010PropOp41
 70
     1
102
RTVSPost2010Prop42
 90
       50
102
RTVSPost2010PropOp42
 70
     1
102
RTVSPost2010Prop43
 90
        3
102
RTVSPost2010PropOp43
 70
     1
102
RTVSPost2010Prop44ColorIndex
 90
        5
102
RTVSPost2010Prop44ColorRGB
 90
      255
102
RTVSPost2010PropOp44
 70
     1
102
RTVSPost2010Prop45
280
     0
102
RTVSPost2010PropOp45
 70
     1
102
RTVSPost2010Prop46
 90
       50
102
RTVSPost2010PropOp46
 70
     1
102
RTVSPost2010Prop47
 90
       50
102
RTVSPost2010PropOp47
 70
     1
102
RTVSPost2010Prop48
 90
       50
102
RTVSPost2010PropOp48
 70
     1
102
RTVSPost2010Prop49
280
     0
102
RTVSPost2010PropOp49
 70
     1
102
RTVSPost2010Prop50
 90
       50
102
RTVSPost2010PropOp50
 70
     1
102
RTVSPost2010Prop51ColorIndex
 90
      256
102
RTVSPost2010Prop51ColorRGB
 90
-16777216
102
RTVSPost2010PropOp51
 70
     0
102
RTVSPost2010Prop52
140
1.0
102
RTVSPost2010PropOp52
 70
     0
102
RTVSPost2010Prop53
 90
        2
102
RTVSPost2010PropOp53
 70
     1
102
RTVSPost2010Prop54
  1
strokes_ogs.tif
102
RTVSPost2010PropOp54
 70
     1
102
RTVSPost2010Prop55
280
     0
102
RTVSPost2010PropOp55
 70
     1
102
RTVSPost2010Prop56
140
1.0
102
RTVSPost2010PropOp56
 70
     1
102
RTVSPost2010Prop57
140
1.0
102
RTVSPost2010PropOp57
 70
     1
102
RTVSPropertyOp0
 70
     1
102
RTVSPropertyOp1
 70
     1
102
RTVSPropertyOp2
 70
     1
102
RTVSPropertyOp3
 70
     1
102
RTVSPropertyOp4
 70
     1
102
RTVSPropertyOp5
 70
     1
102
RTVSPropertyOp6
 70
     1
102
RTVSPropertyOp7
 70
     1
102
RTVSPropertyOp8
 70
     1
102
RTVSPropertyOp9
 70
     1
102
RTVSPropertyOp10
 70
     1
102
RTVSPropertyOp11
 70
     1
102
RTVSPropertyOp12
 70
     1
102
RTVSPropertyOp13
 70
     1
102
RTVSPropertyOp14
 70
     1
102
RTVSPropertyOp15
 70
     1
102
RTVSPropertyOp16
 70
     1
102
RTVSPropertyOp17
 70
     1
102
RTVSPropertyOp18
 70
     1
102
RTVSPropertyOp19
 70
     1
102
RTVSPropertyOp20
 70
     1
102
RTVSPropertyOp21
 70
     1
102
RTVSPropertyOp22
 70
     1
102
RTVSPropertyOp23
 70
     1
102
RTVSPropertyOp24
 70
     1
102
RTVSPropertyOp25
 70
     1
102
RTVSPropertyOp26
 70
     1
102
RTVSPropertyOp27
 70
     1
102
RTVSPropertyOp28
 70
     1
102
RTVSPropertyOp29
 70
     1
102
RTVSPropertyOp30
 70
     1
102
RTVSPropertyOp31
 70
     1
102
RTVSPropertyOp32
 70
     1
102
RTVSPropertyOp33
 70
     1
102
RTVSPropertyOp34
 70
     1
102
RTVSPropertyOp35
 70
     1
102
RTVSPropertyOp36
 70
     1
102
RTVSPropertyOp37
 70
     1
102
RTVSPropertyOp38
 70
     1
102
RTVSPropertyOp39
 70
     1
102
RTVSPropertyOp40
 70
     1
102
RTVSPropertyOp41
 70
     1
102
RTVSPropertyOp42
 70
     1
102
RTVSPropertyOp43
 70
     1
102
RTVSPropertyOp44
 70
     1
102
RTVSPropertyOp45
 70
     1
102
RTVSPropertyOp46
 70
     1
102
RTVSPropertyOp47
 70
     1
102
RTVSPropertyOp48
 70
     1
102
RTVSPropertyOp49
 70
     1
102
RTVSPropertyOp50
 70
     1
102
RTVSPropertyOp51
 70
     0
102
RTVSPropertyOp52
 70
     0
102
RTVSPropertyOp53
 70
     1
102
RTVSPropertyOp54
 70
     1
102
RTVSPropertyOp55
 70
     1
102
RTVSPropertyOp56
 70
     1
102
RTVSPropertyOp57
 70
     1
102
RTVSPropertyOp58
 70
     1
102
RTVSPropertyOp59
 70
     1
102
RTVSPropertyOp60
 70
     1
102
RTVSPropertyOp61
 70
     1
102
RTVSPropertyOp62
 70
     1
  0
XRECORD
  5
3D6
102
{ACAD_REACTORS
330
3D5
102
}
330
3D5
100
AcDbXrecord
280
     1
102
RTVSPost2010Prop28
280
     0
102
RTVSPost2010PropOp28
 70
     1
102
RTVSPost2010Prop29
280
     1
102
RTVSPost2010PropOp29
 70
     1
102
RTVSPost2010Prop30
280
     1
102
RTVSPost2010PropOp30
 70
     1
102
RTVSPost2010Prop31
280
     0
102
RTVSPost2010PropOp31
 70
     1
102
RTVSPost2010Prop32
280
     0
102
RTVSPost2010PropOp32
 70
     1
102
RTVSPost2010Prop33
280
     0
102
RTVSPost2010PropOp33
 70
     1
102
RTVSPost2010Prop34
280
     0
102
RTVSPost2010PropOp34
 70
     1
102
RTVSPost2010Prop35
280
     0
102
RTVSPost2010PropOp35
 70
     1
102
RTVSPost2010Prop36
280
     0
102
RTVSPost2010PropOp36
 70
     1
102
RTVSPost2010Prop37
 90
       50
102
RTVSPost2010PropOp37
 70
     1
102
RTVSPost2010Prop38
140
0.0
102
RTVSPost2010PropOp38
 70
     1
102
RTVSPost2010Prop39
140
1.0
102
RTVSPost2010PropOp39
 70
     1
102
RTVSPost2010Prop40
 90
        0
102
RTVSPost2010PropOp40
 70
     1
102
RTVSPost2010Prop41ColorIndex
 90
       18
102
RTVSPost2010Prop41ColorRGB
 90
        0
102
RTVSPost2010PropOp41
 70
     1
102
RTVSPost2010Prop42
 90
       50
102
RTVSPost2010PropOp42
 70
     1
102
RTVSPost2010Prop43
 90
        3
102
RTVSPost2010PropOp43
 70
     1
102
RTVSPost2010Prop44ColorIndex
 90
        5
102
RTVSPost2010Prop44ColorRGB
 90
      255
102
RTVSPost2010PropOp44
 70
     1
102
RTVSPost2010Prop45
280
     0
102
RTVSPost2010PropOp45
 70
     1
102
RTVSPost2010Prop46
 90
       50
102
RTVSPost2010PropOp46
 70
     1
102
RTVSPost2010Prop47
 90
       50
102
RTVSPost2010PropOp47
 70
     1
102
RTVSPost2010Prop48
 90
       50
102
RTVSPost2010PropOp48
 70
     1
102
RTVSPost2010Prop49
280
     0
102
RTVSPost2010PropOp49
 70
     1
102
RTVSPost2010Prop50
 90
       50
102
RTVSPost2010PropOp50
 70
     1
102
RTVSPost2010Prop51ColorIndex
 90
      256
102
RTVSPost2010Prop51ColorRGB
 90
-16777216
102
RTVSPost2010PropOp51
 70
     0
102
RTVSPost2010Prop52
140
1.0
102
RTVSPost2010PropOp52
 70
     0
102
RTVSPost2010Prop53
 90
        2
102
RTVSPost2010PropOp53
 70
     1
102
RTVSPost2010Prop54
  1
strokes_ogs.tif
102
RTVSPost2010PropOp54
 70
     1
102
RTVSPost2010Prop55
280
     0
102
RTVSPost2010PropOp55
 70
     1
102
RTVSPost2010Prop56
140
1.0
102
RTVSPost2010PropOp56
 70
     1
102
RTVSPost2010Prop57
140
1.0
102
RTVSPost2010PropOp57
 70
     1
102
RTVSPropertyOp0
 70
     1
102
RTVSPropertyOp1
 70
     1
102
RTVSPropertyOp2
 70
     1
102
RTVSPropertyOp3
 70
     1
102
RTVSPropertyOp4
 70
     1
102
RTVSPropertyOp5
 70
     1
102
RTVSPropertyOp6
 70
     1
102
RTVSPropertyOp7
 70
     1
102
RTVSPropertyOp8
 70
     1
102
RTVSPropertyOp9
 70
     1
102
RTVSPropertyOp10
 70
     1
102
RTVSPropertyOp11
 70
     1
102
RTVSPropertyOp12
 70
     1
102
RTVSPropertyOp13
 70
     1
102
RTVSPropertyOp14
 70
     1
102
RTVSPropertyOp15
 70
     1
102
RTVSPropertyOp16
 70
     1
102
RTVSPropertyOp17
 70
     1
102
RTVSPropertyOp18
 70
     1
102
RTVSPropertyOp19
 70
     1
102
RTVSPropertyOp20
 70
     1
102
RTVSPropertyOp21
 70
     1
102
RTVSPropertyOp22
 70
     1
102
RTVSPropertyOp23
 70
     1
102
RTVSPropertyOp24
 70
     1
102
RTVSPropertyOp25
 70
     1
102
RTVSPropertyOp26
 70
     1
102
RTVSPropertyOp27
 70
     1
102
RTVSPropertyOp28
 70
     1
102
RTVSPropertyOp29
 70
     1
102
RTVSPropertyOp30
 70
     1
102
RTVSPropertyOp31
 70
     1
102
RTVSPropertyOp32
 70
     1
102
RTVSPropertyOp33
 70
     1
102
RTVSPropertyOp34
 70
     1
102
RTVSPropertyOp35
 70
     1
102
RTVSPropertyOp36
 70
     1
102
RTVSPropertyOp37
 70
     1
102
RTVSPropertyOp38
 70
     1
102
RTVSPropertyOp39
 70
     1
102
RTVSPropertyOp40
 70
     1
102
RTVSPropertyOp41
 70
     1
102
RTVSPropertyOp42
 70
     1
102
RTVSPropertyOp43
 70
     1
102
RTVSPropertyOp44
 70
     1
102
RTVSPropertyOp45
 70
     1
102
RTVSPropertyOp46
 70
     1
102
RTVSPropertyOp47
 70
     1
102
RTVSPropertyOp48
 70
     1
102
RTVSPropertyOp49
 70
     1
102
RTVSPropertyOp50
 70
     1
102
RTVSPropertyOp51
 70
     0
102
RTVSPropertyOp52
 70
     0
102
RTVSPropertyOp53
 70
     1
102
RTVSPropertyOp54
 70
     1
102
RTVSPropertyOp55
 70
     1
102
RTVSPropertyOp56
 70
     1
102
RTVSPropertyOp57
 70
     1
102
RTVSPropertyOp58
 70
     1
102
RTVSPropertyOp59
 70
     1
102
RTVSPropertyOp60
 70
     1
102
RTVSPropertyOp61
 70
     1
102
RTVSPropertyOp62
 70
     1
  0
XRECORD
  5
3D8
102
{ACAD_REACTORS
330
3D7
102
}
330
3D7
100
AcDbXrecord
280
     1
102
RTVSPost2010Prop28
280
     0
102
RTVSPost2010PropOp28
 70
     1
102
RTVSPost2010Prop29
280
     1
102
RTVSPost2010PropOp29
 70
     1
102
RTVSPost2010Prop30
280
     1
102
RTVSPost2010PropOp30
 70
     1
102
RTVSPost2010Prop31
280
     0
102
RTVSPost2010PropOp31
 70
     1
102
RTVSPost2010Prop32
280
     0
102
RTVSPost2010PropOp32
 70
     1
102
RTVSPost2010Prop33
280
     0
102
RTVSPost2010PropOp33
 70
     1
102
RTVSPost2010Prop34
280
     0
102
RTVSPost2010PropOp34
 70
     1
102
RTVSPost2010Prop35
280
     0
102
RTVSPost2010PropOp35
 70
     1
102
RTVSPost2010Prop36
280
     0
102
RTVSPost2010PropOp36
 70
     1
102
RTVSPost2010Prop37
 90
       50
102
RTVSPost2010PropOp37
 70
     1
102
RTVSPost2010Prop38
140
0.0
102
RTVSPost2010PropOp38
 70
     1
102
RTVSPost2010Prop39
140
1.0
102
RTVSPost2010PropOp39
 70
     1
102
RTVSPost2010Prop40
 90
        0
102
RTVSPost2010PropOp40
 70
     1
102
RTVSPost2010Prop41ColorIndex
 90
       18
102
RTVSPost2010Prop41ColorRGB
 90
        0
102
RTVSPost2010PropOp41
 70
     1
102
RTVSPost2010Prop42
 90
       50
102
RTVSPost2010PropOp42
 70
     1
102
RTVSPost2010Prop43
 90
        3
102
RTVSPost2010PropOp43
 70
     1
102
RTVSPost2010Prop44ColorIndex
 90
        5
102
RTVSPost2010Prop44ColorRGB
 90
      255
102
RTVSPost2010PropOp44
 70
     1
102
RTVSPost2010Prop45
280
     0
102
RTVSPost2010PropOp45
 70
     1
102
RTVSPost2010Prop46
 90
       50
102
RTVSPost2010PropOp46
 70
     1
102
RTVSPost2010Prop47
 90
       50
102
RTVSPost2010PropOp47
 70
     1
102
RTVSPost2010Prop48
 90
       50
102
RTVSPost2010PropOp48
 70
     1
102
RTVSPost2010Prop49
280
     0
102
RTVSPost2010PropOp49
 70
     1
102
RTVSPost2010Prop50
 90
       50
102
RTVSPost2010PropOp50
 70
     1
102
RTVSPost2010Prop51ColorIndex
 90
      256
102
RTVSPost2010Prop51ColorRGB
 90
-16777216
102
RTVSPost2010PropOp51
 70
     0
102
RTVSPost2010Prop52
140
1.0
102
RTVSPost2010PropOp52
 70
     0
102
RTVSPost2010Prop53
 90
        2
102
RTVSPost2010PropOp53
 70
     1
102
RTVSPost2010Prop54
  1
strokes_ogs.tif
102
RTVSPost2010PropOp54
 70
     1
102
RTVSPost2010Prop55
280
     0
102
RTVSPost2010PropOp55
 70
     1
102
RTVSPost2010Prop56
140
1.0
102
RTVSPost2010PropOp56
 70
     1
102
RTVSPost2010Prop57
140
1.0
102
RTVSPost2010PropOp57
 70
     1
102
RTVSPropertyOp0
 70
     1
102
RTVSPropertyOp1
 70
     1
102
RTVSPropertyOp2
 70
     1
102
RTVSPropertyOp3
 70
     1
102
RTVSPropertyOp4
 70
     1
102
RTVSPropertyOp5
 70
     1
102
RTVSPropertyOp6
 70
     1
102
RTVSPropertyOp7
 70
     1
102
RTVSPropertyOp8
 70
     1
102
RTVSPropertyOp9
 70
     1
102
RTVSPropertyOp10
 70
     1
102
RTVSPropertyOp11
 70
     1
102
RTVSPropertyOp12
 70
     1
102
RTVSPropertyOp13
 70
     1
102
RTVSPropertyOp14
 70
     1
102
RTVSPropertyOp15
 70
     1
102
RTVSPropertyOp16
 70
     1
102
RTVSPropertyOp17
 70
     1
102
RTVSPropertyOp18
 70
     1
102
RTVSPropertyOp19
 70
     1
102
RTVSPropertyOp20
 70
     1
102
RTVSPropertyOp21
 70
     1
102
RTVSPropertyOp22
 70
     1
102
RTVSPropertyOp23
 70
     1
102
RTVSPropertyOp24
 70
     1
102
RTVSPropertyOp25
 70
     1
102
RTVSPropertyOp26
 70
     1
102
RTVSPropertyOp27
 70
     1
102
RTVSPropertyOp28
 70
     1
102
RTVSPropertyOp29
 70
     1
102
RTVSPropertyOp30
 70
     1
102
RTVSPropertyOp31
 70
     1
102
RTVSPropertyOp32
 70
     1
102
RTVSPropertyOp33
 70
     1
102
RTVSPropertyOp34
 70
     1
102
RTVSPropertyOp35
 70
     1
102
RTVSPropertyOp36
 70
     1
102
RTVSPropertyOp37
 70
     1
102
RTVSPropertyOp38
 70
     1
102
RTVSPropertyOp39
 70
     1
102
RTVSPropertyOp40
 70
     1
102
RTVSPropertyOp41
 70
     1
102
RTVSPropertyOp42
 70
     1
102
RTVSPropertyOp43
 70
     1
102
RTVSPropertyOp44
 70
     1
102
RTVSPropertyOp45
 70
     1
102
RTVSPropertyOp46
 70
     1
102
RTVSPropertyOp47
 70
     1
102
RTVSPropertyOp48
 70
     1
102
RTVSPropertyOp49
 70
     1
102
RTVSPropertyOp50
 70
     1
102
RTVSPropertyOp51
 70
     0
102
RTVSPropertyOp52
 70
     0
102
RTVSPropertyOp53
 70
     1
102
RTVSPropertyOp54
 70
     1
102
RTVSPropertyOp55
 70
     1
102
RTVSPropertyOp56
 70
     1
102
RTVSPropertyOp57
 70
     1
102
RTVSPropertyOp58
 70
     1
102
RTVSPropertyOp59
 70
     1
102
RTVSPropertyOp60
 70
     1
102
RTVSPropertyOp61
 70
     1
102
RTVSPropertyOp62
 70
     1
  0
XRECORD
  5
3E8
102
{ACAD_REACTORS
330
3E7
102
}
330
3E7
100
AcDbXrecord
280
     1
102
RTVSPost2010Prop28
280
     0
102
RTVSPost2010PropOp28
 70
     0
102
RTVSPost2010Prop29
280
     1
102
RTVSPost2010PropOp29
 70
     0
102
RTVSPost2010Prop30
280
     1
102
RTVSPost2010PropOp30
 70
     0
102
RTVSPost2010Prop31
280
     0
102
RTVSPost2010PropOp31
 70
     0
102
RTVSPost2010Prop32
280
     0
102
RTVSPost2010PropOp32
 70
     0
102
RTVSPost2010Prop33
280
     0
102
RTVSPost2010PropOp33
 70
     0
102
RTVSPost2010Prop34
280
     0
102
RTVSPost2010PropOp34
 70
     0
102
RTVSPost2010Prop35
280
     0
102
RTVSPost2010PropOp35
 70
     0
102
RTVSPost2010Prop36
280
     0
102
RTVSPost2010PropOp36
 70
     0
102
RTVSPost2010Prop37
 90
       50
102
RTVSPost2010PropOp37
 70
     0
102
RTVSPost2010Prop38
140
0.0
102
RTVSPost2010PropOp38
 70
     0
102
RTVSPost2010Prop39
140
1.0
102
RTVSPost2010PropOp39
 70
     0
102
RTVSPost2010Prop40
 90
        0
102
RTVSPost2010PropOp40
 70
     0
102
RTVSPost2010Prop41ColorIndex
 90
       18
102
RTVSPost2010Prop41ColorRGB
 90
        0
102
RTVSPost2010PropOp41
 70
     0
102
RTVSPost2010Prop42
 90
       50
102
RTVSPost2010PropOp42
 70
     0
102
RTVSPost2010Prop43
 90
        3
102
RTVSPost2010PropOp43
 70
     0
102
RTVSPost2010Prop44ColorIndex
 90
        5
102
RTVSPost2010Prop44ColorRGB
 90
      255
102
RTVSPost2010PropOp44
 70
     0
102
RTVSPost2010Prop45
280
     0
102
RTVSPost2010PropOp45
 70
     0
102
RTVSPost2010Prop46
 90
       50
102
RTVSPost2010PropOp46
 70
     0
102
RTVSPost2010Prop47
 90
       50
102
RTVSPost2010PropOp47
 70
     0
102
RTVSPost2010Prop48
 90
       50
102
RTVSPost2010PropOp48
 70
     0
102
RTVSPost2010Prop49
280
     0
102
RTVSPost2010PropOp49
 70
     0
102
RTVSPost2010Prop50
 90
       50
102
RTVSPost2010PropOp50
 70
     0
102
RTVSPost2010Prop51ColorIndex
 90
      256
102
RTVSPost2010Prop51ColorRGB
 90
-16777216
102
RTVSPost2010PropOp51
 70
     0
102
RTVSPost2010Prop52
140
1.0
102
RTVSPost2010PropOp52
 70
     0
102
RTVSPost2010Prop53
 90
        2
102
RTVSPost2010PropOp53
 70
     0
102
RTVSPost2010Prop54
  1
strokes_ogs.tif
102
RTVSPost2010PropOp54
 70
     0
102
RTVSPost2010Prop55
280
     0
102
RTVSPost2010PropOp55
 70
     0
102
RTVSPost2010Prop56
140
1.0
102
RTVSPost2010PropOp56
 70
     0
102
RTVSPost2010Prop57
140
1.0
102
RTVSPost2010PropOp57
 70
     0
102
RTVSPropertyOp0
 70
     0
102
RTVSPropertyOp1
 70
     0
102
RTVSPropertyOp2
 70
     0
102
RTVSPropertyOp3
 70
     0
102
RTVSPropertyOp4
 70
     0
102
RTVSPropertyOp5
 70
     0
102
RTVSPropertyOp6
 70
     0
102
RTVSPropertyOp7
 70
     0
102
RTVSPropertyOp8
 70
     0
102
RTVSPropertyOp9
 70
     0
102
RTVSPropertyOp10
 70
     0
102
RTVSPropertyOp11
 70
     0
102
RTVSPropertyOp12
 70
     0
102
RTVSPropertyOp13
 70
     0
102
RTVSPropertyOp14
 70
     2
102
RTVSPropertyOp15
 70
     0
102
RTVSPropertyOp16
 70
     0
102
RTVSPropertyOp17
 70
     0
102
RTVSPropertyOp18
 70
     0
102
RTVSPropertyOp19
 70
     0
102
RTVSPropertyOp20
 70
     0
102
RTVSPropertyOp21
 70
     0
102
RTVSPropertyOp22
 70
     0
102
RTVSPropertyOp23
 70
     0
102
RTVSPropertyOp24
 70
     0
102
RTVSPropertyOp25
 70
     0
102
RTVSPropertyOp26
 70
     0
102
RTVSPropertyOp27
 70
     0
102
RTVSPropertyOp28
 70
     0
102
RTVSPropertyOp29
 70
     0
102
RTVSPropertyOp30
 70
     0
102
RTVSPropertyOp31
 70
     0
102
RTVSPropertyOp32
 70
     0
102
RTVSPropertyOp33
 70
     0
102
RTVSPropertyOp34
 70
     0
102
RTVSPropertyOp35
 70
     0
102
RTVSPropertyOp36
 70
     0
102
RTVSPropertyOp37
 70
     0
102
RTVSPropertyOp38
 70
     0
102
RTVSPropertyOp39
 70
     0
102
RTVSPropertyOp40
 70
     0
102
RTVSPropertyOp41
 70
     0
102
RTVSPropertyOp42
 70
     0
102
RTVSPropertyOp43
 70
     0
102
RTVSPropertyOp44
 70
     0
102
RTVSPropertyOp45
 70
     0
102
RTVSPropertyOp46
 70
     0
102
RTVSPropertyOp47
 70
     0
102
RTVSPropertyOp48
 70
     0
102
RTVSPropertyOp49
 70
     0
102
RTVSPropertyOp50
 70
     0
102
RTVSPropertyOp51
 70
     0
102
RTVSPropertyOp52
 70
     0
102
RTVSPropertyOp53
 70
     0
102
RTVSPropertyOp54
 70
     0
102
RTVSPropertyOp55
 70
     0
102
RTVSPropertyOp56
 70
     0
102
RTVSPropertyOp57
 70
     0
102
RTVSPropertyOp58
 70
     1
102
RTVSPropertyOp59
 70
     1
102
RTVSPropertyOp60
 70
     1
102
RTVSPropertyOp61
 70
     1
102
RTVSPropertyOp62
 70
     1
  0
XRECORD
  5
3E0
102
{ACAD_REACTORS
330
3DF
102
}
330
3DF
100
AcDbXrecord
280
     1
102
RTVSPost2010Prop28
280
     0
102
RTVSPost2010PropOp28
 70
     1
102
RTVSPost2010Prop29
280
     1
102
RTVSPost2010PropOp29
 70
     1
102
RTVSPost2010Prop30
280
     1
102
RTVSPost2010PropOp30
 70
     1
102
RTVSPost2010Prop31
280
     0
102
RTVSPost2010PropOp31
 70
     1
102
RTVSPost2010Prop32
280
     0
102
RTVSPost2010PropOp32
 70
     1
102
RTVSPost2010Prop33
280
     0
102
RTVSPost2010PropOp33
 70
     1
102
RTVSPost2010Prop34
280
     0
102
RTVSPost2010PropOp34
 70
     1
102
RTVSPost2010Prop35
280
     0
102
RTVSPost2010PropOp35
 70
     1
102
RTVSPost2010Prop36
280
     0
102
RTVSPost2010PropOp36
 70
     1
102
RTVSPost2010Prop37
 90
       50
102
RTVSPost2010PropOp37
 70
     1
102
RTVSPost2010Prop38
140
0.0
102
RTVSPost2010PropOp38
 70
     1
102
RTVSPost2010Prop39
140
1.0
102
RTVSPost2010PropOp39
 70
     1
102
RTVSPost2010Prop40
 90
        0
102
RTVSPost2010PropOp40
 70
     1
102
RTVSPost2010Prop41ColorIndex
 90
       18
102
RTVSPost2010Prop41ColorRGB
 90
        0
102
RTVSPost2010PropOp41
 70
     1
102
RTVSPost2010Prop42
 90
       50
102
RTVSPost2010PropOp42
 70
     1
102
RTVSPost2010Prop43
 90
        3
102
RTVSPost2010PropOp43
 70
     1
102
RTVSPost2010Prop44ColorIndex
 90
        5
102
RTVSPost2010Prop44ColorRGB
 90
      255
102
RTVSPost2010PropOp44
 70
     1
102
RTVSPost2010Prop45
280
     0
102
RTVSPost2010PropOp45
 70
     1
102
RTVSPost2010Prop46
 90
       50
102
RTVSPost2010PropOp46
 70
     1
102
RTVSPost2010Prop47
 90
       50
102
RTVSPost2010PropOp47
 70
     1
102
RTVSPost2010Prop48
 90
       50
102
RTVSPost2010PropOp48
 70
     1
102
RTVSPost2010Prop49
280
     0
102
RTVSPost2010PropOp49
 70
     1
102
RTVSPost2010Prop50
 90
       50
102
RTVSPost2010PropOp50
 70
     1
102
RTVSPost2010Prop51ColorIndex
 90
      256
102
RTVSPost2010Prop51ColorRGB
 90
-16777216
102
RTVSPost2010PropOp51
 70
     0
102
RTVSPost2010Prop52
140
1.0
102
RTVSPost2010PropOp52
 70
     0
102
RTVSPost2010Prop53
 90
        2
102
RTVSPost2010PropOp53
 70
     1
102
RTVSPost2010Prop54
  1
strokes_ogs.tif
102
RTVSPost2010PropOp54
 70
     1
102
RTVSPost2010Prop55
280
     0
102
RTVSPost2010PropOp55
 70
     1
102
RTVSPost2010Prop56
140
1.0
102
RTVSPost2010PropOp56
 70
     1
102
RTVSPost2010Prop57
140
1.0
102
RTVSPost2010PropOp57
 70
     1
102
RTVSPropertyOp0
 70
     1
102
RTVSPropertyOp1
 70
     1
102
RTVSPropertyOp2
 70
     1
102
RTVSPropertyOp3
 70
     1
102
RTVSPropertyOp4
 70
     1
102
RTVSPropertyOp5
 70
     1
102
RTVSPropertyOp6
 70
     1
102
RTVSPropertyOp7
 70
     1
102
RTVSPropertyOp8
 70
     1
102
RTVSPropertyOp9
 70
     1
102
RTVSPropertyOp10
 70
     1
102
RTVSPropertyOp11
 70
     1
102
RTVSPropertyOp12
 70
     1
102
RTVSPropertyOp13
 70
     1
102
RTVSPropertyOp14
 70
     1
102
RTVSPropertyOp15
 70
     1
102
RTVSPropertyOp16
 70
     1
102
RTVSPropertyOp17
 70
     1
102
RTVSPropertyOp18
 70
     1
102
RTVSPropertyOp19
 70
     1
102
RTVSPropertyOp20
 70
     1
102
RTVSPropertyOp21
 70
     1
102
RTVSPropertyOp22
 70
     1
102
RTVSPropertyOp23
 70
     1
102
RTVSPropertyOp24
 70
     1
102
RTVSPropertyOp25
 70
     1
102
RTVSPropertyOp26
 70
     1
102
RTVSPropertyOp27
 70
     1
102
RTVSPropertyOp28
 70
     1
102
RTVSPropertyOp29
 70
     1
102
RTVSPropertyOp30
 70
     1
102
RTVSPropertyOp31
 70
     1
102
RTVSPropertyOp32
 70
     1
102
RTVSPropertyOp33
 70
     1
102
RTVSPropertyOp34
 70
     1
102
RTVSPropertyOp35
 70
     1
102
RTVSPropertyOp36
 70
     1
102
RTVSPropertyOp37
 70
     1
102
RTVSPropertyOp38
 70
     1
102
RTVSPropertyOp39
 70
     1
102
RTVSPropertyOp40
 70
     1
102
RTVSPropertyOp41
 70
     1
102
RTVSPropertyOp42
 70
     1
102
RTVSPropertyOp43
 70
     1
102
RTVSPropertyOp44
 70
     1
102
RTVSPropertyOp45
 70
     1
102
RTVSPropertyOp46
 70
     1
102
RTVSPropertyOp47
 70
     1
102
RTVSPropertyOp48
 70
     1
102
RTVSPropertyOp49
 70
     1
102
RTVSPropertyOp50
 70
     1
102
RTVSPropertyOp51
 70
     0
102
RTVSPropertyOp52
 70
     0
102
RTVSPropertyOp53
 70
     1
102
RTVSPropertyOp54
 70
     1
102
RTVSPropertyOp55
 70
     1
102
RTVSPropertyOp56
 70
     1
102
RTVSPropertyOp57
 70
     1
102
RTVSPropertyOp58
 70
     1
102
RTVSPropertyOp59
 70
     1
102
RTVSPropertyOp60
 70
     1
102
RTVSPropertyOp61
 70
     1
102
RTVSPropertyOp62
 70
     1
  0
XRECORD
  5
3C4
102
{ACAD_REACTORS
330
3C3
102
}
330
3C3
100
AcDbXrecord
280
     1
102
RTVSPost2010Prop28
280
     0
102
RTVSPost2010PropOp28
 70
     1
102
RTVSPost2010Prop29
280
     1
102
RTVSPost2010PropOp29
 70
     1
102
RTVSPost2010Prop30
280
     1
102
RTVSPost2010PropOp30
 70
     1
102
RTVSPost2010Prop31
280
     0
102
RTVSPost2010PropOp31
 70
     1
102
RTVSPost2010Prop32
280
     0
102
RTVSPost2010PropOp32
 70
     1
102
RTVSPost2010Prop33
280
     0
102
RTVSPost2010PropOp33
 70
     1
102
RTVSPost2010Prop34
280
     0
102
RTVSPost2010PropOp34
 70
     1
102
RTVSPost2010Prop35
280
     0
102
RTVSPost2010PropOp35
 70
     1
102
RTVSPost2010Prop36
280
     0
102
RTVSPost2010PropOp36
 70
     1
102
RTVSPost2010Prop37
 90
       50
102
RTVSPost2010PropOp37
 70
     1
102
RTVSPost2010Prop38
140
0.0
102
RTVSPost2010PropOp38
 70
     1
102
RTVSPost2010Prop39
140
1.0
102
RTVSPost2010PropOp39
 70
     1
102
RTVSPost2010Prop40
 90
        0
102
RTVSPost2010PropOp40
 70
     1
102
RTVSPost2010Prop41ColorIndex
 90
       18
102
RTVSPost2010Prop41ColorRGB
 90
        0
102
RTVSPost2010PropOp41
 70
     1
102
RTVSPost2010Prop42
 90
       50
102
RTVSPost2010PropOp42
 70
     1
102
RTVSPost2010Prop43
 90
        3
102
RTVSPost2010PropOp43
 70
     1
102
RTVSPost2010Prop44ColorIndex
 90
        5
102
RTVSPost2010Prop44ColorRGB
 90
      255
102
RTVSPost2010PropOp44
 70
     1
102
RTVSPost2010Prop45
280
     0
102
RTVSPost2010PropOp45
 70
     1
102
RTVSPost2010Prop46
 90
       50
102
RTVSPost2010PropOp46
 70
     1
102
RTVSPost2010Prop47
 90
       50
102
RTVSPost2010PropOp47
 70
     1
102
RTVSPost2010Prop48
 90
       50
102
RTVSPost2010PropOp48
 70
     1
102
RTVSPost2010Prop49
280
     0
102
RTVSPost2010PropOp49
 70
     1
102
RTVSPost2010Prop50
 90
       50
102
RTVSPost2010PropOp50
 70
     1
102
RTVSPost2010Prop51ColorIndex
 90
      256
102
RTVSPost2010Prop51ColorRGB
 90
-16777216
102
RTVSPost2010PropOp51
 70
     0
102
RTVSPost2010Prop52
140
1.0
102
RTVSPost2010PropOp52
 70
     0
102
RTVSPost2010Prop53
 90
        2
102
RTVSPost2010PropOp53
 70
     1
102
RTVSPost2010Prop54
  1
strokes_ogs.tif
102
RTVSPost2010PropOp54
 70
     1
102
RTVSPost2010Prop55
280
     0
102
RTVSPost2010PropOp55
 70
     1
102
RTVSPost2010Prop56
140
1.0
102
RTVSPost2010PropOp56
 70
     1
102
RTVSPost2010Prop57
140
1.0
102
RTVSPost2010PropOp57
 70
     1
102
RTVSPropertyOp0
 70
     1
102
RTVSPropertyOp1
 70
     1
102
RTVSPropertyOp2
 70
     1
102
RTVSPropertyOp3
 70
     1
102
RTVSPropertyOp4
 70
     1
102
RTVSPropertyOp5
 70
     1
102
RTVSPropertyOp6
 70
     1
102
RTVSPropertyOp7
 70
     1
102
RTVSPropertyOp8
 70
     1
102
RTVSPropertyOp9
 70
     1
102
RTVSPropertyOp10
 70
     1
102
RTVSPropertyOp11
 70
     1
102
RTVSPropertyOp12
 70
     1
102
RTVSPropertyOp13
 70
     1
102
RTVSPropertyOp14
 70
     1
102
RTVSPropertyOp15
 70
     1
102
RTVSPropertyOp16
 70
     1
102
RTVSPropertyOp17
 70
     1
102
RTVSPropertyOp18
 70
     1
102
RTVSPropertyOp19
 70
     1
102
RTVSPropertyOp20
 70
     1
102
RTVSPropertyOp21
 70
     1
102
RTVSPropertyOp22
 70
     1
102
RTVSPropertyOp23
 70
     1
102
RTVSPropertyOp24
 70
     1
102
RTVSPropertyOp25
 70
     1
102
RTVSPropertyOp26
 70
     1
102
RTVSPropertyOp27
 70
     1
102
RTVSPropertyOp28
 70
     1
102
RTVSPropertyOp29
 70
     1
102
RTVSPropertyOp30
 70
     1
102
RTVSPropertyOp31
 70
     1
102
RTVSPropertyOp32
 70
     1
102
RTVSPropertyOp33
 70
     1
102
RTVSPropertyOp34
 70
     1
102
RTVSPropertyOp35
 70
     1
102
RTVSPropertyOp36
 70
     1
102
RTVSPropertyOp37
 70
     1
102
RTVSPropertyOp38
 70
     1
102
RTVSPropertyOp39
 70
     1
102
RTVSPropertyOp40
 70
     1
102
RTVSPropertyOp41
 70
     1
102
RTVSPropertyOp42
 70
     1
102
RTVSPropertyOp43
 70
     1
102
RTVSPropertyOp44
 70
     1
102
RTVSPropertyOp45
 70
     1
102
RTVSPropertyOp46
 70
     1
102
RTVSPropertyOp47
 70
     1
102
RTVSPropertyOp48
 70
     1
102
RTVSPropertyOp49
 70
     1
102
RTVSPropertyOp50
 70
     1
102
RTVSPropertyOp51
 70
     0
102
RTVSPropertyOp52
 70
     0
102
RTVSPropertyOp53
 70
     1
102
RTVSPropertyOp54
 70
     1
102
RTVSPropertyOp55
 70
     1
102
RTVSPropertyOp56
 70
     1
102
RTVSPropertyOp57
 70
     1
102
RTVSPropertyOp58
 70
     1
102
RTVSPropertyOp59
 70
     1
102
RTVSPropertyOp60
 70
     1
102
RTVSPropertyOp61
 70
     1
102
RTVSPropertyOp62
 70
     1
  0
XRECORD
  5
3C6
102
{ACAD_REACTORS
330
3C5
102
}
330
3C5
100
AcDbXrecord
280
     1
102
RTVSPost2010Prop28
280
     0
102
RTVSPost2010PropOp28
 70
     1
102
RTVSPost2010Prop29
280
     1
102
RTVSPost2010PropOp29
 70
     1
102
RTVSPost2010Prop30
280
     1
102
RTVSPost2010PropOp30
 70
     1
102
RTVSPost2010Prop31
280
     0
102
RTVSPost2010PropOp31
 70
     1
102
RTVSPost2010Prop32
280
     0
102
RTVSPost2010PropOp32
 70
     1
102
RTVSPost2010Prop33
280
     0
102
RTVSPost2010PropOp33
 70
     1
102
RTVSPost2010Prop34
280
     0
102
RTVSPost2010PropOp34
 70
     1
102
RTVSPost2010Prop35
280
     0
102
RTVSPost2010PropOp35
 70
     1
102
RTVSPost2010Prop36
280
     0
102
RTVSPost2010PropOp36
 70
     1
102
RTVSPost2010Prop37
 90
       50
102
RTVSPost2010PropOp37
 70
     1
102
RTVSPost2010Prop38
140
0.0
102
RTVSPost2010PropOp38
 70
     1
102
RTVSPost2010Prop39
140
1.0
102
RTVSPost2010PropOp39
 70
     1
102
RTVSPost2010Prop40
 90
        0
102
RTVSPost2010PropOp40
 70
     1
102
RTVSPost2010Prop41ColorIndex
 90
       18
102
RTVSPost2010Prop41ColorRGB
 90
        0
102
RTVSPost2010PropOp41
 70
     1
102
RTVSPost2010Prop42
 90
       50
102
RTVSPost2010PropOp42
 70
     1
102
RTVSPost2010Prop43
 90
        3
102
RTVSPost2010PropOp43
 70
     1
102
RTVSPost2010Prop44ColorIndex
 90
        5
102
RTVSPost2010Prop44ColorRGB
 90
      255
102
RTVSPost2010PropOp44
 70
     1
102
RTVSPost2010Prop45
280
     0
102
RTVSPost2010PropOp45
 70
     1
102
RTVSPost2010Prop46
 90
       50
102
RTVSPost2010PropOp46
 70
     1
102
RTVSPost2010Prop47
 90
       50
102
RTVSPost2010PropOp47
 70
     1
102
RTVSPost2010Prop48
 90
       50
102
RTVSPost2010PropOp48
 70
     1
102
RTVSPost2010Prop49
280
     0
102
RTVSPost2010PropOp49
 70
     1
102
RTVSPost2010Prop50
 90
       50
102
RTVSPost2010PropOp50
 70
     1
102
RTVSPost2010Prop51ColorIndex
 90
      256
102
RTVSPost2010Prop51ColorRGB
 90
-16777216
102
RTVSPost2010PropOp51
 70
     0
102
RTVSPost2010Prop52
140
1.0
102
RTVSPost2010PropOp52
 70
     0
102
RTVSPost2010Prop53
 90
        2
102
RTVSPost2010PropOp53
 70
     1
102
RTVSPost2010Prop54
  1
strokes_ogs.tif
102
RTVSPost2010PropOp54
 70
     1
102
RTVSPost2010Prop55
280
     0
102
RTVSPost2010PropOp55
 70
     1
102
RTVSPost2010Prop56
140
1.0
102
RTVSPost2010PropOp56
 70
     1
102
RTVSPost2010Prop57
140
1.0
102
RTVSPost2010PropOp57
 70
     1
102
RTVSPropertyOp0
 70
     1
102
RTVSPropertyOp1
 70
     1
102
RTVSPropertyOp2
 70
     1
102
RTVSPropertyOp3
 70
     1
102
RTVSPropertyOp4
 70
     1
102
RTVSPropertyOp5
 70
     1
102
RTVSPropertyOp6
 70
     1
102
RTVSPropertyOp7
 70
     1
102
RTVSPropertyOp8
 70
     1
102
RTVSPropertyOp9
 70
     1
102
RTVSPropertyOp10
 70
     1
102
RTVSPropertyOp11
 70
     1
102
RTVSPropertyOp12
 70
     1
102
RTVSPropertyOp13
 70
     1
102
RTVSPropertyOp14
 70
     1
102
RTVSPropertyOp15
 70
     1
102
RTVSPropertyOp16
 70
     1
102
RTVSPropertyOp17
 70
     1
102
RTVSPropertyOp18
 70
     1
102
RTVSPropertyOp19
 70
     1
102
RTVSPropertyOp20
 70
     1
102
RTVSPropertyOp21
 70
     1
102
RTVSPropertyOp22
 70
     1
102
RTVSPropertyOp23
 70
     1
102
RTVSPropertyOp24
 70
     1
102
RTVSPropertyOp25
 70
     1
102
RTVSPropertyOp26
 70
     1
102
RTVSPropertyOp27
 70
     1
102
RTVSPropertyOp28
 70
     1
102
RTVSPropertyOp29
 70
     1
102
RTVSPropertyOp30
 70
     1
102
RTVSPropertyOp31
 70
     1
102
RTVSPropertyOp32
 70
     1
102
RTVSPropertyOp33
 70
     1
102
RTVSPropertyOp34
 70
     1
102
RTVSPropertyOp35
 70
     1
102
RTVSPropertyOp36
 70
     1
102
RTVSPropertyOp37
 70
     1
102
RTVSPropertyOp38
 70
     1
102
RTVSPropertyOp39
 70
     1
102
RTVSPropertyOp40
 70
     1
102
RTVSPropertyOp41
 70
     1
102
RTVSPropertyOp42
 70
     1
102
RTVSPropertyOp43
 70
     1
102
RTVSPropertyOp44
 70
     1
102
RTVSPropertyOp45
 70
     1
102
RTVSPropertyOp46
 70
     1
102
RTVSPropertyOp47
 70
     1
102
RTVSPropertyOp48
 70
     1
102
RTVSPropertyOp49
 70
     1
102
RTVSPropertyOp50
 70
     1
102
RTVSPropertyOp51
 70
     0
102
RTVSPropertyOp52
 70
     0
102
RTVSPropertyOp53
 70
     1
102
RTVSPropertyOp54
 70
     1
102
RTVSPropertyOp55
 70
     1
102
RTVSPropertyOp56
 70
     1
102
RTVSPropertyOp57
 70
     1
102
RTVSPropertyOp58
 70
     1
102
RTVSPropertyOp59
 70
     1
102
RTVSPropertyOp60
 70
     1
102
RTVSPropertyOp61
 70
     1
102
RTVSPropertyOp62
 70
     1
  0
XRECORD
  5
3C8
102
{ACAD_REACTORS
330
3C7
102
}
330
3C7
100
AcDbXrecord
280
     1
102
RTVSPost2010Prop28
280
     0
102
RTVSPost2010PropOp28
 70
     1
102
RTVSPost2010Prop29
280
     1
102
RTVSPost2010PropOp29
 70
     1
102
RTVSPost2010Prop30
280
     1
102
RTVSPost2010PropOp30
 70
     1
102
RTVSPost2010Prop31
280
     0
102
RTVSPost2010PropOp31
 70
     1
102
RTVSPost2010Prop32
280
     0
102
RTVSPost2010PropOp32
 70
     1
102
RTVSPost2010Prop33
280
     0
102
RTVSPost2010PropOp33
 70
     1
102
RTVSPost2010Prop34
280
     0
102
RTVSPost2010PropOp34
 70
     1
102
RTVSPost2010Prop35
280
     0
102
RTVSPost2010PropOp35
 70
     1
102
RTVSPost2010Prop36
280
     0
102
RTVSPost2010PropOp36
 70
     1
102
RTVSPost2010Prop37
 90
       50
102
RTVSPost2010PropOp37
 70
     1
102
RTVSPost2010Prop38
140
0.0
102
RTVSPost2010PropOp38
 70
     1
102
RTVSPost2010Prop39
140
1.0
102
RTVSPost2010PropOp39
 70
     1
102
RTVSPost2010Prop40
 90
        0
102
RTVSPost2010PropOp40
 70
     1
102
RTVSPost2010Prop41ColorIndex
 90
       18
102
RTVSPost2010Prop41ColorRGB
 90
        0
102
RTVSPost2010PropOp41
 70
     1
102
RTVSPost2010Prop42
 90
       50
102
RTVSPost2010PropOp42
 70
     1
102
RTVSPost2010Prop43
 90
        3
102
RTVSPost2010PropOp43
 70
     1
102
RTVSPost2010Prop44ColorIndex
 90
        5
102
RTVSPost2010Prop44ColorRGB
 90
      255
102
RTVSPost2010PropOp44
 70
     1
102
RTVSPost2010Prop45
280
     0
102
RTVSPost2010PropOp45
 70
     1
102
RTVSPost2010Prop46
 90
       50
102
RTVSPost2010PropOp46
 70
     1
102
RTVSPost2010Prop47
 90
       50
102
RTVSPost2010PropOp47
 70
     1
102
RTVSPost2010Prop48
 90
       50
102
RTVSPost2010PropOp48
 70
     1
102
RTVSPost2010Prop49
280
     0
102
RTVSPost2010PropOp49
 70
     1
102
RTVSPost2010Prop50
 90
       50
102
RTVSPost2010PropOp50
 70
     1
102
RTVSPost2010Prop51ColorIndex
 90
      256
102
RTVSPost2010Prop51ColorRGB
 90
-16777216
102
RTVSPost2010PropOp51
 70
     0
102
RTVSPost2010Prop52
140
1.0
102
RTVSPost2010PropOp52
 70
     0
102
RTVSPost2010Prop53
 90
        2
102
RTVSPost2010PropOp53
 70
     1
102
RTVSPost2010Prop54
  1
strokes_ogs.tif
102
RTVSPost2010PropOp54
 70
     1
102
RTVSPost2010Prop55
280
     0
102
RTVSPost2010PropOp55
 70
     1
102
RTVSPost2010Prop56
140
1.0
102
RTVSPost2010PropOp56
 70
     1
102
RTVSPost2010Prop57
140
1.0
102
RTVSPost2010PropOp57
 70
     1
102
RTVSPropertyOp0
 70
     1
102
RTVSPropertyOp1
 70
     1
102
RTVSPropertyOp2
 70
     1
102
RTVSPropertyOp3
 70
     1
102
RTVSPropertyOp4
 70
     1
102
RTVSPropertyOp5
 70
     1
102
RTVSPropertyOp6
 70
     1
102
RTVSPropertyOp7
 70
     1
102
RTVSPropertyOp8
 70
     1
102
RTVSPropertyOp9
 70
     1
102
RTVSPropertyOp10
 70
     1
102
RTVSPropertyOp11
 70
     1
102
RTVSPropertyOp12
 70
     1
102
RTVSPropertyOp13
 70
     1
102
RTVSPropertyOp14
 70
     1
102
RTVSPropertyOp15
 70
     1
102
RTVSPropertyOp16
 70
     1
102
RTVSPropertyOp17
 70
     1
102
RTVSPropertyOp18
 70
     1
102
RTVSPropertyOp19
 70
     1
102
RTVSPropertyOp20
 70
     1
102
RTVSPropertyOp21
 70
     1
102
RTVSPropertyOp22
 70
     1
102
RTVSPropertyOp23
 70
     1
102
RTVSPropertyOp24
 70
     1
102
RTVSPropertyOp25
 70
     1
102
RTVSPropertyOp26
 70
     1
102
RTVSPropertyOp27
 70
     1
102
RTVSPropertyOp28
 70
     1
102
RTVSPropertyOp29
 70
     1
102
RTVSPropertyOp30
 70
     1
102
RTVSPropertyOp31
 70
     1
102
RTVSPropertyOp32
 70
     1
102
RTVSPropertyOp33
 70
     1
102
RTVSPropertyOp34
 70
     1
102
RTVSPropertyOp35
 70
     1
102
RTVSPropertyOp36
 70
     1
102
RTVSPropertyOp37
 70
     1
102
RTVSPropertyOp38
 70
     1
102
RTVSPropertyOp39
 70
     1
102
RTVSPropertyOp40
 70
     1
102
RTVSPropertyOp41
 70
     1
102
RTVSPropertyOp42
 70
     1
102
RTVSPropertyOp43
 70
     1
102
RTVSPropertyOp44
 70
     1
102
RTVSPropertyOp45
 70
     1
102
RTVSPropertyOp46
 70
     1
102
RTVSPropertyOp47
 70
     1
102
RTVSPropertyOp48
 70
     1
102
RTVSPropertyOp49
 70
     1
102
RTVSPropertyOp50
 70
     1
102
RTVSPropertyOp51
 70
     0
102
RTVSPropertyOp52
 70
     0
102
RTVSPropertyOp53
 70
     1
102
RTVSPropertyOp54
 70
     1
102
RTVSPropertyOp55
 70
     1
102
RTVSPropertyOp56
 70
     1
102
RTVSPropertyOp57
 70
     1
102
RTVSPropertyOp58
 70
     1
102
RTVSPropertyOp59
 70
     1
102
RTVSPropertyOp60
 70
     1
102
RTVSPropertyOp61
 70
     1
102
RTVSPropertyOp62
 70
     1
  0
XRECORD
  5
3CA
102
{ACAD_REACTORS
330
3C9
102
}
330
3C9
100
AcDbXrecord
280
     1
102
RTVSPost2010Prop28
280
     0
102
RTVSPost2010PropOp28
 70
     1
102
RTVSPost2010Prop29
280
     1
102
RTVSPost2010PropOp29
 70
     1
102
RTVSPost2010Prop30
280
     1
102
RTVSPost2010PropOp30
 70
     1
102
RTVSPost2010Prop31
280
     0
102
RTVSPost2010PropOp31
 70
     1
102
RTVSPost2010Prop32
280
     0
102
RTVSPost2010PropOp32
 70
     1
102
RTVSPost2010Prop33
280
     0
102
RTVSPost2010PropOp33
 70
     1
102
RTVSPost2010Prop34
280
     0
102
RTVSPost2010PropOp34
 70
     1
102
RTVSPost2010Prop35
280
     0
102
RTVSPost2010PropOp35
 70
     1
102
RTVSPost2010Prop36
280
     0
102
RTVSPost2010PropOp36
 70
     1
102
RTVSPost2010Prop37
 90
       50
102
RTVSPost2010PropOp37
 70
     1
102
RTVSPost2010Prop38
140
0.0
102
RTVSPost2010PropOp38
 70
     1
102
RTVSPost2010Prop39
140
1.0
102
RTVSPost2010PropOp39
 70
     1
102
RTVSPost2010Prop40
 90
        0
102
RTVSPost2010PropOp40
 70
     1
102
RTVSPost2010Prop41ColorIndex
 90
       18
102
RTVSPost2010Prop41ColorRGB
 90
        0
102
RTVSPost2010PropOp41
 70
     1
102
RTVSPost2010Prop42
 90
       50
102
RTVSPost2010PropOp42
 70
     1
102
RTVSPost2010Prop43
 90
        3
102
RTVSPost2010PropOp43
 70
     1
102
RTVSPost2010Prop44ColorIndex
 90
        5
102
RTVSPost2010Prop44ColorRGB
 90
      255
102
RTVSPost2010PropOp44
 70
     1
102
RTVSPost2010Prop45
280
     0
102
RTVSPost2010PropOp45
 70
     1
102
RTVSPost2010Prop46
 90
       50
102
RTVSPost2010PropOp46
 70
     1
102
RTVSPost2010Prop47
 90
       50
102
RTVSPost2010PropOp47
 70
     1
102
RTVSPost2010Prop48
 90
       50
102
RTVSPost2010PropOp48
 70
     1
102
RTVSPost2010Prop49
280
     0
102
RTVSPost2010PropOp49
 70
     1
102
RTVSPost2010Prop50
 90
       50
102
RTVSPost2010PropOp50
 70
     1
102
RTVSPost2010Prop51ColorIndex
 90
      256
102
RTVSPost2010Prop51ColorRGB
 90
-16777216
102
RTVSPost2010PropOp51
 70
     0
102
RTVSPost2010Prop52
140
1.0
102
RTVSPost2010PropOp52
 70
     0
102
RTVSPost2010Prop53
 90
        2
102
RTVSPost2010PropOp53
 70
     1
102
RTVSPost2010Prop54
  1
strokes_ogs.tif
102
RTVSPost2010PropOp54
 70
     1
102
RTVSPost2010Prop55
280
     0
102
RTVSPost2010PropOp55
 70
     1
102
RTVSPost2010Prop56
140
1.0
102
RTVSPost2010PropOp56
 70
     1
102
RTVSPost2010Prop57
140
1.0
102
RTVSPost2010PropOp57
 70
     1
102
RTVSPropertyOp0
 70
     1
102
RTVSPropertyOp1
 70
     1
102
RTVSPropertyOp2
 70
     1
102
RTVSPropertyOp3
 70
     1
102
RTVSPropertyOp4
 70
     1
102
RTVSPropertyOp5
 70
     1
102
RTVSPropertyOp6
 70
     1
102
RTVSPropertyOp7
 70
     1
102
RTVSPropertyOp8
 70
     1
102
RTVSPropertyOp9
 70
     1
102
RTVSPropertyOp10
 70
     1
102
RTVSPropertyOp11
 70
     1
102
RTVSPropertyOp12
 70
     1
102
RTVSPropertyOp13
 70
     1
102
RTVSPropertyOp14
 70
     1
102
RTVSPropertyOp15
 70
     1
102
RTVSPropertyOp16
 70
     1
102
RTVSPropertyOp17
 70
     1
102
RTVSPropertyOp18
 70
     1
102
RTVSPropertyOp19
 70
     1
102
RTVSPropertyOp20
 70
     1
102
RTVSPropertyOp21
 70
     1
102
RTVSPropertyOp22
 70
     1
102
RTVSPropertyOp23
 70
     1
102
RTVSPropertyOp24
 70
     1
102
RTVSPropertyOp25
 70
     1
102
RTVSPropertyOp26
 70
     1
102
RTVSPropertyOp27
 70
     1
102
RTVSPropertyOp28
 70
     1
102
RTVSPropertyOp29
 70
     1
102
RTVSPropertyOp30
 70
     1
102
RTVSPropertyOp31
 70
     1
102
RTVSPropertyOp32
 70
     1
102
RTVSPropertyOp33
 70
     1
102
RTVSPropertyOp34
 70
     1
102
RTVSPropertyOp35
 70
     1
102
RTVSPropertyOp36
 70
     1
102
RTVSPropertyOp37
 70
     1
102
RTVSPropertyOp38
 70
     1
102
RTVSPropertyOp39
 70
     1
102
RTVSPropertyOp40
 70
     1
102
RTVSPropertyOp41
 70
     1
102
RTVSPropertyOp42
 70
     1
102
RTVSPropertyOp43
 70
     1
102
RTVSPropertyOp44
 70
     1
102
RTVSPropertyOp45
 70
     1
102
RTVSPropertyOp46
 70
     1
102
RTVSPropertyOp47
 70
     1
102
RTVSPropertyOp48
 70
     1
102
RTVSPropertyOp49
 70
     1
102
RTVSPropertyOp50
 70
     1
102
RTVSPropertyOp51
 70
     0
102
RTVSPropertyOp52
 70
     0
102
RTVSPropertyOp53
 70
     1
102
RTVSPropertyOp54
 70
     1
102
RTVSPropertyOp55
 70
     1
102
RTVSPropertyOp56
 70
     1
102
RTVSPropertyOp57
 70
     1
102
RTVSPropertyOp58
 70
     1
102
RTVSPropertyOp59
 70
     1
102
RTVSPropertyOp60
 70
     1
102
RTVSPropertyOp61
 70
     1
102
RTVSPropertyOp62
 70
     1
  0
XRECORD
  5
3D0
102
{ACAD_REACTORS
330
3CF
102
}
330
3CF
100
AcDbXrecord
280
     1
102
RTVSPost2010Prop28
280
     0
102
RTVSPost2010PropOp28
 70
     1
102
RTVSPost2010Prop29
280
     1
102
RTVSPost2010PropOp29
 70
     1
102
RTVSPost2010Prop30
280
     1
102
RTVSPost2010PropOp30
 70
     1
102
RTVSPost2010Prop31
280
     0
102
RTVSPost2010PropOp31
 70
     1
102
RTVSPost2010Prop32
280
     0
102
RTVSPost2010PropOp32
 70
     1
102
RTVSPost2010Prop33
280
     0
102
RTVSPost2010PropOp33
 70
     1
102
RTVSPost2010Prop34
280
     0
102
RTVSPost2010PropOp34
 70
     1
102
RTVSPost2010Prop35
280
     0
102
RTVSPost2010PropOp35
 70
     1
102
RTVSPost2010Prop36
280
     0
102
RTVSPost2010PropOp36
 70
     1
102
RTVSPost2010Prop37
 90
       50
102
RTVSPost2010PropOp37
 70
     1
102
RTVSPost2010Prop38
140
0.0
102
RTVSPost2010PropOp38
 70
     1
102
RTVSPost2010Prop39
140
1.0
102
RTVSPost2010PropOp39
 70
     1
102
RTVSPost2010Prop40
 90
        0
102
RTVSPost2010PropOp40
 70
     1
102
RTVSPost2010Prop41ColorIndex
 90
       18
102
RTVSPost2010Prop41ColorRGB
 90
        0
102
RTVSPost2010PropOp41
 70
     1
102
RTVSPost2010Prop42
 90
       50
102
RTVSPost2010PropOp42
 70
     1
102
RTVSPost2010Prop43
 90
        3
102
RTVSPost2010PropOp43
 70
     1
102
RTVSPost2010Prop44ColorIndex
 90
        5
102
RTVSPost2010Prop44ColorRGB
 90
      255
102
RTVSPost2010PropOp44
 70
     1
102
RTVSPost2010Prop45
280
     0
102
RTVSPost2010PropOp45
 70
     1
102
RTVSPost2010Prop46
 90
       50
102
RTVSPost2010PropOp46
 70
     1
102
RTVSPost2010Prop47
 90
       50
102
RTVSPost2010PropOp47
 70
     1
102
RTVSPost2010Prop48
 90
       50
102
RTVSPost2010PropOp48
 70
     1
102
RTVSPost2010Prop49
280
     0
102
RTVSPost2010PropOp49
 70
     1
102
RTVSPost2010Prop50
 90
       50
102
RTVSPost2010PropOp50
 70
     1
102
RTVSPost2010Prop51ColorIndex
 90
      256
102
RTVSPost2010Prop51ColorRGB
 90
-16777216
102
RTVSPost2010PropOp51
 70
     0
102
RTVSPost2010Prop52
140
1.0
102
RTVSPost2010PropOp52
 70
     0
102
RTVSPost2010Prop53
 90
        2
102
RTVSPost2010PropOp53
 70
     1
102
RTVSPost2010Prop54
  1
strokes_ogs.tif
102
RTVSPost2010PropOp54
 70
     1
102
RTVSPost2010Prop55
280
     0
102
RTVSPost2010PropOp55
 70
     1
102
RTVSPost2010Prop56
140
1.0
102
RTVSPost2010PropOp56
 70
     1
102
RTVSPost2010Prop57
140
1.0
102
RTVSPost2010PropOp57
 70
     1
102
RTVSPropertyOp0
 70
     1
102
RTVSPropertyOp1
 70
     1
102
RTVSPropertyOp2
 70
     1
102
RTVSPropertyOp3
 70
     1
102
RTVSPropertyOp4
 70
     1
102
RTVSPropertyOp5
 70
     1
102
RTVSPropertyOp6
 70
     1
102
RTVSPropertyOp7
 70
     1
102
RTVSPropertyOp8
 70
     1
102
RTVSPropertyOp9
 70
     1
102
RTVSPropertyOp10
 70
     1
102
RTVSPropertyOp11
 70
     1
102
RTVSPropertyOp12
 70
     1
102
RTVSPropertyOp13
 70
     1
102
RTVSPropertyOp14
 70
     1
102
RTVSPropertyOp15
 70
     1
102
RTVSPropertyOp16
 70
     1
102
RTVSPropertyOp17
 70
     1
102
RTVSPropertyOp18
 70
     1
102
RTVSPropertyOp19
 70
     1
102
RTVSPropertyOp20
 70
     1
102
RTVSPropertyOp21
 70
     1
102
RTVSPropertyOp22
 70
     1
102
RTVSPropertyOp23
 70
     1
102
RTVSPropertyOp24
 70
     1
102
RTVSPropertyOp25
 70
     1
102
RTVSPropertyOp26
 70
     1
102
RTVSPropertyOp27
 70
     1
102
RTVSPropertyOp28
 70
     1
102
RTVSPropertyOp29
 70
     1
102
RTVSPropertyOp30
 70
     1
102
RTVSPropertyOp31
 70
     1
102
RTVSPropertyOp32
 70
     1
102
RTVSPropertyOp33
 70
     1
102
RTVSPropertyOp34
 70
     1
102
RTVSPropertyOp35
 70
     1
102
RTVSPropertyOp36
 70
     1
102
RTVSPropertyOp37
 70
     1
102
RTVSPropertyOp38
 70
     1
102
RTVSPropertyOp39
 70
     1
102
RTVSPropertyOp40
 70
     1
102
RTVSPropertyOp41
 70
     1
102
RTVSPropertyOp42
 70
     1
102
RTVSPropertyOp43
 70
     1
102
RTVSPropertyOp44
 70
     1
102
RTVSPropertyOp45
 70
     1
102
RTVSPropertyOp46
 70
     1
102
RTVSPropertyOp47
 70
     1
102
RTVSPropertyOp48
 70
     1
102
RTVSPropertyOp49
 70
     1
102
RTVSPropertyOp50
 70
     1
102
RTVSPropertyOp51
 70
     0
102
RTVSPropertyOp52
 70
     0
102
RTVSPropertyOp53
 70
     1
102
RTVSPropertyOp54
 70
     1
102
RTVSPropertyOp55
 70
     1
102
RTVSPropertyOp56
 70
     1
102
RTVSPropertyOp57
 70
     1
102
RTVSPropertyOp58
 70
     1
102
RTVSPropertyOp59
 70
     1
102
RTVSPropertyOp60
 70
     1
102
RTVSPropertyOp61
 70
     1
102
RTVSPropertyOp62
 70
     1
  0
XRECORD
  5
3E4
102
{ACAD_REACTORS
330
3E3
102
}
330
3E3
100
AcDbXrecord
280
     1
102
RTVSPost2010Prop28
280
     0
102
RTVSPost2010PropOp28
 70
     0
102
RTVSPost2010Prop29
280
     1
102
RTVSPost2010PropOp29
 70
     0
102
RTVSPost2010Prop30
280
     1
102
RTVSPost2010PropOp30
 70
     0
102
RTVSPost2010Prop31
280
     0
102
RTVSPost2010PropOp31
 70
     0
102
RTVSPost2010Prop32
280
     0
102
RTVSPost2010PropOp32
 70
     0
102
RTVSPost2010Prop33
280
     0
102
RTVSPost2010PropOp33
 70
     0
102
RTVSPost2010Prop34
280
     0
102
RTVSPost2010PropOp34
 70
     0
102
RTVSPost2010Prop35
280
     0
102
RTVSPost2010PropOp35
 70
     0
102
RTVSPost2010Prop36
280
     0
102
RTVSPost2010PropOp36
 70
     0
102
RTVSPost2010Prop37
 90
       50
102
RTVSPost2010PropOp37
 70
     0
102
RTVSPost2010Prop38
140
0.0
102
RTVSPost2010PropOp38
 70
     0
102
RTVSPost2010Prop39
140
1.0
102
RTVSPost2010PropOp39
 70
     0
102
RTVSPost2010Prop40
 90
        0
102
RTVSPost2010PropOp40
 70
     0
102
RTVSPost2010Prop41ColorIndex
 90
       18
102
RTVSPost2010Prop41ColorRGB
 90
        0
102
RTVSPost2010PropOp41
 70
     0
102
RTVSPost2010Prop42
 90
       50
102
RTVSPost2010PropOp42
 70
     0
102
RTVSPost2010Prop43
 90
        3
102
RTVSPost2010PropOp43
 70
     0
102
RTVSPost2010Prop44ColorIndex
 90
        5
102
RTVSPost2010Prop44ColorRGB
 90
      255
102
RTVSPost2010PropOp44
 70
     0
102
RTVSPost2010Prop45
280
     0
102
RTVSPost2010PropOp45
 70
     0
102
RTVSPost2010Prop46
 90
       50
102
RTVSPost2010PropOp46
 70
     0
102
RTVSPost2010Prop47
 90
       50
102
RTVSPost2010PropOp47
 70
     0
102
RTVSPost2010Prop48
 90
       50
102
RTVSPost2010PropOp48
 70
     0
102
RTVSPost2010Prop49
280
     0
102
RTVSPost2010PropOp49
 70
     0
102
RTVSPost2010Prop50
 90
       50
102
RTVSPost2010PropOp50
 70
     0
102
RTVSPost2010Prop51ColorIndex
 90
      256
102
RTVSPost2010Prop51ColorRGB
 90
-16777216
102
RTVSPost2010PropOp51
 70
     0
102
RTVSPost2010Prop52
140
1.0
102
RTVSPost2010PropOp52
 70
     0
102
RTVSPost2010Prop53
 90
        2
102
RTVSPost2010PropOp53
 70
     0
102
RTVSPost2010Prop54
  1
strokes_ogs.tif
102
RTVSPost2010PropOp54
 70
     0
102
RTVSPost2010Prop55
280
     0
102
RTVSPost2010PropOp55
 70
     0
102
RTVSPost2010Prop56
140
1.0
102
RTVSPost2010PropOp56
 70
     0
102
RTVSPost2010Prop57
140
1.0
102
RTVSPost2010PropOp57
 70
     0
102
RTVSPropertyOp0
 70
     0
102
RTVSPropertyOp1
 70
     0
102
RTVSPropertyOp2
 70
     0
102
RTVSPropertyOp3
 70
     0
102
RTVSPropertyOp4
 70
     0
102
RTVSPropertyOp5
 70
     0
102
RTVSPropertyOp6
 70
     0
102
RTVSPropertyOp7
 70
     0
102
RTVSPropertyOp8
 70
     0
102
RTVSPropertyOp9
 70
     0
102
RTVSPropertyOp10
 70
     0
102
RTVSPropertyOp11
 70
     0
102
RTVSPropertyOp12
 70
     0
102
RTVSPropertyOp13
 70
     0
102
RTVSPropertyOp14
 70
     2
102
RTVSPropertyOp15
 70
     0
102
RTVSPropertyOp16
 70
     0
102
RTVSPropertyOp17
 70
     0
102
RTVSPropertyOp18
 70
     0
102
RTVSPropertyOp19
 70
     0
102
RTVSPropertyOp20
 70
     0
102
RTVSPropertyOp21
 70
     0
102
RTVSPropertyOp22
 70
     0
102
RTVSPropertyOp23
 70
     0
102
RTVSPropertyOp24
 70
     0
102
RTVSPropertyOp25
 70
     0
102
RTVSPropertyOp26
 70
     0
102
RTVSPropertyOp27
 70
     0
102
RTVSPropertyOp28
 70
     0
102
RTVSPropertyOp29
 70
     0
102
RTVSPropertyOp30
 70
     0
102
RTVSPropertyOp31
 70
     0
102
RTVSPropertyOp32
 70
     0
102
RTVSPropertyOp33
 70
     0
102
RTVSPropertyOp34
 70
     0
102
RTVSPropertyOp35
 70
     0
102
RTVSPropertyOp36
 70
     0
102
RTVSPropertyOp37
 70
     0
102
RTVSPropertyOp38
 70
     0
102
RTVSPropertyOp39
 70
     0
102
RTVSPropertyOp40
 70
     0
102
RTVSPropertyOp41
 70
     0
102
RTVSPropertyOp42
 70
     0
102
RTVSPropertyOp43
 70
     0
102
RTVSPropertyOp44
 70
     0
102
RTVSPropertyOp45
 70
     0
102
RTVSPropertyOp46
 70
     0
102
RTVSPropertyOp47
 70
     0
102
RTVSPropertyOp48
 70
     0
102
RTVSPropertyOp49
 70
     0
102
RTVSPropertyOp50
 70
     0
102
RTVSPropertyOp51
 70
     0
102
RTVSPropertyOp52
 70
     0
102
RTVSPropertyOp53
 70
     0
102
RTVSPropertyOp54
 70
     0
102
RTVSPropertyOp55
 70
     0
102
RTVSPropertyOp56
 70
     0
102
RTVSPropertyOp57
 70
     0
102
RTVSPropertyOp58
 70
     1
102
RTVSPropertyOp59
 70
     1
102
RTVSPropertyOp60
 70
     1
102
RTVSPropertyOp61
 70
     1
102
RTVSPropertyOp62
 70
     1
  0
XRECORD
  5
3DE
102
{ACAD_REACTORS
330
3DD
102
}
330
3DD
100
AcDbXrecord
280
     1
102
RTVSPost2010Prop28
280
     0
102
RTVSPost2010PropOp28
 70
     1
102
RTVSPost2010Prop29
280
     1
102
RTVSPost2010PropOp29
 70
     1
102
RTVSPost2010Prop30
280
     1
102
RTVSPost2010PropOp30
 70
     1
102
RTVSPost2010Prop31
280
     0
102
RTVSPost2010PropOp31
 70
     1
102
RTVSPost2010Prop32
280
     0
102
RTVSPost2010PropOp32
 70
     1
102
RTVSPost2010Prop33
280
     0
102
RTVSPost2010PropOp33
 70
     1
102
RTVSPost2010Prop34
280
     0
102
RTVSPost2010PropOp34
 70
     1
102
RTVSPost2010Prop35
280
     0
102
RTVSPost2010PropOp35
 70
     1
102
RTVSPost2010Prop36
280
     0
102
RTVSPost2010PropOp36
 70
     1
102
RTVSPost2010Prop37
 90
       50
102
RTVSPost2010PropOp37
 70
     1
102
RTVSPost2010Prop38
140
0.0
102
RTVSPost2010PropOp38
 70
     1
102
RTVSPost2010Prop39
140
1.0
102
RTVSPost2010PropOp39
 70
     1
102
RTVSPost2010Prop40
 90
        0
102
RTVSPost2010PropOp40
 70
     1
102
RTVSPost2010Prop41ColorIndex
 90
       18
102
RTVSPost2010Prop41ColorRGB
 90
        0
102
RTVSPost2010PropOp41
 70
     1
102
RTVSPost2010Prop42
 90
       50
102
RTVSPost2010PropOp42
 70
     1
102
RTVSPost2010Prop43
 90
        3
102
RTVSPost2010PropOp43
 70
     1
102
RTVSPost2010Prop44ColorIndex
 90
        5
102
RTVSPost2010Prop44ColorRGB
 90
      255
102
RTVSPost2010PropOp44
 70
     1
102
RTVSPost2010Prop45
280
     0
102
RTVSPost2010PropOp45
 70
     1
102
RTVSPost2010Prop46
 90
       50
102
RTVSPost2010PropOp46
 70
     1
102
RTVSPost2010Prop47
 90
       50
102
RTVSPost2010PropOp47
 70
     1
102
RTVSPost2010Prop48
 90
       50
102
RTVSPost2010PropOp48
 70
     1
102
RTVSPost2010Prop49
280
     0
102
RTVSPost2010PropOp49
 70
     1
102
RTVSPost2010Prop50
 90
       50
102
RTVSPost2010PropOp50
 70
     1
102
RTVSPost2010Prop51ColorIndex
 90
      256
102
RTVSPost2010Prop51ColorRGB
 90
-16777216
102
RTVSPost2010PropOp51
 70
     0
102
RTVSPost2010Prop52
140
1.0
102
RTVSPost2010PropOp52
 70
     0
102
RTVSPost2010Prop53
 90
        2
102
RTVSPost2010PropOp53
 70
     1
102
RTVSPost2010Prop54
  1
strokes_ogs.tif
102
RTVSPost2010PropOp54
 70
     1
102
RTVSPost2010Prop55
280
     0
102
RTVSPost2010PropOp55
 70
     1
102
RTVSPost2010Prop56
140
1.0
102
RTVSPost2010PropOp56
 70
     1
102
RTVSPost2010Prop57
140
1.0
102
RTVSPost2010PropOp57
 70
     1
102
RTVSPropertyOp0
 70
     1
102
RTVSPropertyOp1
 70
     1
102
RTVSPropertyOp2
 70
     1
102
RTVSPropertyOp3
 70
     1
102
RTVSPropertyOp4
 70
     1
102
RTVSPropertyOp5
 70
     1
102
RTVSPropertyOp6
 70
     1
102
RTVSPropertyOp7
 70
     1
102
RTVSPropertyOp8
 70
     1
102
RTVSPropertyOp9
 70
     1
102
RTVSPropertyOp10
 70
     1
102
RTVSPropertyOp11
 70
     1
102
RTVSPropertyOp12
 70
     1
102
RTVSPropertyOp13
 70
     1
102
RTVSPropertyOp14
 70
     1
102
RTVSPropertyOp15
 70
     1
102
RTVSPropertyOp16
 70
     1
102
RTVSPropertyOp17
 70
     1
102
RTVSPropertyOp18
 70
     1
102
RTVSPropertyOp19
 70
     1
102
RTVSPropertyOp20
 70
     1
102
RTVSPropertyOp21
 70
     1
102
RTVSPropertyOp22
 70
     1
102
RTVSPropertyOp23
 70
     1
102
RTVSPropertyOp24
 70
     1
102
RTVSPropertyOp25
 70
     1
102
RTVSPropertyOp26
 70
     1
102
RTVSPropertyOp27
 70
     1
102
RTVSPropertyOp28
 70
     1
102
RTVSPropertyOp29
 70
     1
102
RTVSPropertyOp30
 70
     1
102
RTVSPropertyOp31
 70
     1
102
RTVSPropertyOp32
 70
     1
102
RTVSPropertyOp33
 70
     1
102
RTVSPropertyOp34
 70
     1
102
RTVSPropertyOp35
 70
     1
102
RTVSPropertyOp36
 70
     1
102
RTVSPropertyOp37
 70
     1
102
RTVSPropertyOp38
 70
     1
102
RTVSPropertyOp39
 70
     1
102
RTVSPropertyOp40
 70
     1
102
RTVSPropertyOp41
 70
     1
102
RTVSPropertyOp42
 70
     1
102
RTVSPropertyOp43
 70
     1
102
RTVSPropertyOp44
 70
     1
102
RTVSPropertyOp45
 70
     1
102
RTVSPropertyOp46
 70
     1
102
RTVSPropertyOp47
 70
     1
102
RTVSPropertyOp48
 70
     1
102
RTVSPropertyOp49
 70
     1
102
RTVSPropertyOp50
 70
     1
102
RTVSPropertyOp51
 70
     0
102
RTVSPropertyOp52
 70
     0
102
RTVSPropertyOp53
 70
     1
102
RTVSPropertyOp54
 70
     1
102
RTVSPropertyOp55
 70
     1
102
RTVSPropertyOp56
 70
     1
102
RTVSPropertyOp57
 70
     1
102
RTVSPropertyOp58
 70
     1
102
RTVSPropertyOp59
 70
     1
102
RTVSPropertyOp60
 70
     1
102
RTVSPropertyOp61
 70
     1
102
RTVSPropertyOp62
 70
     1
  0
XRECORD
  5
3E6
102
{ACAD_REACTORS
330
3E5
102
}
330
3E5
100
AcDbXrecord
280
     1
102
RTVSPost2010Prop28
280
     0
102
RTVSPost2010PropOp28
 70
     0
102
RTVSPost2010Prop29
280
     1
102
RTVSPost2010PropOp29
 70
     0
102
RTVSPost2010Prop30
280
     1
102
RTVSPost2010PropOp30
 70
     0
102
RTVSPost2010Prop31
280
     0
102
RTVSPost2010PropOp31
 70
     0
102
RTVSPost2010Prop32
280
     0
102
RTVSPost2010PropOp32
 70
     0
102
RTVSPost2010Prop33
280
     0
102
RTVSPost2010PropOp33
 70
     0
102
RTVSPost2010Prop34
280
     0
102
RTVSPost2010PropOp34
 70
     0
102
RTVSPost2010Prop35
280
     0
102
RTVSPost2010PropOp35
 70
     0
102
RTVSPost2010Prop36
280
     0
102
RTVSPost2010PropOp36
 70
     0
102
RTVSPost2010Prop37
 90
       50
102
RTVSPost2010PropOp37
 70
     0
102
RTVSPost2010Prop38
140
0.0
102
RTVSPost2010PropOp38
 70
     0
102
RTVSPost2010Prop39
140
1.0
102
RTVSPost2010PropOp39
 70
     0
102
RTVSPost2010Prop40
 90
        0
102
RTVSPost2010PropOp40
 70
     0
102
RTVSPost2010Prop41ColorIndex
 90
       18
102
RTVSPost2010Prop41ColorRGB
 90
        0
102
RTVSPost2010PropOp41
 70
     0
102
RTVSPost2010Prop42
 90
       50
102
RTVSPost2010PropOp42
 70
     0
102
RTVSPost2010Prop43
 90
        3
102
RTVSPost2010PropOp43
 70
     0
102
RTVSPost2010Prop44ColorIndex
 90
        5
102
RTVSPost2010Prop44ColorRGB
 90
      255
102
RTVSPost2010PropOp44
 70
     0
102
RTVSPost2010Prop45
280
     0
102
RTVSPost2010PropOp45
 70
     0
102
RTVSPost2010Prop46
 90
       50
102
RTVSPost2010PropOp46
 70
     0
102
RTVSPost2010Prop47
 90
       50
102
RTVSPost2010PropOp47
 70
     0
102
RTVSPost2010Prop48
 90
       50
102
RTVSPost2010PropOp48
 70
     0
102
RTVSPost2010Prop49
280
     0
102
RTVSPost2010PropOp49
 70
     0
102
RTVSPost2010Prop50
 90
       50
102
RTVSPost2010PropOp50
 70
     0
102
RTVSPost2010Prop51ColorIndex
 90
      256
102
RTVSPost2010Prop51ColorRGB
 90
-16777216
102
RTVSPost2010PropOp51
 70
     0
102
RTVSPost2010Prop52
140
1.0
102
RTVSPost2010PropOp52
 70
     0
102
RTVSPost2010Prop53
 90
        2
102
RTVSPost2010PropOp53
 70
     0
102
RTVSPost2010Prop54
  1
strokes_ogs.tif
102
RTVSPost2010PropOp54
 70
     0
102
RTVSPost2010Prop55
280
     0
102
RTVSPost2010PropOp55
 70
     0
102
RTVSPost2010Prop56
140
1.0
102
RTVSPost2010PropOp56
 70
     0
102
RTVSPost2010Prop57
140
1.0
102
RTVSPost2010PropOp57
 70
     0
102
RTVSPropertyOp0
 70
     0
102
RTVSPropertyOp1
 70
     0
102
RTVSPropertyOp2
 70
     0
102
RTVSPropertyOp3
 70
     0
102
RTVSPropertyOp4
 70
     0
102
RTVSPropertyOp5
 70
     0
102
RTVSPropertyOp6
 70
     0
102
RTVSPropertyOp7
 70
     0
102
RTVSPropertyOp8
 70
     0
102
RTVSPropertyOp9
 70
     0
102
RTVSPropertyOp10
 70
     0
102
RTVSPropertyOp11
 70
     0
102
RTVSPropertyOp12
 70
     0
102
RTVSPropertyOp13
 70
     0
102
RTVSPropertyOp14
 70
     2
102
RTVSPropertyOp15
 70
     0
102
RTVSPropertyOp16
 70
     0
102
RTVSPropertyOp17
 70
     0
102
RTVSPropertyOp18
 70
     0
102
RTVSPropertyOp19
 70
     0
102
RTVSPropertyOp20
 70
     0
102
RTVSPropertyOp21
 70
     0
102
RTVSPropertyOp22
 70
     0
102
RTVSPropertyOp23
 70
     0
102
RTVSPropertyOp24
 70
     0
102
RTVSPropertyOp25
 70
     0
102
RTVSPropertyOp26
 70
     0
102
RTVSPropertyOp27
 70
     0
102
RTVSPropertyOp28
 70
     0
102
RTVSPropertyOp29
 70
     0
102
RTVSPropertyOp30
 70
     0
102
RTVSPropertyOp31
 70
     0
102
RTVSPropertyOp32
 70
     0
102
RTVSPropertyOp33
 70
     0
102
RTVSPropertyOp34
 70
     0
102
RTVSPropertyOp35
 70
     0
102
RTVSPropertyOp36
 70
     0
102
RTVSPropertyOp37
 70
     0
102
RTVSPropertyOp38
 70
     0
102
RTVSPropertyOp39
 70
     0
102
RTVSPropertyOp40
 70
     0
102
RTVSPropertyOp41
 70
     0
102
RTVSPropertyOp42
 70
     0
102
RTVSPropertyOp43
 70
     0
102
RTVSPropertyOp44
 70
     0
102
RTVSPropertyOp45
 70
     0
102
RTVSPropertyOp46
 70
     0
102
RTVSPropertyOp47
 70
     0
102
RTVSPropertyOp48
 70
     0
102
RTVSPropertyOp49
 70
     0
102
RTVSPropertyOp50
 70
     0
102
RTVSPropertyOp51
 70
     0
102
RTVSPropertyOp52
 70
     0
102
RTVSPropertyOp53
 70
     0
102
RTVSPropertyOp54
 70
     0
102
RTVSPropertyOp55
 70
     0
102
RTVSPropertyOp56
 70
     0
102
RTVSPropertyOp57
 70
     0
102
RTVSPropertyOp58
 70
     1
102
RTVSPropertyOp59
 70
     1
102
RTVSPropertyOp60
 70
     1
102
RTVSPropertyOp61
 70
     1
102
RTVSPropertyOp62
 70
     1
  0
XRECORD
  5
3D4
102
{ACAD_REACTORS
330
3D3
102
}
330
3D3
100
AcDbXrecord
280
     1
102
RTVSPost2010Prop28
280
     0
102
RTVSPost2010PropOp28
 70
     1
102
RTVSPost2010Prop29
280
     1
102
RTVSPost2010PropOp29
 70
     1
102
RTVSPost2010Prop30
280
     1
102
RTVSPost2010PropOp30
 70
     1
102
RTVSPost2010Prop31
280
     0
102
RTVSPost2010PropOp31
 70
     1
102
RTVSPost2010Prop32
280
     0
102
RTVSPost2010PropOp32
 70
     1
102
RTVSPost2010Prop33
280
     0
102
RTVSPost2010PropOp33
 70
     1
102
RTVSPost2010Prop34
280
     0
102
RTVSPost2010PropOp34
 70
     1
102
RTVSPost2010Prop35
280
     0
102
RTVSPost2010PropOp35
 70
     1
102
RTVSPost2010Prop36
280
     0
102
RTVSPost2010PropOp36
 70
     1
102
RTVSPost2010Prop37
 90
       50
102
RTVSPost2010PropOp37
 70
     1
102
RTVSPost2010Prop38
140
0.0
102
RTVSPost2010PropOp38
 70
     1
102
RTVSPost2010Prop39
140
1.0
102
RTVSPost2010PropOp39
 70
     1
102
RTVSPost2010Prop40
 90
        0
102
RTVSPost2010PropOp40
 70
     1
102
RTVSPost2010Prop41ColorIndex
 90
       18
102
RTVSPost2010Prop41ColorRGB
 90
        0
102
RTVSPost2010PropOp41
 70
     1
102
RTVSPost2010Prop42
 90
       50
102
RTVSPost2010PropOp42
 70
     1
102
RTVSPost2010Prop43
 90
        3
102
RTVSPost2010PropOp43
 70
     1
102
RTVSPost2010Prop44ColorIndex
 90
        5
102
RTVSPost2010Prop44ColorRGB
 90
      255
102
RTVSPost2010PropOp44
 70
     1
102
RTVSPost2010Prop45
280
     0
102
RTVSPost2010PropOp45
 70
     1
102
RTVSPost2010Prop46
 90
       50
102
RTVSPost2010PropOp46
 70
     1
102
RTVSPost2010Prop47
 90
       50
102
RTVSPost2010PropOp47
 70
     1
102
RTVSPost2010Prop48
 90
       50
102
RTVSPost2010PropOp48
 70
     1
102
RTVSPost2010Prop49
280
     0
102
RTVSPost2010PropOp49
 70
     1
102
RTVSPost2010Prop50
 90
       50
102
RTVSPost2010PropOp50
 70
     1
102
RTVSPost2010Prop51ColorIndex
 90
      256
102
RTVSPost2010Prop51ColorRGB
 90
-16777216
102
RTVSPost2010PropOp51
 70
     0
102
RTVSPost2010Prop52
140
1.0
102
RTVSPost2010PropOp52
 70
     0
102
RTVSPost2010Prop53
 90
        2
102
RTVSPost2010PropOp53
 70
     1
102
RTVSPost2010Prop54
  1
strokes_ogs.tif
102
RTVSPost2010PropOp54
 70
     1
102
RTVSPost2010Prop55
280
     0
102
RTVSPost2010PropOp55
 70
     1
102
RTVSPost2010Prop56
140
1.0
102
RTVSPost2010PropOp56
 70
     1
102
RTVSPost2010Prop57
140
1.0
102
RTVSPost2010PropOp57
 70
     1
102
RTVSPropertyOp0
 70
     1
102
RTVSPropertyOp1
 70
     1
102
RTVSPropertyOp2
 70
     1
102
RTVSPropertyOp3
 70
     1
102
RTVSPropertyOp4
 70
     1
102
RTVSPropertyOp5
 70
     1
102
RTVSPropertyOp6
 70
     1
102
RTVSPropertyOp7
 70
     1
102
RTVSPropertyOp8
 70
     1
102
RTVSPropertyOp9
 70
     1
102
RTVSPropertyOp10
 70
     1
102
RTVSPropertyOp11
 70
     1
102
RTVSPropertyOp12
 70
     1
102
RTVSPropertyOp13
 70
     1
102
RTVSPropertyOp14
 70
     1
102
RTVSPropertyOp15
 70
     1
102
RTVSPropertyOp16
 70
     1
102
RTVSPropertyOp17
 70
     1
102
RTVSPropertyOp18
 70
     1
102
RTVSPropertyOp19
 70
     1
102
RTVSPropertyOp20
 70
     1
102
RTVSPropertyOp21
 70
     1
102
RTVSPropertyOp22
 70
     1
102
RTVSPropertyOp23
 70
     1
102
RTVSPropertyOp24
 70
     1
102
RTVSPropertyOp25
 70
     1
102
RTVSPropertyOp26
 70
     1
102
RTVSPropertyOp27
 70
     1
102
RTVSPropertyOp28
 70
     1
102
RTVSPropertyOp29
 70
     1
102
RTVSPropertyOp30
 70
     1
102
RTVSPropertyOp31
 70
     1
102
RTVSPropertyOp32
 70
     1
102
RTVSPropertyOp33
 70
     1
102
RTVSPropertyOp34
 70
     1
102
RTVSPropertyOp35
 70
     1
102
RTVSPropertyOp36
 70
     1
102
RTVSPropertyOp37
 70
     1
102
RTVSPropertyOp38
 70
     1
102
RTVSPropertyOp39
 70
     1
102
RTVSPropertyOp40
 70
     1
102
RTVSPropertyOp41
 70
     1
102
RTVSPropertyOp42
 70
     1
102
RTVSPropertyOp43
 70
     1
102
RTVSPropertyOp44
 70
     1
102
RTVSPropertyOp45
 70
     1
102
RTVSPropertyOp46
 70
     1
102
RTVSPropertyOp47
 70
     1
102
RTVSPropertyOp48
 70
     1
102
RTVSPropertyOp49
 70
     1
102
RTVSPropertyOp50
 70
     1
102
RTVSPropertyOp51
 70
     0
102
RTVSPropertyOp52
 70
     0
102
RTVSPropertyOp53
 70
     1
102
RTVSPropertyOp54
 70
     1
102
RTVSPropertyOp55
 70
     1
102
RTVSPropertyOp56
 70
     1
102
RTVSPropertyOp57
 70
     1
102
RTVSPropertyOp58
 70
     1
102
RTVSPropertyOp59
 70
     1
102
RTVSPropertyOp60
 70
     1
102
RTVSPropertyOp61
 70
     1
102
RTVSPropertyOp62
 70
     1
  0
XRECORD
  5
3F2
102
{ACAD_REACTORS
330
3F1
102
}
330
3F1
100
AcDbXrecord
280
     1
102
RTVSPost2010Prop28
280
     0
102
RTVSPost2010PropOp28
 70
     1
102
RTVSPost2010Prop29
280
     1
102
RTVSPost2010PropOp29
 70
     1
102
RTVSPost2010Prop30
280
     1
102
RTVSPost2010PropOp30
 70
     1
102
RTVSPost2010Prop31
280
     0
102
RTVSPost2010PropOp31
 70
     1
102
RTVSPost2010Prop32
280
     0
102
RTVSPost2010PropOp32
 70
     1
102
RTVSPost2010Prop33
280
     0
102
RTVSPost2010PropOp33
 70
     1
102
RTVSPost2010Prop34
280
     0
102
RTVSPost2010PropOp34
 70
     1
102
RTVSPost2010Prop35
280
     0
102
RTVSPost2010PropOp35
 70
     1
102
RTVSPost2010Prop36
280
     0
102
RTVSPost2010PropOp36
 70
     1
102
RTVSPost2010Prop37
 90
       50
102
RTVSPost2010PropOp37
 70
     1
102
RTVSPost2010Prop38
140
0.0
102
RTVSPost2010PropOp38
 70
     1
102
RTVSPost2010Prop39
140
1.0
102
RTVSPost2010PropOp39
 70
     1
102
RTVSPost2010Prop40
 90
        0
102
RTVSPost2010PropOp40
 70
     1
102
RTVSPost2010Prop41ColorIndex
 90
       18
102
RTVSPost2010Prop41ColorRGB
 90
        0
102
RTVSPost2010PropOp41
 70
     1
102
RTVSPost2010Prop42
 90
       50
102
RTVSPost2010PropOp42
 70
     1
102
RTVSPost2010Prop43
 90
        3
102
RTVSPost2010PropOp43
 70
     1
102
RTVSPost2010Prop44ColorIndex
 90
        5
102
RTVSPost2010Prop44ColorRGB
 90
      255
102
RTVSPost2010PropOp44
 70
     1
102
RTVSPost2010Prop45
280
     0
102
RTVSPost2010PropOp45
 70
     1
102
RTVSPost2010Prop46
 90
       50
102
RTVSPost2010PropOp46
 70
     1
102
RTVSPost2010Prop47
 90
       50
102
RTVSPost2010PropOp47
 70
     1
102
RTVSPost2010Prop48
 90
       50
102
RTVSPost2010PropOp48
 70
     1
102
RTVSPost2010Prop49
280
     0
102
RTVSPost2010PropOp49
 70
     1
102
RTVSPost2010Prop50
 90
       50
102
RTVSPost2010PropOp50
 70
     1
102
RTVSPost2010Prop51ColorIndex
 90
      256
102
RTVSPost2010Prop51ColorRGB
 90
-16777216
102
RTVSPost2010PropOp51
 70
     0
102
RTVSPost2010Prop52
140
1.0
102
RTVSPost2010PropOp52
 70
     0
102
RTVSPost2010Prop53
 90
        2
102
RTVSPost2010PropOp53
 70
     1
102
RTVSPost2010Prop54
  1
strokes_ogs.tif
102
RTVSPost2010PropOp54
 70
     1
102
RTVSPost2010Prop55
280
     0
102
RTVSPost2010PropOp55
 70
     1
102
RTVSPost2010Prop56
140
1.0
102
RTVSPost2010PropOp56
 70
     1
102
RTVSPost2010Prop57
140
1.0
102
RTVSPost2010PropOp57
 70
     1
102
RTVSPropertyOp0
 70
     1
102
RTVSPropertyOp1
 70
     1
102
RTVSPropertyOp2
 70
     1
102
RTVSPropertyOp3
 70
     1
102
RTVSPropertyOp4
 70
     1
102
RTVSPropertyOp5
 70
     1
102
RTVSPropertyOp6
 70
     1
102
RTVSPropertyOp7
 70
     1
102
RTVSPropertyOp8
 70
     1
102
RTVSPropertyOp9
 70
     1
102
RTVSPropertyOp10
 70
     1
102
RTVSPropertyOp11
 70
     1
102
RTVSPropertyOp12
 70
     1
102
RTVSPropertyOp13
 70
     1
102
RTVSPropertyOp14
 70
     1
102
RTVSPropertyOp15
 70
     1
102
RTVSPropertyOp16
 70
     1
102
RTVSPropertyOp17
 70
     1
102
RTVSPropertyOp18
 70
     1
102
RTVSPropertyOp19
 70
     1
102
RTVSPropertyOp20
 70
     1
102
RTVSPropertyOp21
 70
     1
102
RTVSPropertyOp22
 70
     1
102
RTVSPropertyOp23
 70
     1
102
RTVSPropertyOp24
 70
     1
102
RTVSPropertyOp25
 70
     1
102
RTVSPropertyOp26
 70
     1
102
RTVSPropertyOp27
 70
     1
102
RTVSPropertyOp28
 70
     1
102
RTVSPropertyOp29
 70
     1
102
RTVSPropertyOp30
 70
     1
102
RTVSPropertyOp31
 70
     1
102
RTVSPropertyOp32
 70
     1
102
RTVSPropertyOp33
 70
     1
102
RTVSPropertyOp34
 70
     1
102
RTVSPropertyOp35
 70
     1
102
RTVSPropertyOp36
 70
     1
102
RTVSPropertyOp37
 70
     1
102
RTVSPropertyOp38
 70
     1
102
RTVSPropertyOp39
 70
     1
102
RTVSPropertyOp40
 70
     1
102
RTVSPropertyOp41
 70
     1
102
RTVSPropertyOp42
 70
     1
102
RTVSPropertyOp43
 70
     1
102
RTVSPropertyOp44
 70
     1
102
RTVSPropertyOp45
 70
     1
102
RTVSPropertyOp46
 70
     1
102
RTVSPropertyOp47
 70
     1
102
RTVSPropertyOp48
 70
     1
102
RTVSPropertyOp49
 70
     1
102
RTVSPropertyOp50
 70
     1
102
RTVSPropertyOp51
 70
     0
102
RTVSPropertyOp52
 70
     0
102
RTVSPropertyOp53
 70
     1
102
RTVSPropertyOp54
 70
     1
102
RTVSPropertyOp55
 70
     1
102
RTVSPropertyOp56
 70
     1
102
RTVSPropertyOp57
 70
     1
102
RTVSPropertyOp58
 70
     1
102
RTVSPropertyOp59
 70
     1
102
RTVSPropertyOp60
 70
     1
102
RTVSPropertyOp61
 70
     1
102
RTVSPropertyOp62
 70
     1
  0
XRECORD
  5
3F0
102
{ACAD_REACTORS
330
3EF
102
}
330
3EF
100
AcDbXrecord
280
     1
102
RTVSPost2010Prop28
280
     0
102
RTVSPost2010PropOp28
 70
     1
102
RTVSPost2010Prop29
280
     1
102
RTVSPost2010PropOp29
 70
     1
102
RTVSPost2010Prop30
280
     1
102
RTVSPost2010PropOp30
 70
     1
102
RTVSPost2010Prop31
280
     0
102
RTVSPost2010PropOp31
 70
     1
102
RTVSPost2010Prop32
280
     0
102
RTVSPost2010PropOp32
 70
     1
102
RTVSPost2010Prop33
280
     0
102
RTVSPost2010PropOp33
 70
     1
102
RTVSPost2010Prop34
280
     0
102
RTVSPost2010PropOp34
 70
     1
102
RTVSPost2010Prop35
280
     0
102
RTVSPost2010PropOp35
 70
     1
102
RTVSPost2010Prop36
280
     0
102
RTVSPost2010PropOp36
 70
     1
102
RTVSPost2010Prop37
 90
       50
102
RTVSPost2010PropOp37
 70
     1
102
RTVSPost2010Prop38
140
0.0
102
RTVSPost2010PropOp38
 70
     1
102
RTVSPost2010Prop39
140
1.0
102
RTVSPost2010PropOp39
 70
     1
102
RTVSPost2010Prop40
 90
        0
102
RTVSPost2010PropOp40
 70
     1
102
RTVSPost2010Prop41ColorIndex
 90
       18
102
RTVSPost2010Prop41ColorRGB
 90
        0
102
RTVSPost2010PropOp41
 70
     1
102
RTVSPost2010Prop42
 90
       50
102
RTVSPost2010PropOp42
 70
     1
102
RTVSPost2010Prop43
 90
        3
102
RTVSPost2010PropOp43
 70
     1
102
RTVSPost2010Prop44ColorIndex
 90
        5
102
RTVSPost2010Prop44ColorRGB
 90
      255
102
RTVSPost2010PropOp44
 70
     1
102
RTVSPost2010Prop45
280
     0
102
RTVSPost2010PropOp45
 70
     1
102
RTVSPost2010Prop46
 90
       50
102
RTVSPost2010PropOp46
 70
     1
102
RTVSPost2010Prop47
 90
       50
102
RTVSPost2010PropOp47
 70
     1
102
RTVSPost2010Prop48
 90
       50
102
RTVSPost2010PropOp48
 70
     1
102
RTVSPost2010Prop49
280
     0
102
RTVSPost2010PropOp49
 70
     1
102
RTVSPost2010Prop50
 90
       50
102
RTVSPost2010PropOp50
 70
     1
102
RTVSPost2010Prop51ColorIndex
 90
      256
102
RTVSPost2010Prop51ColorRGB
 90
-16777216
102
RTVSPost2010PropOp51
 70
     0
102
RTVSPost2010Prop52
140
1.0
102
RTVSPost2010PropOp52
 70
     0
102
RTVSPost2010Prop53
 90
        2
102
RTVSPost2010PropOp53
 70
     1
102
RTVSPost2010Prop54
  1
strokes_ogs.tif
102
RTVSPost2010PropOp54
 70
     1
102
RTVSPost2010Prop55
280
     0
102
RTVSPost2010PropOp55
 70
     1
102
RTVSPost2010Prop56
140
1.0
102
RTVSPost2010PropOp56
 70
     1
102
RTVSPost2010Prop57
140
1.0
102
RTVSPost2010PropOp57
 70
     1
102
RTVSPropertyOp0
 70
     1
102
RTVSPropertyOp1
 70
     1
102
RTVSPropertyOp2
 70
     1
102
RTVSPropertyOp3
 70
     1
102
RTVSPropertyOp4
 70
     1
102
RTVSPropertyOp5
 70
     1
102
RTVSPropertyOp6
 70
     1
102
RTVSPropertyOp7
 70
     1
102
RTVSPropertyOp8
 70
     1
102
RTVSPropertyOp9
 70
     1
102
RTVSPropertyOp10
 70
     1
102
RTVSPropertyOp11
 70
     1
102
RTVSPropertyOp12
 70
     1
102
RTVSPropertyOp13
 70
     1
102
RTVSPropertyOp14
 70
     1
102
RTVSPropertyOp15
 70
     1
102
RTVSPropertyOp16
 70
     1
102
RTVSPropertyOp17
 70
     1
102
RTVSPropertyOp18
 70
     1
102
RTVSPropertyOp19
 70
     1
102
RTVSPropertyOp20
 70
     1
102
RTVSPropertyOp21
 70
     1
102
RTVSPropertyOp22
 70
     1
102
RTVSPropertyOp23
 70
     1
102
RTVSPropertyOp24
 70
     1
102
RTVSPropertyOp25
 70
     1
102
RTVSPropertyOp26
 70
     1
102
RTVSPropertyOp27
 70
     1
102
RTVSPropertyOp28
 70
     1
102
RTVSPropertyOp29
 70
     1
102
RTVSPropertyOp30
 70
     1
102
RTVSPropertyOp31
 70
     1
102
RTVSPropertyOp32
 70
     1
102
RTVSPropertyOp33
 70
     1
102
RTVSPropertyOp34
 70
     1
102
RTVSPropertyOp35
 70
     1
102
RTVSPropertyOp36
 70
     1
102
RTVSPropertyOp37
 70
     1
102
RTVSPropertyOp38
 70
     1
102
RTVSPropertyOp39
 70
     1
102
RTVSPropertyOp40
 70
     1
102
RTVSPropertyOp41
 70
     1
102
RTVSPropertyOp42
 70
     1
102
RTVSPropertyOp43
 70
     1
102
RTVSPropertyOp44
 70
     1
102
RTVSPropertyOp45
 70
     1
102
RTVSPropertyOp46
 70
     1
102
RTVSPropertyOp47
 70
     1
102
RTVSPropertyOp48
 70
     1
102
RTVSPropertyOp49
 70
     1
102
RTVSPropertyOp50
 70
     1
102
RTVSPropertyOp51
 70
     0
102
RTVSPropertyOp52
 70
     0
102
RTVSPropertyOp53
 70
     1
102
RTVSPropertyOp54
 70
     1
102
RTVSPropertyOp55
 70
     1
102
RTVSPropertyOp56
 70
     1
102
RTVSPropertyOp57
 70
     1
102
RTVSPropertyOp58
 70
     1
102
RTVSPropertyOp59
 70
     1
102
RTVSPropertyOp60
 70
     1
102
RTVSPropertyOp61
 70
     1
102
RTVSPropertyOp62
 70
     1
  0
XRECORD
  5
3EA
102
{ACAD_REACTORS
330
3E9
102
}
330
3E9
100
AcDbXrecord
280
     1
102
RTVSPost2010Prop28
280
     0
102
RTVSPost2010PropOp28
 70
     1
102
RTVSPost2010Prop29
280
     1
102
RTVSPost2010PropOp29
 70
     1
102
RTVSPost2010Prop30
280
     1
102
RTVSPost2010PropOp30
 70
     1
102
RTVSPost2010Prop31
280
     0
102
RTVSPost2010PropOp31
 70
     1
102
RTVSPost2010Prop32
280
     0
102
RTVSPost2010PropOp32
 70
     1
102
RTVSPost2010Prop33
280
     0
102
RTVSPost2010PropOp33
 70
     1
102
RTVSPost2010Prop34
280
     0
102
RTVSPost2010PropOp34
 70
     1
102
RTVSPost2010Prop35
280
     0
102
RTVSPost2010PropOp35
 70
     1
102
RTVSPost2010Prop36
280
     0
102
RTVSPost2010PropOp36
 70
     1
102
RTVSPost2010Prop37
 90
       50
102
RTVSPost2010PropOp37
 70
     1
102
RTVSPost2010Prop38
140
0.0
102
RTVSPost2010PropOp38
 70
     1
102
RTVSPost2010Prop39
140
1.0
102
RTVSPost2010PropOp39
 70
     1
102
RTVSPost2010Prop40
 90
        0
102
RTVSPost2010PropOp40
 70
     1
102
RTVSPost2010Prop41ColorIndex
 90
       18
102
RTVSPost2010Prop41ColorRGB
 90
        0
102
RTVSPost2010PropOp41
 70
     1
102
RTVSPost2010Prop42
 90
       50
102
RTVSPost2010PropOp42
 70
     1
102
RTVSPost2010Prop43
 90
        3
102
RTVSPost2010PropOp43
 70
     1
102
RTVSPost2010Prop44ColorIndex
 90
        5
102
RTVSPost2010Prop44ColorRGB
 90
      255
102
RTVSPost2010PropOp44
 70
     1
102
RTVSPost2010Prop45
280
     0
102
RTVSPost2010PropOp45
 70
     1
102
RTVSPost2010Prop46
 90
       50
102
RTVSPost2010PropOp46
 70
     1
102
RTVSPost2010Prop47
 90
       50
102
RTVSPost2010PropOp47
 70
     1
102
RTVSPost2010Prop48
 90
       50
102
RTVSPost2010PropOp48
 70
     1
102
RTVSPost2010Prop49
280
     0
102
RTVSPost2010PropOp49
 70
     1
102
RTVSPost2010Prop50
 90
       50
102
RTVSPost2010PropOp50
 70
     1
102
RTVSPost2010Prop51ColorIndex
 90
      256
102
RTVSPost2010Prop51ColorRGB
 90
-16777216
102
RTVSPost2010PropOp51
 70
     0
102
RTVSPost2010Prop52
140
1.0
102
RTVSPost2010PropOp52
 70
     0
102
RTVSPost2010Prop53
 90
        2
102
RTVSPost2010PropOp53
 70
     1
102
RTVSPost2010Prop54
  1
strokes_ogs.tif
102
RTVSPost2010PropOp54
 70
     1
102
RTVSPost2010Prop55
280
     0
102
RTVSPost2010PropOp55
 70
     1
102
RTVSPost2010Prop56
140
1.0
102
RTVSPost2010PropOp56
 70
     1
102
RTVSPost2010Prop57
140
1.0
102
RTVSPost2010PropOp57
 70
     1
102
RTVSPropertyOp0
 70
     1
102
RTVSPropertyOp1
 70
     1
102
RTVSPropertyOp2
 70
     1
102
RTVSPropertyOp3
 70
     1
102
RTVSPropertyOp4
 70
     1
102
RTVSPropertyOp5
 70
     1
102
RTVSPropertyOp6
 70
     1
102
RTVSPropertyOp7
 70
     1
102
RTVSPropertyOp8
 70
     1
102
RTVSPropertyOp9
 70
     1
102
RTVSPropertyOp10
 70
     1
102
RTVSPropertyOp11
 70
     1
102
RTVSPropertyOp12
 70
     1
102
RTVSPropertyOp13
 70
     1
102
RTVSPropertyOp14
 70
     1
102
RTVSPropertyOp15
 70
     1
102
RTVSPropertyOp16
 70
     1
102
RTVSPropertyOp17
 70
     1
102
RTVSPropertyOp18
 70
     1
102
RTVSPropertyOp19
 70
     1
102
RTVSPropertyOp20
 70
     1
102
RTVSPropertyOp21
 70
     1
102
RTVSPropertyOp22
 70
     1
102
RTVSPropertyOp23
 70
     1
102
RTVSPropertyOp24
 70
     1
102
RTVSPropertyOp25
 70
     1
102
RTVSPropertyOp26
 70
     1
102
RTVSPropertyOp27
 70
     1
102
RTVSPropertyOp28
 70
     1
102
RTVSPropertyOp29
 70
     1
102
RTVSPropertyOp30
 70
     1
102
RTVSPropertyOp31
 70
     1
102
RTVSPropertyOp32
 70
     1
102
RTVSPropertyOp33
 70
     1
102
RTVSPropertyOp34
 70
     1
102
RTVSPropertyOp35
 70
     1
102
RTVSPropertyOp36
 70
     1
102
RTVSPropertyOp37
 70
     1
102
RTVSPropertyOp38
 70
     1
102
RTVSPropertyOp39
 70
     1
102
RTVSPropertyOp40
 70
     1
102
RTVSPropertyOp41
 70
     1
102
RTVSPropertyOp42
 70
     1
102
RTVSPropertyOp43
 70
     1
102
RTVSPropertyOp44
 70
     1
102
RTVSPropertyOp45
 70
     1
102
RTVSPropertyOp46
 70
     1
102
RTVSPropertyOp47
 70
     1
102
RTVSPropertyOp48
 70
     1
102
RTVSPropertyOp49
 70
     1
102
RTVSPropertyOp50
 70
     1
102
RTVSPropertyOp51
 70
     0
102
RTVSPropertyOp52
 70
     0
102
RTVSPropertyOp53
 70
     1
102
RTVSPropertyOp54
 70
     1
102
RTVSPropertyOp55
 70
     1
102
RTVSPropertyOp56
 70
     1
102
RTVSPropertyOp57
 70
     1
102
RTVSPropertyOp58
 70
     1
102
RTVSPropertyOp59
 70
     1
102
RTVSPropertyOp60
 70
     1
102
RTVSPropertyOp61
 70
     1
102
RTVSPropertyOp62
 70
     1
  0
XRECORD
  5
3EC
102
{ACAD_REACTORS
330
3EB
102
}
330
3EB
100
AcDbXrecord
280
     1
102
RTVSPost2010Prop28
280
     0
102
RTVSPost2010PropOp28
 70
     1
102
RTVSPost2010Prop29
280
     1
102
RTVSPost2010PropOp29
 70
     1
102
RTVSPost2010Prop30
280
     1
102
RTVSPost2010PropOp30
 70
     1
102
RTVSPost2010Prop31
280
     0
102
RTVSPost2010PropOp31
 70
     1
102
RTVSPost2010Prop32
280
     0
102
RTVSPost2010PropOp32
 70
     1
102
RTVSPost2010Prop33
280
     0
102
RTVSPost2010PropOp33
 70
     1
102
RTVSPost2010Prop34
280
     0
102
RTVSPost2010PropOp34
 70
     1
102
RTVSPost2010Prop35
280
     0
102
RTVSPost2010PropOp35
 70
     1
102
RTVSPost2010Prop36
280
     0
102
RTVSPost2010PropOp36
 70
     1
102
RTVSPost2010Prop37
 90
       50
102
RTVSPost2010PropOp37
 70
     1
102
RTVSPost2010Prop38
140
0.0
102
RTVSPost2010PropOp38
 70
     1
102
RTVSPost2010Prop39
140
1.0
102
RTVSPost2010PropOp39
 70
     1
102
RTVSPost2010Prop40
 90
        0
102
RTVSPost2010PropOp40
 70
     1
102
RTVSPost2010Prop41ColorIndex
 90
       18
102
RTVSPost2010Prop41ColorRGB
 90
        0
102
RTVSPost2010PropOp41
 70
     1
102
RTVSPost2010Prop42
 90
       50
102
RTVSPost2010PropOp42
 70
     1
102
RTVSPost2010Prop43
 90
        3
102
RTVSPost2010PropOp43
 70
     1
102
RTVSPost2010Prop44ColorIndex
 90
        5
102
RTVSPost2010Prop44ColorRGB
 90
      255
102
RTVSPost2010PropOp44
 70
     1
102
RTVSPost2010Prop45
280
     0
102
RTVSPost2010PropOp45
 70
     1
102
RTVSPost2010Prop46
 90
       50
102
RTVSPost2010PropOp46
 70
     1
102
RTVSPost2010Prop47
 90
       50
102
RTVSPost2010PropOp47
 70
     1
102
RTVSPost2010Prop48
 90
       50
102
RTVSPost2010PropOp48
 70
     1
102
RTVSPost2010Prop49
280
     0
102
RTVSPost2010PropOp49
 70
     1
102
RTVSPost2010Prop50
 90
       50
102
RTVSPost2010PropOp50
 70
     1
102
RTVSPost2010Prop51ColorIndex
 90
      256
102
RTVSPost2010Prop51ColorRGB
 90
-16777216
102
RTVSPost2010PropOp51
 70
     0
102
RTVSPost2010Prop52
140
1.0
102
RTVSPost2010PropOp52
 70
     0
102
RTVSPost2010Prop53
 90
        2
102
RTVSPost2010PropOp53
 70
     1
102
RTVSPost2010Prop54
  1
strokes_ogs.tif
102
RTVSPost2010PropOp54
 70
     1
102
RTVSPost2010Prop55
280
     0
102
RTVSPost2010PropOp55
 70
     1
102
RTVSPost2010Prop56
140
1.0
102
RTVSPost2010PropOp56
 70
     1
102
RTVSPost2010Prop57
140
1.0
102
RTVSPost2010PropOp57
 70
     1
102
RTVSPropertyOp0
 70
     1
102
RTVSPropertyOp1
 70
     1
102
RTVSPropertyOp2
 70
     1
102
RTVSPropertyOp3
 70
     1
102
RTVSPropertyOp4
 70
     1
102
RTVSPropertyOp5
 70
     1
102
RTVSPropertyOp6
 70
     1
102
RTVSPropertyOp7
 70
     1
102
RTVSPropertyOp8
 70
     1
102
RTVSPropertyOp9
 70
     1
102
RTVSPropertyOp10
 70
     1
102
RTVSPropertyOp11
 70
     1
102
RTVSPropertyOp12
 70
     1
102
RTVSPropertyOp13
 70
     1
102
RTVSPropertyOp14
 70
     1
102
RTVSPropertyOp15
 70
     1
102
RTVSPropertyOp16
 70
     1
102
RTVSPropertyOp17
 70
     1
102
RTVSPropertyOp18
 70
     1
102
RTVSPropertyOp19
 70
     1
102
RTVSPropertyOp20
 70
     1
102
RTVSPropertyOp21
 70
     1
102
RTVSPropertyOp22
 70
     1
102
RTVSPropertyOp23
 70
     1
102
RTVSPropertyOp24
 70
     1
102
RTVSPropertyOp25
 70
     1
102
RTVSPropertyOp26
 70
     1
102
RTVSPropertyOp27
 70
     1
102
RTVSPropertyOp28
 70
     1
102
RTVSPropertyOp29
 70
     1
102
RTVSPropertyOp30
 70
     1
102
RTVSPropertyOp31
 70
     1
102
RTVSPropertyOp32
 70
     1
102
RTVSPropertyOp33
 70
     1
102
RTVSPropertyOp34
 70
     1
102
RTVSPropertyOp35
 70
     1
102
RTVSPropertyOp36
 70
     1
102
RTVSPropertyOp37
 70
     1
102
RTVSPropertyOp38
 70
     1
102
RTVSPropertyOp39
 70
     1
102
RTVSPropertyOp40
 70
     1
102
RTVSPropertyOp41
 70
     1
102
RTVSPropertyOp42
 70
     1
102
RTVSPropertyOp43
 70
     1
102
RTVSPropertyOp44
 70
     1
102
RTVSPropertyOp45
 70
     1
102
RTVSPropertyOp46
 70
     1
102
RTVSPropertyOp47
 70
     1
102
RTVSPropertyOp48
 70
     1
102
RTVSPropertyOp49
 70
     1
102
RTVSPropertyOp50
 70
     1
102
RTVSPropertyOp51
 70
     0
102
RTVSPropertyOp52
 70
     0
102
RTVSPropertyOp53
 70
     1
102
RTVSPropertyOp54
 70
     1
102
RTVSPropertyOp55
 70
     1
102
RTVSPropertyOp56
 70
     1
102
RTVSPropertyOp57
 70
     1
102
RTVSPropertyOp58
 70
     1
102
RTVSPropertyOp59
 70
     1
102
RTVSPropertyOp60
 70
     1
102
RTVSPropertyOp61
 70
     1
102
RTVSPropertyOp62
 70
     1
  0
XRECORD
  5
3DC
102
{ACAD_REACTORS
330
3DB
102
}
330
3DB
100
AcDbXrecord
280
     1
102
RTVSPost2010Prop28
280
     0
102
RTVSPost2010PropOp28
 70
     1
102
RTVSPost2010Prop29
280
     1
102
RTVSPost2010PropOp29
 70
     1
102
RTVSPost2010Prop30
280
     1
102
RTVSPost2010PropOp30
 70
     1
102
RTVSPost2010Prop31
280
     0
102
RTVSPost2010PropOp31
 70
     1
102
RTVSPost2010Prop32
280
     0
102
RTVSPost2010PropOp32
 70
     1
102
RTVSPost2010Prop33
280
     0
102
RTVSPost2010PropOp33
 70
     1
102
RTVSPost2010Prop34
280
     0
102
RTVSPost2010PropOp34
 70
     1
102
RTVSPost2010Prop35
280
     0
102
RTVSPost2010PropOp35
 70
     1
102
RTVSPost2010Prop36
280
     0
102
RTVSPost2010PropOp36
 70
     1
102
RTVSPost2010Prop37
 90
       50
102
RTVSPost2010PropOp37
 70
     1
102
RTVSPost2010Prop38
140
0.0
102
RTVSPost2010PropOp38
 70
     1
102
RTVSPost2010Prop39
140
1.0
102
RTVSPost2010PropOp39
 70
     1
102
RTVSPost2010Prop40
 90
        0
102
RTVSPost2010PropOp40
 70
     1
102
RTVSPost2010Prop41ColorIndex
 90
       18
102
RTVSPost2010Prop41ColorRGB
 90
        0
102
RTVSPost2010PropOp41
 70
     1
102
RTVSPost2010Prop42
 90
       50
102
RTVSPost2010PropOp42
 70
     1
102
RTVSPost2010Prop43
 90
        3
102
RTVSPost2010PropOp43
 70
     1
102
RTVSPost2010Prop44ColorIndex
 90
        5
102
RTVSPost2010Prop44ColorRGB
 90
      255
102
RTVSPost2010PropOp44
 70
     1
102
RTVSPost2010Prop45
280
     0
102
RTVSPost2010PropOp45
 70
     1
102
RTVSPost2010Prop46
 90
       50
102
RTVSPost2010PropOp46
 70
     1
102
RTVSPost2010Prop47
 90
       50
102
RTVSPost2010PropOp47
 70
     1
102
RTVSPost2010Prop48
 90
       50
102
RTVSPost2010PropOp48
 70
     1
102
RTVSPost2010Prop49
280
     0
102
RTVSPost2010PropOp49
 70
     1
102
RTVSPost2010Prop50
 90
       50
102
RTVSPost2010PropOp50
 70
     1
102
RTVSPost2010Prop51ColorIndex
 90
      256
102
RTVSPost2010Prop51ColorRGB
 90
-16777216
102
RTVSPost2010PropOp51
 70
     0
102
RTVSPost2010Prop52
140
1.0
102
RTVSPost2010PropOp52
 70
     0
102
RTVSPost2010Prop53
 90
        2
102
RTVSPost2010PropOp53
 70
     1
102
RTVSPost2010Prop54
  1
strokes_ogs.tif
102
RTVSPost2010PropOp54
 70
     1
102
RTVSPost2010Prop55
280
     0
102
RTVSPost2010PropOp55
 70
     1
102
RTVSPost2010Prop56
140
1.0
102
RTVSPost2010PropOp56
 70
     1
102
RTVSPost2010Prop57
140
1.0
102
RTVSPost2010PropOp57
 70
     1
102
RTVSPropertyOp0
 70
     1
102
RTVSPropertyOp1
 70
     1
102
RTVSPropertyOp2
 70
     1
102
RTVSPropertyOp3
 70
     1
102
RTVSPropertyOp4
 70
     1
102
RTVSPropertyOp5
 70
     1
102
RTVSPropertyOp6
 70
     1
102
RTVSPropertyOp7
 70
     1
102
RTVSPropertyOp8
 70
     1
102
RTVSPropertyOp9
 70
     1
102
RTVSPropertyOp10
 70
     1
102
RTVSPropertyOp11
 70
     1
102
RTVSPropertyOp12
 70
     1
102
RTVSPropertyOp13
 70
     1
102
RTVSPropertyOp14
 70
     1
102
RTVSPropertyOp15
 70
     1
102
RTVSPropertyOp16
 70
     1
102
RTVSPropertyOp17
 70
     1
102
RTVSPropertyOp18
 70
     1
102
RTVSPropertyOp19
 70
     1
102
RTVSPropertyOp20
 70
     1
102
RTVSPropertyOp21
 70
     1
102
RTVSPropertyOp22
 70
     1
102
RTVSPropertyOp23
 70
     1
102
RTVSPropertyOp24
 70
     1
102
RTVSPropertyOp25
 70
     1
102
RTVSPropertyOp26
 70
     1
102
RTVSPropertyOp27
 70
     1
102
RTVSPropertyOp28
 70
     1
102
RTVSPropertyOp29
 70
     1
102
RTVSPropertyOp30
 70
     1
102
RTVSPropertyOp31
 70
     1
102
RTVSPropertyOp32
 70
     1
102
RTVSPropertyOp33
 70
     1
102
RTVSPropertyOp34
 70
     1
102
RTVSPropertyOp35
 70
     1
102
RTVSPropertyOp36
 70
     1
102
RTVSPropertyOp37
 70
     1
102
RTVSPropertyOp38
 70
     1
102
RTVSPropertyOp39
 70
     1
102
RTVSPropertyOp40
 70
     1
102
RTVSPropertyOp41
 70
     1
102
RTVSPropertyOp42
 70
     1
102
RTVSPropertyOp43
 70
     1
102
RTVSPropertyOp44
 70
     1
102
RTVSPropertyOp45
 70
     1
102
RTVSPropertyOp46
 70
     1
102
RTVSPropertyOp47
 70
     1
102
RTVSPropertyOp48
 70
     1
102
RTVSPropertyOp49
 70
     1
102
RTVSPropertyOp50
 70
     1
102
RTVSPropertyOp51
 70
     0
102
RTVSPropertyOp52
 70
     0
102
RTVSPropertyOp53
 70
     1
102
RTVSPropertyOp54
 70
     1
102
RTVSPropertyOp55
 70
     1
102
RTVSPropertyOp56
 70
     1
102
RTVSPropertyOp57
 70
     1
102
RTVSPropertyOp58
 70
     1
102
RTVSPropertyOp59
 70
     1
102
RTVSPropertyOp60
 70
     1
102
RTVSPropertyOp61
 70
     1
102
RTVSPropertyOp62
 70
     1
  0
XRECORD
  5
3CE
102
{ACAD_REACTORS
330
3CD
102
}
330
3CD
100
AcDbXrecord
280
     1
102
RTVSPost2010Prop28
280
     0
102
RTVSPost2010PropOp28
 70
     1
102
RTVSPost2010Prop29
280
     1
102
RTVSPost2010PropOp29
 70
     1
102
RTVSPost2010Prop30
280
     1
102
RTVSPost2010PropOp30
 70
     1
102
RTVSPost2010Prop31
280
     0
102
RTVSPost2010PropOp31
 70
     1
102
RTVSPost2010Prop32
280
     0
102
RTVSPost2010PropOp32
 70
     1
102
RTVSPost2010Prop33
280
     0
102
RTVSPost2010PropOp33
 70
     1
102
RTVSPost2010Prop34
280
     0
102
RTVSPost2010PropOp34
 70
     1
102
RTVSPost2010Prop35
280
     0
102
RTVSPost2010PropOp35
 70
     1
102
RTVSPost2010Prop36
280
     0
102
RTVSPost2010PropOp36
 70
     1
102
RTVSPost2010Prop37
 90
       50
102
RTVSPost2010PropOp37
 70
     1
102
RTVSPost2010Prop38
140
0.0
102
RTVSPost2010PropOp38
 70
     1
102
RTVSPost2010Prop39
140
1.0
102
RTVSPost2010PropOp39
 70
     1
102
RTVSPost2010Prop40
 90
        0
102
RTVSPost2010PropOp40
 70
     1
102
RTVSPost2010Prop41ColorIndex
 90
       18
102
RTVSPost2010Prop41ColorRGB
 90
        0
102
RTVSPost2010PropOp41
 70
     1
102
RTVSPost2010Prop42
 90
       50
102
RTVSPost2010PropOp42
 70
     1
102
RTVSPost2010Prop43
 90
        3
102
RTVSPost2010PropOp43
 70
     1
102
RTVSPost2010Prop44ColorIndex
 90
        5
102
RTVSPost2010Prop44ColorRGB
 90
      255
102
RTVSPost2010PropOp44
 70
     1
102
RTVSPost2010Prop45
280
     0
102
RTVSPost2010PropOp45
 70
     1
102
RTVSPost2010Prop46
 90
       50
102
RTVSPost2010PropOp46
 70
     1
102
RTVSPost2010Prop47
 90
       50
102
RTVSPost2010PropOp47
 70
     1
102
RTVSPost2010Prop48
 90
       50
102
RTVSPost2010PropOp48
 70
     1
102
RTVSPost2010Prop49
280
     0
102
RTVSPost2010PropOp49
 70
     1
102
RTVSPost2010Prop50
 90
       50
102
RTVSPost2010PropOp50
 70
     1
102
RTVSPost2010Prop51ColorIndex
 90
      256
102
RTVSPost2010Prop51ColorRGB
 90
-16777216
102
RTVSPost2010PropOp51
 70
     0
102
RTVSPost2010Prop52
140
1.0
102
RTVSPost2010PropOp52
 70
     0
102
RTVSPost2010Prop53
 90
        2
102
RTVSPost2010PropOp53
 70
     1
102
RTVSPost2010Prop54
  1
strokes_ogs.tif
102
RTVSPost2010PropOp54
 70
     1
102
RTVSPost2010Prop55
280
     0
102
RTVSPost2010PropOp55
 70
     1
102
RTVSPost2010Prop56
140
1.0
102
RTVSPost2010PropOp56
 70
     1
102
RTVSPost2010Prop57
140
1.0
102
RTVSPost2010PropOp57
 70
     1
102
RTVSPropertyOp0
 70
     1
102
RTVSPropertyOp1
 70
     1
102
RTVSPropertyOp2
 70
     1
102
RTVSPropertyOp3
 70
     1
102
RTVSPropertyOp4
 70
     1
102
RTVSPropertyOp5
 70
     1
102
RTVSPropertyOp6
 70
     1
102
RTVSPropertyOp7
 70
     1
102
RTVSPropertyOp8
 70
     1
102
RTVSPropertyOp9
 70
     1
102
RTVSPropertyOp10
 70
     1
102
RTVSPropertyOp11
 70
     1
102
RTVSPropertyOp12
 70
     1
102
RTVSPropertyOp13
 70
     1
102
RTVSPropertyOp14
 70
     1
102
RTVSPropertyOp15
 70
     1
102
RTVSPropertyOp16
 70
     1
102
RTVSPropertyOp17
 70
     1
102
RTVSPropertyOp18
 70
     1
102
RTVSPropertyOp19
 70
     1
102
RTVSPropertyOp20
 70
     1
102
RTVSPropertyOp21
 70
     1
102
RTVSPropertyOp22
 70
     1
102
RTVSPropertyOp23
 70
     1
102
RTVSPropertyOp24
 70
     1
102
RTVSPropertyOp25
 70
     1
102
RTVSPropertyOp26
 70
     1
102
RTVSPropertyOp27
 70
     1
102
RTVSPropertyOp28
 70
     1
102
RTVSPropertyOp29
 70
     1
102
RTVSPropertyOp30
 70
     1
102
RTVSPropertyOp31
 70
     1
102
RTVSPropertyOp32
 70
     1
102
RTVSPropertyOp33
 70
     1
102
RTVSPropertyOp34
 70
     1
102
RTVSPropertyOp35
 70
     1
102
RTVSPropertyOp36
 70
     1
102
RTVSPropertyOp37
 70
     1
102
RTVSPropertyOp38
 70
     1
102
RTVSPropertyOp39
 70
     1
102
RTVSPropertyOp40
 70
     1
102
RTVSPropertyOp41
 70
     1
102
RTVSPropertyOp42
 70
     1
102
RTVSPropertyOp43
 70
     1
102
RTVSPropertyOp44
 70
     1
102
RTVSPropertyOp45
 70
     1
102
RTVSPropertyOp46
 70
     1
102
RTVSPropertyOp47
 70
     1
102
RTVSPropertyOp48
 70
     1
102
RTVSPropertyOp49
 70
     1
102
RTVSPropertyOp50
 70
     1
102
RTVSPropertyOp51
 70
     0
102
RTVSPropertyOp52
 70
     0
102
RTVSPropertyOp53
 70
     1
102
RTVSPropertyOp54
 70
     1
102
RTVSPropertyOp55
 70
     1
102
RTVSPropertyOp56
 70
     1
102
RTVSPropertyOp57
 70
     1
102
RTVSPropertyOp58
 70
     1
102
RTVSPropertyOp59
 70
     1
102
RTVSPropertyOp60
 70
     1
102
RTVSPropertyOp61
 70
     1
102
RTVSPropertyOp62
 70
     1
  0
XRECORD
  5
3EE
102
{ACAD_REACTORS
330
3ED
102
}
330
3ED
100
AcDbXrecord
280
     1
102
RTVSPost2010Prop28
280
     0
102
RTVSPost2010PropOp28
 70
     1
102
RTVSPost2010Prop29
280
     1
102
RTVSPost2010PropOp29
 70
     1
102
RTVSPost2010Prop30
280
     1
102
RTVSPost2010PropOp30
 70
     1
102
RTVSPost2010Prop31
280
     0
102
RTVSPost2010PropOp31
 70
     1
102
RTVSPost2010Prop32
280
     0
102
RTVSPost2010PropOp32
 70
     1
102
RTVSPost2010Prop33
280
     0
102
RTVSPost2010PropOp33
 70
     1
102
RTVSPost2010Prop34
280
     0
102
RTVSPost2010PropOp34
 70
     1
102
RTVSPost2010Prop35
280
     0
102
RTVSPost2010PropOp35
 70
     1
102
RTVSPost2010Prop36
280
     0
102
RTVSPost2010PropOp36
 70
     1
102
RTVSPost2010Prop37
 90
       50
102
RTVSPost2010PropOp37
 70
     1
102
RTVSPost2010Prop38
140
0.0
102
RTVSPost2010PropOp38
 70
     1
102
RTVSPost2010Prop39
140
1.0
102
RTVSPost2010PropOp39
 70
     1
102
RTVSPost2010Prop40
 90
        0
102
RTVSPost2010PropOp40
 70
     1
102
RTVSPost2010Prop41ColorIndex
 90
       18
102
RTVSPost2010Prop41ColorRGB
 90
        0
102
RTVSPost2010PropOp41
 70
     1
102
RTVSPost2010Prop42
 90
       50
102
RTVSPost2010PropOp42
 70
     1
102
RTVSPost2010Prop43
 90
        3
102
RTVSPost2010PropOp43
 70
     1
102
RTVSPost2010Prop44ColorIndex
 90
        5
102
RTVSPost2010Prop44ColorRGB
 90
      255
102
RTVSPost2010PropOp44
 70
     1
102
RTVSPost2010Prop45
280
     0
102
RTVSPost2010PropOp45
 70
     1
102
RTVSPost2010Prop46
 90
       50
102
RTVSPost2010PropOp46
 70
     1
102
RTVSPost2010Prop47
 90
       50
102
RTVSPost2010PropOp47
 70
     1
102
RTVSPost2010Prop48
 90
       50
102
RTVSPost2010PropOp48
 70
     1
102
RTVSPost2010Prop49
280
     0
102
RTVSPost2010PropOp49
 70
     1
102
RTVSPost2010Prop50
 90
       50
102
RTVSPost2010PropOp50
 70
     1
102
RTVSPost2010Prop51ColorIndex
 90
      256
102
RTVSPost2010Prop51ColorRGB
 90
-16777216
102
RTVSPost2010PropOp51
 70
     0
102
RTVSPost2010Prop52
140
1.0
102
RTVSPost2010PropOp52
 70
     0
102
RTVSPost2010Prop53
 90
        2
102
RTVSPost2010PropOp53
 70
     1
102
RTVSPost2010Prop54
  1
strokes_ogs.tif
102
RTVSPost2010PropOp54
 70
     1
102
RTVSPost2010Prop55
280
     0
102
RTVSPost2010PropOp55
 70
     1
102
RTVSPost2010Prop56
140
1.0
102
RTVSPost2010PropOp56
 70
     1
102
RTVSPost2010Prop57
140
1.0
102
RTVSPost2010PropOp57
 70
     1
102
RTVSPropertyOp0
 70
     1
102
RTVSPropertyOp1
 70
     1
102
RTVSPropertyOp2
 70
     1
102
RTVSPropertyOp3
 70
     1
102
RTVSPropertyOp4
 70
     1
102
RTVSPropertyOp5
 70
     1
102
RTVSPropertyOp6
 70
     1
102
RTVSPropertyOp7
 70
     1
102
RTVSPropertyOp8
 70
     1
102
RTVSPropertyOp9
 70
     1
102
RTVSPropertyOp10
 70
     1
102
RTVSPropertyOp11
 70
     1
102
RTVSPropertyOp12
 70
     1
102
RTVSPropertyOp13
 70
     1
102
RTVSPropertyOp14
 70
     1
102
RTVSPropertyOp15
 70
     1
102
RTVSPropertyOp16
 70
     1
102
RTVSPropertyOp17
 70
     1
102
RTVSPropertyOp18
 70
     1
102
RTVSPropertyOp19
 70
     1
102
RTVSPropertyOp20
 70
     1
102
RTVSPropertyOp21
 70
     1
102
RTVSPropertyOp22
 70
     1
102
RTVSPropertyOp23
 70
     1
102
RTVSPropertyOp24
 70
     1
102
RTVSPropertyOp25
 70
     1
102
RTVSPropertyOp26
 70
     1
102
RTVSPropertyOp27
 70
     1
102
RTVSPropertyOp28
 70
     1
102
RTVSPropertyOp29
 70
     1
102
RTVSPropertyOp30
 70
     1
102
RTVSPropertyOp31
 70
     1
102
RTVSPropertyOp32
 70
     1
102
RTVSPropertyOp33
 70
     1
102
RTVSPropertyOp34
 70
     1
102
RTVSPropertyOp35
 70
     1
102
RTVSPropertyOp36
 70
     1
102
RTVSPropertyOp37
 70
     1
102
RTVSPropertyOp38
 70
     1
102
RTVSPropertyOp39
 70
     1
102
RTVSPropertyOp40
 70
     1
102
RTVSPropertyOp41
 70
     1
102
RTVSPropertyOp42
 70
     1
102
RTVSPropertyOp43
 70
     1
102
RTVSPropertyOp44
 70
     1
102
RTVSPropertyOp45
 70
     1
102
RTVSPropertyOp46
 70
     1
102
RTVSPropertyOp47
 70
     1
102
RTVSPropertyOp48
 70
     1
102
RTVSPropertyOp49
 70
     1
102
RTVSPropertyOp50
 70
     1
102
RTVSPropertyOp51
 70
     0
102
RTVSPropertyOp52
 70
     0
102
RTVSPropertyOp53
 70
     1
102
RTVSPropertyOp54
 70
     1
102
RTVSPropertyOp55
 70
     1
102
RTVSPropertyOp56
 70
     1
102
RTVSPropertyOp57
 70
     1
102
RTVSPropertyOp58
 70
     1
102
RTVSPropertyOp59
 70
     1
102
RTVSPropertyOp60
 70
     1
102
RTVSPropertyOp61
 70
     1
102
RTVSPropertyOp62
 70
     1
  0
ENDSEC
  0
EOF
